  0
SECTION
  2
HEADER
  9
$ACADVER
  1
AC1009
  9
$INSBASE
 10
3474.9343193973968482
 20
200.7826194703638976
 30
0.0
  9
$EXTMIN
 10
3463.6274049391558947
 20
191.3426746283631985
 30
0.0
  9
$EXTMAX
 10
3486.241233855630071
 20
210.222619470364009
 30
0.0
  9
$LIMMIN
 10
0.0
 20
0.0
  9
$LIMMAX
 10
11.6929133858000007
 20
8.2677165353999982
  9
$ORTHOMODE
 70
     0
  9
$REGENMODE
 70
     1
  9
$FILLMODE
 70
     1
  9
$QTEXTMODE
 70
     0
  9
$MIRRTEXT
 70
     0
  9
$DRAGMODE
 70
     2
  9
$LTSCALE
 40
0.6431102362
  9
$OSMODE
 70
  3839
  9
$ATTMODE
 70
     1
  9
$TEXTSIZE
 40
0.2
  9
$TRACEWID
 40
0.05
  9
$TEXTSTYLE
  7
STANDARD
  9
$CLAYER
  8
0
  9
$CELTYPE
  6
BYLAYER
  9
$CECOLOR
 62
   256
  9
$DIMSCALE
 40
1.0
  9
$DIMASZ
 40
0.1875
  9
$DIMEXO
 40
0.0625
  9
$DIMDLI
 40
0.4443307087
  9
$DIMRND
 40
0.0
  9
$DIMDLE
 40
0.0
  9
$DIMEXE
 40
0.125
  9
$DIMTP
 40
0.01
  9
$DIMTM
 40
0.01
  9
$DIMTXT
 40
2.0
  9
$DIMCEN
 40
0.1052362205
  9
$DIMTSZ
 40
0.0
  9
$DIMTOL
 70
     1
  9
$DIMLIM
 70
     0
  9
$DIMTIH
 70
     1
  9
$DIMTOH
 70
     1
  9
$DIMSE1
 70
     0
  9
$DIMSE2
 70
     0
  9
$DIMTAD
 70
     0
  9
$DIMZIN
 70
     0
  9
$DIMBLK
  1

  9
$DIMASO
 70
     1
  9
$DIMSHO
 70
     1
  9
$DIMPOST
  1
\X
  9
$DIMAPOST
  1

  9
$DIMALT
 70
     1
  9
$DIMALTD
 70
     2
  9
$DIMALTF
 40
25.3999999999999986
  9
$DIMLFAC
 40
1.0
  9
$DIMTOFL
 70
     0
  9
$DIMTVP
 40
0.0
  9
$DIMTIX
 70
     0
  9
$DIMSOXD
 70
     0
  9
$DIMSAH
 70
     0
  9
$DIMBLK1
  1

  9
$DIMBLK2
  1

  9
$DIMSTYLE
  2
STANDARD
  9
$DIMCLRD
 70
     0
  9
$DIMCLRE
 70
     0
  9
$DIMCLRT
 70
     0
  9
$DIMTFAC
 40
1.0
  9
$DIMGAP
 40
0.09
  9
$LUNITS
 70
     2
  9
$LUPREC
 70
     4
  9
$SKETCHINC
 40
0.1
  9
$FILLETRAD
 40
0.0
  9
$AUNITS
 70
     0
  9
$AUPREC
 70
     0
  9
$MENU
  1
.
  9
$ELEVATION
 40
0.0
  9
$PELEVATION
 40
0.0
  9
$THICKNESS
 40
0.0
  9
$LIMCHECK
 70
     0
  9
$BLIPMODE
 70
     0
  9
$CHAMFERA
 40
0.0
  9
$CHAMFERB
 40
0.0
  9
$SKPOLY
 70
     0
  9
$TDCREATE
 40
2458060.468368056230247
  9
$TDUPDATE
 40
2459016.687349536921829
  9
$TDINDWG
 40
0.5092315972
  9
$TDUSRTIMER
 40
0.5092315972
  9
$USRTIMER
 70
     1
  9
$ANGBASE
 50
0.0
  9
$ANGDIR
 70
     0
  9
$PDMODE
 70
     0
  9
$PDSIZE
 40
0.3125
  9
$PLINEWID
 40
0.0
  9
$COORDS
 70
     1
  9
$SPLFRAME
 70
     0
  9
$SPLINETYPE
 70
     6
  9
$SPLINESEGS
 70
     8
  9
$ATTDIA
 70
     1
  9
$ATTREQ
 70
     1
  9
$HANDLING
 70
     1
  9
$HANDSEED
  5
8C5D
  9
$SURFTAB1
 70
     6
  9
$SURFTAB2
 70
     6
  9
$SURFTYPE
 70
     6
  9
$SURFU
 70
     6
  9
$SURFV
 70
     6
  9
$UCSNAME
  2

  9
$UCSORG
 10
0.0
 20
0.0
 30
0.0
  9
$UCSXDIR
 10
1.0
 20
0.0
 30
0.0
  9
$UCSYDIR
 10
0.0
 20
1.0
 30
0.0
  9
$PUCSNAME
  2

  9
$PUCSORG
 10
0.0
 20
0.0
 30
0.0
  9
$PUCSXDIR
 10
1.0
 20
0.0
 30
0.0
  9
$PUCSYDIR
 10
0.0
 20
1.0
 30
0.0
  9
$USERI1
 70
     0
  9
$USERI2
 70
     0
  9
$USERI3
 70
     0
  9
$USERI4
 70
     0
  9
$USERI5
 70
     0
  9
$USERR1
 40
0.0
  9
$USERR2
 40
0.0
  9
$USERR3
 40
0.0
  9
$USERR4
 40
0.0
  9
$USERR5
 40
0.0
  9
$WORLDVIEW
 70
     1
  9
$SHADEDGE
 70
     3
  9
$SHADEDIF
 70
    70
  9
$TILEMODE
 70
     1
  9
$MAXACTVP
 70
    64
  9
$PLIMCHECK
 70
     0
  9
$PEXTMIN
 10
1.0000000000000000E+20
 20
1.0000000000000000E+20
 30
1.0000000000000000E+20
  9
$PEXTMAX
 10
-1.0000000000000000E+20
 20
-1.0000000000000000E+20
 30
-1.0000000000000000E+20
  9
$PLIMMIN
 10
0.0
 20
0.0
  9
$PLIMMAX
 10
12.0
 20
9.0
  9
$UNITMODE
 70
     0
  9
$VISRETAIN
 70
     1
  9
$PLINEGEN
 70
     0
  9
$PSLTSCALE
 70
     1
  0
ENDSEC
  0
SECTION
  2
TABLES
  0
TABLE
  2
VPORT
 70
     1
  0
VPORT
  2
*ACTIVE
 70
     0
 10
0.0
 20
0.0
 11
1.0
 21
1.0
 12
17.883631117705761
 22
0.0
 13
0.0
 23
0.0
 14
1.0
 24
1.0
 15
0.0
 25
0.0
 16
0.0
 26
0.0
 36
101.4502873696261958
 17
3474.934326171875
 27
200.7826538085938068
 37
0.0
 40
41.5440675879037684
 41
2.3528591352859132
 42
50.0
 43
0.0
 44
0.0
 50
0.0
 51
0.0
 71
     0
 72
   100
 73
     1
 74
     1
 75
     0
 76
     0
 77
     0
 78
     0
  0
ENDTAB
  0
TABLE
  2
LTYPE
 70
     2
  0
LTYPE
  2
CONTINUOUS
 70
     0
  3
Solid line
 72
    65
 73
     0
 40
0.0
  0
LTYPE
  2
PHANTOM2
 70
     0
  3
___ _ _ ___ _ _ ___ _ _ ___ _ _
 72
    65
 73
     6
 40
1.25
 49
0.625
 49
-0.125
 49
0.125
 49
-0.125
 49
0.125
 49
-0.125
  0
ENDTAB
  0
TABLE
  2
LAYER
 70
     2
  0
LAYER
  2
0
 70
     0
 62
   255
  6
CONTINUOUS
  0
LAYER
  2
DEFPOINTS
 70
     0
 62
     7
  6
CONTINUOUS
  0
ENDTAB
  0
TABLE
  2
STYLE
 70
     1
  0
STYLE
  2
STANDARD
 70
     0
 40
0.0
 41
0.8
 50
0.0
 71
     0
 42
0.2
  3
txt
  4

  0
ENDTAB
  0
TABLE
  2
VIEW
 70
     0
  0
ENDTAB
  0
TABLE
  2
UCS
 70
     0
  0
ENDTAB
  0
TABLE
  2
APPID
 70
     9
  0
APPID
  2
ACAD
 70
     0
  0
APPID
  2
ACAD_MLEADERVER
 70
     0
  0
APPID
  2
ACAD_EXEMPT_FROM_CAD_STANDARDS
 70
     0
  0
APPID
  2
ACAD_NAV_VCDISPLAY
 70
     0
  0
APPID
  2
ACAECLAYERSTANDARD
 70
     0
  0
APPID
  2
ACCMTRANSPARENCY
 70
     0
  0
APPID
  2
ACAD_DSTYLE_DIMJAG
 70
     0
  0
APPID
  2
ACAD_DSTYLE_DIMTALN
 70
     0
  0
APPID
  2
ACDBATTR
 70
     0
  0
ENDTAB
  0
TABLE
  2
DIMSTYLE
 70
     1
  0
DIMSTYLE
  2
STANDARD
 70
     0
  3

  4

  5

  6

  7

 40
1.0
 41
0.1875
 42
0.0625
 43
0.38
 44
0.125
 45
0.0
 46
0.0
 47
0.01
 48
0.01
140
0.15625
141
0.09
142
0.0
143
25.3999999999999986
144
1.0
145
0.0
146
1.0
147
0.09
 71
     1
 72
     0
 73
     1
 74
     1
 75
     0
 76
     0
 77
     0
 78
     4
170
     0
171
     2
172
     0
173
     0
174
     0
175
     0
176
     0
177
     0
178
     0
  0
ENDTAB
  0
ENDSEC
  0
SECTION
  2
BLOCKS
  0
BLOCK
  8
0
  2
$MODEL_SPACE
 70
     0
 10
0.0
 20
0.0
 30
0.0
  3
$MODEL_SPACE
  1

  0
ENDBLK
  5
21
  8
0
  0
BLOCK
 67
     1
  8
0
  2
$PAPER_SPACE
 70
     0
 10
0.0
 20
0.0
 30
0.0
  3
$PAPER_SPACE
  1

  0
ENDBLK
  5
1D
 67
     1
  8
0
  0
BLOCK
  8
0
  2
_FILLED
 70
     0
 10
0.0
 20
0.0
 30
0.0
  3
_FILLED
  1

  0
SOLID
  5
6F59
  8
0
  6
BYBLOCK
 62
     0
 10
0.0
 20
0.0
 30
0.0
 11
-1.0
 21
0.1666666667
 31
0.0
 12
-1.0
 22
-0.1666666667
 32
0.0
 13
-1.0
 23
-0.1666666667
 33
0.0
  0
ENDBLK
  5
6F5A
  8
0
  6
BYBLOCK
 62
     0
  0
ENDSEC
  0
SECTION
  2
ENTITIES
  0
ATTDEF
  5
3930
  8
DEFPOINTS
 10
3474.9244356604199311
 20
200.7863415353050982
 30
0.0
 40
0.001
  1
K-2189T-8
  3

  2
MODELNUMBER
 70
     0
1001
ACDBATTR
1070
     0
1070
     1
  0
ATTDEF
  5
3931
  8
DEFPOINTS
 10
3474.9244356604199311
 20
200.7846748686384899
 30
0.0
 40
0.001
  1
PORTRAIT
  3

  2
TRADENAME
 70
     0
1001
ACDBATTR
1070
     0
1070
     1
  0
ATTDEF
  5
3932
  8
DEFPOINTS
 10
3474.9244356604199311
 20
200.7830082019717963
 30
0.0
 40
0.001
  1
BATHROOM SINK
  3

  2
PRODUCT
 70
     0
1001
ACDBATTR
1070
     0
1070
     1
  0
ARC
  5
8A0F
  8
0
 10
3474.9335485089250142
 20
215.3378851720644036
 30
0.0
 40
23.9952105437011305
 50
257.6344931920816066
 51
270.0018407280086876
  0
ARC
  5
8A10
  8
0
 10
3471.0537855778211451
 20
198.2766289281568959
 30
0.0
 40
6.5003368504537882
 50
242.523337567668591
 51
258.8345180395373859
  0
ARC
  5
8A11
  8
0
 10
3467.578211411977918
 20
191.5934681770636132
 30
0.0
 40
1.03254131179159
 50
62.5233375676686123
 51
95.5064946864064837
  0
ARC
  5
8A12
  8
0
 10
3467.4331439088259685
 20
193.0982638769800133
 30
0.0
 40
0.4792307209426261
 50
240.3198861388025023
 51
275.5064946864064837
  0
ARC
  5
8A13
  8
0
 10
3469.3884823059429436
 20
196.5291033166822103
 30
0.0
 40
4.4281555756662376
 50
226.3296434370344912
 51
240.3198861388025023
  0
ARC
  5
8A14
  8
0
 10
3466.651068677792864
 20
193.6615948350589065
 30
0.0
 40
0.4638096947214901
 50
188.6231508668645063
 51
226.3296434370344912
  0
ARC
  5
8A15
  8
0
 10
3465.0573342057309674
 20
193.4199064258816918
 30
0.0
 40
1.148146525084335
 50
8.6231508668645453
 51
48.1098654840155504
  0
ARC
  5
8A16
  8
0
 10
3470.5993431686279109
 20
199.0737697832391007
 30
0.0
 40
6.7702423958738338
 50
194.0423370573892043
 51
225.1422205791363922
  0
ARC
  5
8A17
  8
0
 10
3477.6776054879860567
 20
200.7761473726708914
 30
0.0
 40
14.0502005488300803
 50
166.1753780663217128
 51
193.773371271214387
  0
ARC
  5
8A18
  8
0
 10
3469.9901118421671526
 20
202.8373917807483053
 30
0.0
 40
6.0950876946775479
 50
133.1023153323004067
 51
167.7228697528599923
  0
ARC
  5
8A19
  8
0
 10
3464.9007096344230376
 20
208.2226223988405138
 30
0.0
 40
1.3149595398786671
 50
314.6799720188674883
 51
351.0569616158543909
  0
ARC
  5
8A1A
  8
0
 10
3466.8108788262379676
 20
207.8026752807363948
 30
0.0
 40
0.6480849744800598
 50
127.0456049324701979
 51
160.5751800119448944
  0
ARC
  5
8A1B
  8
0
 10
3469.1217097553371786
 20
205.3941053197461883
 30
0.0
 40
3.9821372800831631
 50
118.8934753060733982
 51
132.7145903044979889
  0
ARC
  5
8A1C
  8
0
 10
3467.4394314058690725
 20
208.4388137435610986
 30
0.0
 40
0.5035906707152006
 50
85.2801932131488343
 51
118.6981008596851979
  0
ARC
  5
8A1D
  8
0
 10
3467.5657754823841969
 20
210.0057795901824989
 30
0.0
 40
1.068461836722336
 50
265.4420892292419012
 51
297.2268732538763061
  0
ARC
  5
8A1E
  8
0
 10
3471.1156564653401801
 20
203.0983750453904975
 30
0.0
 40
6.6977402402007469
 50
103.1986041364741027
 51
117.195387703508402
  0
ARC
  5
8A1F
  8
0
 10
3474.9910385270441111
 20
185.7199371329953976
 30
0.0
 40
24.5027479843723199
 50
90.132628783128979
 51
102.742722336697895
  0
ARC
  5
8A20
  8
0
 10
3474.9279657836232218
 20
215.3056421965127925
 30
0.0
 40
23.3413454991045697
 50
257.1196248669683087
 51
270.0155961556906163
  0
ARC
  5
8A21
  8
0
 10
3471.034779747038101
 20
198.2826169051760132
 30
0.0
 40
5.8788059778986179
 50
242.6962420957443953
 51
257.1246494279025114
  0
ARC
  5
8A22
  8
0
 10
3467.8509946029321327
 20
192.1151387365397909
 30
0.0
 40
1.061963057621242
 50
62.6962420957443314
 51
92.7160520495490488
  0
ARC
  5
8A23
  8
0
 10
3467.7677645804819804
 20
193.8695809880086074
 30
0.0
 40
0.694452283457332
 50
242.2763414908772006
 51
272.7160520495490914
  0
ARC
  5
8A24
  8
0
 10
3468.6207632180858127
 20
195.492675199813192
 30
0.0
 40
2.5280393406073411
 50
221.4258096218484866
 51
242.2763414908772006
  0
ARC
  5
8A25
  8
0
 10
3467.0537098316867741
 20
194.1098767399994074
 30
0.0
 40
0.438114007900238
 50
184.0570719035972047
 51
221.4258096218484866
  0
ARC
  5
8A26
  8
0
 10
3465.3303720478447758
 20
193.7786831939399974
 30
0.0
 40
1.320886674864068
 50
13.1363546452733608
 51
45.2289021516229468
  0
ARC
  5
8A27
  8
0
 10
3470.5268827825298104
 20
199.0326194700660096
 30
0.0
 40
6.0688086468156026
 50
193.8510175742950139
 51
225.3335432684993975
  0
ARC
  5
8A28
  8
0
 10
3477.6243189400038318
 20
200.7826194703428939
 30
0.0
 40
13.3788086475258901
 50
166.1489824246370119
 51
193.8510175751891893
  0
ARC
  5
8A29
  8
0
 10
3470.5268827833779142
 20
202.5326194703640112
 30
0.0
 40
6.0688086476999619
 50
134.666459937708396
 51
166.1489824249024139
  0
ARC
  5
8A2A
  8
0
 10
3465.2996126013222238
 20
207.8091925514275999
 30
0.0
 40
1.3586330628931149
 50
315.0196596008734105
 51
349.6565448465922827
  0
ARC
  5
8A2B
  8
0
 10
3467.1655606684298618
 20
207.4178696892898017
 30
0.0
 40
0.5495266682439967
 50
131.5415000503624015
 51
164.4428753028990116
  0
ARC
  5
8A2C
  8
0
 10
3469.113217926921152
 20
205.4079844155598096
 30
0.0
 40
3.3478201341332681
 50
119.8936053682618024
 51
133.6794703358810921
  0
ARC
  5
8A2D
  8
0
 10
3467.7356718244859621
 20
207.8403720987568875
 30
0.0
 40
0.5527928545792824
 50
83.247239783293935
 51
121.7609673407258981
  0
ARC
  5
8A2E
  8
0
 10
3467.849688050775967
 20
209.4560952968130891
 30
0.0
 40
1.067890685368265
 50
267.3692120607951779
 51
297.2185023337509051
  0
ARC
  5
8A2F
  8
0
 10
3471.034780509139182
 20
203.2826194598355869
 30
0.0
 40
5.8788086586739343
 50
102.8753522190211953
 51
117.3037529892505972
  0
ARC
  5
8A30
  8
0
 10
3474.9107339523361588
 20
186.3586448678942133
 30
0.0
 40
23.2409490086945993
 50
89.9418549263515956
 51
102.8933948382030934
  0
ARC
  5
8A31
  8
0
 10
3474.9343124316719695
 20
215.3424937012462976
 30
0.0
 40
22.8869650304619192
 50
257.1244027100859171
 51
270.0000174381600004
  0
ARC
  5
8A32
  8
0
 10
3471.0345517114219547
 20
198.2818568338595924
 30
0.0
 40
5.3862946434157513
 50
242.695121482973093
 51
257.1244019209680118
  0
ARC
  5
8A33
  8
0
 10
3468.0097857731479962
 20
192.4227043067787974
 30
0.0
 40
1.2075568348126831
 50
62.6951214829730503
 51
88.6563302370847452
  0
ARC
  5
8A34
  8
0
 10
3467.9238957501361256
 20
194.1126868576687912
 30
0.0
 40
0.4960828137094993
 50
243.4181039658004124
 51
283.3098124936402087
  0
ARC
  5
8A35
  8
0
 10
3469.1185889515350027
 20
196.1682360480851059
 30
0.0
 40
2.872794542405003
 50
225.6823715749779069
 51
240.4530841561191892
  0
ARC
  5
8A36
  8
0
 10
3467.4695065777000309
 20
194.4333043443315034
 30
0.0
 40
0.4804624005801821
 50
183.6239688576274887
 51
221.8392469392184125
  0
ARC
  5
8A37
  8
0
 10
3465.3209405083589445
 20
193.8799030966374914
 30
0.0
 40
1.7490965290181839
 50
17.3993462881089904
 51
42.7028341924162191
  0
ARC
  5
8A38
  8
0
 10
3470.5268827832051102
 20
199.0326194702952876
 30
0.0
 40
5.5770813865161442
 50
193.8519731955391023
 51
225.3335960390714092
  0
ARC
  5
8A39
  8
0
 10
3477.6237551752178661
 20
200.7825899999349133
 30
0.0
 40
12.8865269607725299
 50
166.1478415518488987
 51
193.8519040067324966
  0
ARC
  5
8A3A
  8
0
 10
3470.5277583128868173
 20
202.5323261319391861
 30
0.0
 40
5.5779875722002661
 50
134.6706809405978902
 51
166.1472544347602138
  0
ARC
  5
8A3B
  8
0
 10
3465.5684521934640543
 20
207.5423246007420062
 30
0.0
 40
1.471472309644958
 50
314.8526411625163064
 51
345.0331008742380732
  0
ARC
  5
8A3C
  8
0
 10
3467.469507632665227
 20
207.1319347265306874
 30
0.0
 40
0.4804630979466889
 50
138.1608448432303931
 51
176.3764029843686103
  0
ARC
  5
8A3D
  8
0
 10
3469.0986726459091187
 20
205.420309393690502
 30
0.0
 40
2.8422057481600982
 50
118.9776936612815064
 51
134.3586123462779085
  0
ARC
  5
8A3E
  8
0
 10
3467.9323966506190118
 20
207.3406383308800116
 30
0.0
 40
0.6039934042763332
 50
79.9206329929909174
 51
110.4151400062230977
  0
ARC
  5
8A3F
  8
0
 10
3468.0075914201561318
 20
209.151021057191997
 30
0.0
 40
1.2160940159266591
 50
271.4376847739051755
 51
297.2133327884499749
  0
ARC
  5
8A40
  8
0
 10
3470.9646352604859203
 20
203.4744067591315968
 30
0.0
 40
5.1845564121165264
 50
102.592778936497993
 51
117.5867034482737949
  0
ARC
  5
8A41
  8
0
 10
3474.9343133750858215
 20
186.2227392792493106
 30
0.0
 40
22.886971051141451
 50
89.9999849236049272
 51
102.8755962672804998
  0
ARC
  5
8A42
  8
0
 10
3474.9311594606438121
 20
215.1072196197571031
 30
0.0
 40
22.1406063008556018
 50
257.0044091632083791
 51
270.0081773298120993
  0
ARC
  5
8A43
  8
0
 10
3471.2667549451230116
 20
199.2288749499973051
 30
0.0
 40
5.8449108612927763
 50
193.9570601596502968
 51
257.0033280865970937
  0
ARC
  5
8A44
  8
0
 10
3477.1884559476438881
 20
200.7006078611998987
 30
0.0
 40
11.9467581656071307
 50
165.2562868281335113
 51
193.9570601596502968
  0
ARC
  5
8A45
  8
0
 10
3471.2387797363940081
 20
202.4010277715929078
 30
0.0
 40
5.761704708774178
 50
115.2289786794810027
 51
166.5517721797897082
  0
ARC
  5
8A46
  8
0
 10
3471.2213823024558224
 20
202.4588537114200903
 30
0.0
 40
5.7019862264648076
 50
102.0613161126235013
 51
115.3185061248665022
  0
ARC
  5
8A47
  8
0
 10
3474.8239918954827772
 20
187.0108360964858889
 30
0.0
 40
21.5637962681928492
 50
89.7068545944125617
 51
102.8453999731379014
  0
ARC
  5
8A48
  8
0
 10
3475.0702605394180864
 20
173.9109000851053111
 30
0.0
 40
31.0235032541858899
 50
90.2510638002955261
 51
100.1764451534824047
  0
ARC
  5
8A49
  8
0
 10
3470.4184780366199448
 20
199.0506312839848135
 30
0.0
 40
5.4591017600594451
 50
98.7393440953251655
 51
161.4831852259291907
  0
CIRCLE
  5
8A4A
  8
0
 10
3474.9343189401779455
 20
202.6026194703640044
 30
0.0
 40
1.1594309364479101
  0
CIRCLE
  5
8A4B
  8
0
 10
3474.934321946541786
 20
202.5964372169225101
 30
0.0
 40
1.4799099265512821
  0
CIRCLE
  5
8A4C
  8
0
 10
3474.9343161276710816
 20
206.7125825744570875
 30
0.0
 40
0.6899998049318981
  0
ARC
  5
8A4D
  8
0
 10
3474.9350801196919747
 20
215.3379790301248136
 30
0.0
 40
23.9953044014370107
 50
269.998183553915112
 51
282.3654825261064047
  0
ARC
  5
8A4E
  8
0
 10
3478.8148532169348073
 20
198.2766289281568959
 30
0.0
 40
6.5003368504537882
 50
281.1654819604626141
 51
297.476662432331409
  0
ARC
  5
8A4F
  8
0
 10
3482.2904273827780344
 20
191.5934681770636132
 30
0.0
 40
1.03254131179159
 50
84.4935053135935163
 51
117.4766624323313948
  0
ARC
  5
8A50
  8
0
 10
3482.4354948859290744
 20
193.0982638769800133
 30
0.0
 40
0.4792307209426261
 50
264.4935053135935163
 51
299.6801138611975261
  0
ARC
  5
8A51
  8
0
 10
3480.4801564888130088
 20
196.5291033166822103
 30
0.0
 40
4.4281555756662376
 50
299.6801138611975261
 51
313.6703565629654804
  0
ARC
  5
8A52
  8
0
 10
3483.2175701169630884
 20
193.6615948350589065
 30
0.0
 40
0.4638096947214901
 50
313.6703565629654804
 51
351.3768491331338737
  0
ARC
  5
8A53
  8
0
 10
3484.811304589024985
 20
193.4199064258816918
 30
0.0
 40
1.148146525084335
 50
131.8901345159844141
 51
171.3768491331354085
  0
ARC
  5
8A54
  8
0
 10
3479.2692956261280415
 20
199.0737697832391007
 30
0.0
 40
6.7702423958738338
 50
314.8577794208636078
 51
345.9576629426107957
  0
ARC
  5
8A55
  8
0
 10
3479.8785269525887998
 20
202.8373917807483053
 30
0.0
 40
6.0950876946775479
 50
12.2771302471399597
 51
46.8976846676995365
  0
ARC
  5
8A56
  8
0
 10
3484.9679291603320053
 20
208.2226223988405138
 30
0.0
 40
1.3149595398786671
 50
188.9430383841456091
 51
225.320027981132597
  0
ARC
  5
8A57
  8
0
 10
3483.0577599685179848
 20
207.8026752807363948
 30
0.0
 40
0.6480849744800598
 50
19.424819988055031
 51
52.9543950675298021
  0
ARC
  5
8A58
  8
0
 10
3480.7469290394187738
 20
205.3941053197461883
 30
0.0
 40
3.9821372800831631
 50
47.2854096955020395
 51
61.1065246939266231
  0
ARC
  5
8A59
  8
0
 10
3482.4292073888868799
 20
208.4388137435610986
 30
0.0
 40
0.5035906707152006
 50
61.3018991403147808
 51
94.7198067868251741
  0
ARC
  5
8A5A
  8
0
 10
3482.3028633123722102
 20
210.0057795901824989
 30
0.0
 40
1.068461836722336
 50
242.7731267461230118
 51
274.5579107707579851
  0
ARC
  5
8A5B
  8
0
 10
3478.752982329416227
 20
203.0983750453904975
 30
0.0
 40
6.6977402402007469
 50
62.804612296491598
 51
76.8013958635258689
  0
ARC
  5
8A5C
  8
0
 10
3474.8776002677109318
 20
185.7199371329886048
 30
0.0
 40
24.5027479843791696
 50
77.2572776633020766
 51
89.8673712167667986
  0
ARC
  5
8A5D
  8
0
 10
3474.9409212528457829
 20
215.303440309168991
 30
0.0
 40
23.3391436807413513
 50
269.9837929589763235
 51
282.8809860184703098
  0
ARC
  5
8A5E
  8
0
 10
3478.8338590477178514
 20
198.2826169051760132
 30
0.0
 40
5.8788059778986179
 50
282.8753505720976023
 51
297.3037579042556899
  0
ARC
  5
8A5F
  8
0
 10
3482.0176441918238197
 20
192.1151387365397909
 30
0.0
 40
1.061963057621242
 50
87.2839479504509654
 51
117.3037579042556047
  0
ARC
  5
8A60
  8
0
 10
3482.100874214273972
 20
193.8695809880086074
 30
0.0
 40
0.694452283457332
 50
267.2839479504509086
 51
297.7236585091229131
  0
ARC
  5
8A61
  8
0
 10
3481.2478755766687755
 20
195.492675199813192
 30
0.0
 40
2.5280393406073411
 50
297.7236585091229131
 51
318.5741903781515134
  0
ARC
  5
8A62
  8
0
 10
3482.8149289630691783
 20
194.1098767399994074
 30
0.0
 40
0.438114007900238
 50
318.5741903781515134
 51
355.9429280964027953
  0
ARC
  5
8A63
  8
0
 10
3484.5382667469111766
 20
193.7786831939399974
 30
0.0
 40
1.320886674864068
 50
134.7710978483769964
 51
166.8636453547266001
  0
ARC
  5
8A64
  8
0
 10
3479.341756012226142
 20
199.0326194700660096
 30
0.0
 40
6.0688086468156026
 50
314.6664567315007162
 51
346.1489824257049008
  0
ARC
  5
8A65
  8
0
 10
3472.2443198547521206
 20
200.7826194703428939
 30
0.0
 40
13.3788086475258901
 50
346.1489824248108107
 51
13.8510175753629703
  0
ARC
  5
8A66
  8
0
 10
3479.3417560113780382
 20
202.5326194703640112
 30
0.0
 40
6.0688086476999619
 50
13.8510175750976092
 51
45.3335400622915472
  0
ARC
  5
8A67
  8
0
 10
3484.5690261934341834
 20
207.8091925514275999
 30
0.0
 40
1.3586330628931149
 50
190.3434551534076888
 51
224.9803403991265895
  0
ARC
  5
8A68
  8
0
 10
3482.7030781263260906
 20
207.4178696892898017
 30
0.0
 40
0.5495266682439967
 50
15.5571246971009796
 51
48.4584999496376128
  0
ARC
  5
8A69
  8
0
 10
3480.7554208678348004
 20
205.4079844155598096
 30
0.0
 40
3.3478201341332681
 50
46.3205296641188866
 51
60.1063946317381976
  0
ARC
  5
8A6A
  8
0
 10
3482.1329669702699903
 20
207.8403720987568875
 30
0.0
 40
0.5527928545792824
 50
58.2390326592740593
 51
96.7527602167060792
  0
ARC
  5
8A6B
  8
0
 10
3482.0189507439799854
 20
209.4560952968130891
 30
0.0
 40
1.067890685368265
 50
242.7814976662490949
 51
272.6307879392048221
  0
ARC
  5
8A6C
  8
0
 10
3478.8338582856172252
 20
203.2826194598355869
 30
0.0
 40
5.8788086586739343
 50
62.6962470107494099
 51
77.1246477809787336
  0
ARC
  5
8A6D
  8
0
 10
3474.9597219418910754
 20
186.3747998119578995
 30
0.0
 40
23.2247959893566183
 50
77.1020819183118533
 51
90.062668317065615
  0
ARC
  5
8A6E
  8
0
 10
3474.9343263488490265
 20
215.3424938274033877
 30
0.0
 40
22.8869651566190306
 50
269.9999825975615977
 51
282.8755972542862196
  0
ARC
  5
8A6F
  8
0
 10
3478.8340870833339977
 20
198.2818568338595924
 30
0.0
 40
5.3862946434157513
 50
282.8755980790319882
 51
297.304878517026907
  0
ARC
  5
8A70
  8
0
 10
3481.8588530216070467
 20
192.4227043067787974
 30
0.0
 40
1.2075568348126831
 50
91.3436697629152548
 51
117.304878517026907
  0
ARC
  5
8A71
  8
0
 10
3481.9447430446189173
 20
194.1126868576687912
 30
0.0
 40
0.4960828137094993
 50
256.6901875063597913
 51
296.5818960341995876
  0
ARC
  5
8A72
  8
0
 10
3480.7500498432200402
 20
196.1682360480851059
 30
0.0
 40
2.872794542405003
 50
299.5469158438808108
 51
314.3176284250220078
  0
ARC
  5
8A73
  8
0
 10
3482.3991322170559215
 20
194.4333043443315034
 30
0.0
 40
0.4804624005801821
 50
318.1607530607814738
 51
356.3760311423708913
  0
ARC
  5
8A74
  8
0
 10
3484.5476982863970079
 20
193.8799030966374914
 30
0.0
 40
1.7490965290181839
 50
137.2971658075836956
 51
162.6006537118909989
  0
ARC
  5
8A75
  8
0
 10
3479.3417560115499327
 20
199.0326194702952876
 30
0.0
 40
5.5770813865161442
 50
314.6664039609285055
 51
346.1480268044608124
  0
ARC
  5
8A76
  8
0
 10
3472.2448836195380864
 20
200.7825899999349133
 30
0.0
 40
12.8865269607725299
 50
346.148095993267475
 51
13.8521584481511209
  0
ARC
  5
8A77
  8
0
 10
3479.3408804818691351
 20
202.5323261319391861
 30
0.0
 40
5.5779875722002661
 50
13.8527455652398395
 51
45.3293190594020601
  0
ARC
  5
8A78
  8
0
 10
3484.3001866012918981
 20
207.5423246007420062
 30
0.0
 40
1.471472309644958
 50
194.9668991257618984
 51
225.1473588374838073
  0
ARC
  5
8A79
  8
0
 10
3482.3991311620911802
 20
207.1319347265306874
 30
0.0
 40
0.4804630979466889
 50
3.6235970156314261
 51
41.8391551567695501
  0
ARC
  5
8A7A
  8
0
 10
3480.7699661488468337
 20
205.420309393690502
 30
0.0
 40
2.8422057481600982
 50
45.6413876537221412
 51
61.0223063387184297
  0
ARC
  5
8A7B
  8
0
 10
3481.9362421441360311
 20
207.3406383308800116
 30
0.0
 40
0.6039934042763332
 50
69.5848599937769592
 51
100.0793670070090968
  0
ARC
  5
8A7C
  8
0
 10
3481.8610473745998206
 20
209.151021057191997
 30
0.0
 40
1.2160940159266591
 50
242.7866672115499966
 51
268.5623152260948245
  0
ARC
  5
8A7D
  8
0
 10
3478.9040035342700321
 20
203.4744067591315968
 30
0.0
 40
5.1845564121165264
 50
62.4132965517261979
 51
77.407221063501936
  0
ARC
  5
8A7E
  8
0
 10
3474.934325369572889
 20
186.222738835266
 30
0.0
 40
22.8869714951246692
 50
77.1244038581234435
 51
90.0000149508876461
  0
ARC
  5
8A7F
  8
0
 10
3474.9374236548610497
 20
215.107708787957506
 30
0.0
 40
22.1410954611745687
 50
269.9919669353197946
 51
282.9954465717518133
  0
ARC
  5
8A80
  8
0
 10
3478.6018838496329408
 20
199.2288749499973051
 30
0.0
 40
5.8449108612927763
 50
282.9966719134029063
 51
346.0429398403496748
  0
ARC
  5
8A81
  8
0
 10
3472.6801828471120643
 20
200.7006078611998987
 30
0.0
 40
11.9467581656071307
 50
346.0429398403496748
 51
14.7437131718664691
  0
ARC
  5
8A82
  8
0
 10
3478.6298590583619443
 20
202.4010277715929078
 30
0.0
 40
5.761704708774178
 50
13.4482278202103096
 51
64.7710213205189547
  0
ARC
  5
8A83
  8
0
 10
3478.64725649230013
 20
202.4588537114200903
 30
0.0
 40
5.7019862264648076
 50
64.6814938751334836
 51
77.9386838873764844
  0
ARC
  5
8A84
  8
0
 10
3475.0428545359281998
 20
186.9945388190701863
 30
0.0
 40
21.5800842434966995
 50
77.1595801261567544
 51
90.2881653061956513
  0
ARC
  5
8A85
  8
0
 10
3474.7992180649130205
 20
173.9201035600432022
 30
0.0
 40
31.0142961979686795
 50
79.8220779008518235
 51
89.7504131452835878
  0
ARC
  5
8A86
  8
0
 10
3479.4501607581360076
 20
199.0506312839848135
 30
0.0
 40
5.4591017600594451
 50
18.51681477407082
 51
81.2606559046748487
  0
ARC
  5
8A87
  8
0
 10
3472.1910333078189979
 20
200.7761473726712893
 30
0.0
 40
14.0502005478103698
 50
346.2266287277603851
 51
13.8246219346972801
  0
CIRCLE
  5
8A89
  8
0
 10
3470.9343198544929692
 20
206.3414446607640116
 30
0.0
 40
0.6899999999999999
  0
CIRCLE
  5
8A8A
  8
0
 10
3478.9343198544938787
 20
206.3414446607640116
 30
0.0
 40
0.6899999999999995
  0
POINT
  5
8A8B
  8
DEFPOINTS
 10
3474.9343161276710816
 20
206.7125825744570875
 30
0.0
  0
ENDSEC
  0
EOF
