  0
SECTION
  2
HEADER
  9
$ACADVER
  1
AC1009
  9
$INSBASE
 10
4595.2851109774783254
 20
487.5709258360627132
 30
0.0
  9
$EXTMIN
 10
4583.0803865680281888
 20
479.9713650803515179
 30
0.0
  9
$EXTMAX
 10
4607.4898353869275525
 20
487.5752625301875014
 30
0.0
  9
$LIMMIN
 10
0.0
 20
0.0
  9
$LIMMAX
 10
11.6929133858000007
 20
8.2677165353999982
  9
$ORTHOMODE
 70
     0
  9
$REGENMODE
 70
     1
  9
$FILLMODE
 70
     1
  9
$QTEXTMODE
 70
     0
  9
$MIRRTEXT
 70
     0
  9
$DRAGMODE
 70
     2
  9
$LTSCALE
 40
0.6431102362
  9
$OSMODE
 70
     7
  9
$ATTMODE
 70
     1
  9
$TEXTSIZE
 40
0.2
  9
$TRACEWID
 40
0.05
  9
$TEXTSTYLE
  7
STANDARD
  9
$CLAYER
  8
0
  9
$CELTYPE
  6
BYLAYER
  9
$CECOLOR
 62
   256
  9
$DIMSCALE
 40
1.0
  9
$DIMASZ
 40
0.1875
  9
$DIMEXO
 40
0.0625
  9
$DIMDLI
 40
0.4443307087
  9
$DIMRND
 40
0.0
  9
$DIMDLE
 40
0.0
  9
$DIMEXE
 40
0.125
  9
$DIMTP
 40
0.01
  9
$DIMTM
 40
0.01
  9
$DIMTXT
 40
2.0
  9
$DIMCEN
 40
0.1052362205
  9
$DIMTSZ
 40
0.0
  9
$DIMTOL
 70
     1
  9
$DIMLIM
 70
     0
  9
$DIMTIH
 70
     1
  9
$DIMTOH
 70
     1
  9
$DIMSE1
 70
     0
  9
$DIMSE2
 70
     0
  9
$DIMTAD
 70
     0
  9
$DIMZIN
 70
     0
  9
$DIMBLK
  1

  9
$DIMASO
 70
     1
  9
$DIMSHO
 70
     1
  9
$DIMPOST
  1
\X
  9
$DIMAPOST
  1

  9
$DIMALT
 70
     1
  9
$DIMALTD
 70
     2
  9
$DIMALTF
 40
25.3999999999999986
  9
$DIMLFAC
 40
1.0
  9
$DIMTOFL
 70
     0
  9
$DIMTVP
 40
0.0
  9
$DIMTIX
 70
     0
  9
$DIMSOXD
 70
     0
  9
$DIMSAH
 70
     0
  9
$DIMBLK1
  1

  9
$DIMBLK2
  1

  9
$DIMSTYLE
  2
STANDARD
  9
$DIMCLRD
 70
     0
  9
$DIMCLRE
 70
     0
  9
$DIMCLRT
 70
     0
  9
$DIMTFAC
 40
1.0
  9
$DIMGAP
 40
0.09
  9
$LUNITS
 70
     2
  9
$LUPREC
 70
     4
  9
$SKETCHINC
 40
0.1
  9
$FILLETRAD
 40
0.0
  9
$AUNITS
 70
     0
  9
$AUPREC
 70
     0
  9
$MENU
  1
.
  9
$ELEVATION
 40
0.0
  9
$PELEVATION
 40
0.0
  9
$THICKNESS
 40
0.0
  9
$LIMCHECK
 70
     0
  9
$BLIPMODE
 70
     0
  9
$CHAMFERA
 40
0.0
  9
$CHAMFERB
 40
0.0
  9
$SKPOLY
 70
     0
  9
$TDCREATE
 40
2458060.468368056230247
  9
$TDUPDATE
 40
2459319.5031249998137355
  9
$TDINDWG
 40
1.5086080324
  9
$TDUSRTIMER
 40
1.5086080324
  9
$USRTIMER
 70
     1
  9
$ANGBASE
 50
0.0
  9
$ANGDIR
 70
     0
  9
$PDMODE
 70
     0
  9
$PDSIZE
 40
0.3125
  9
$PLINEWID
 40
0.0
  9
$COORDS
 70
     1
  9
$SPLFRAME
 70
     0
  9
$SPLINETYPE
 70
     6
  9
$SPLINESEGS
 70
     8
  9
$ATTDIA
 70
     1
  9
$ATTREQ
 70
     1
  9
$HANDLING
 70
     1
  9
$HANDSEED
  5
1BAEC
  9
$SURFTAB1
 70
     6
  9
$SURFTAB2
 70
     6
  9
$SURFTYPE
 70
     6
  9
$SURFU
 70
     6
  9
$SURFV
 70
     6
  9
$UCSNAME
  2

  9
$UCSORG
 10
0.0
 20
0.0
 30
0.0
  9
$UCSXDIR
 10
1.0
 20
0.0
 30
0.0
  9
$UCSYDIR
 10
0.0
 20
1.0
 30
0.0
  9
$PUCSNAME
  2

  9
$PUCSORG
 10
0.0
 20
0.0
 30
0.0
  9
$PUCSXDIR
 10
1.0
 20
0.0
 30
0.0
  9
$PUCSYDIR
 10
0.0
 20
1.0
 30
0.0
  9
$USERI1
 70
     0
  9
$USERI2
 70
     0
  9
$USERI3
 70
     0
  9
$USERI4
 70
     0
  9
$USERI5
 70
     0
  9
$USERR1
 40
0.0
  9
$USERR2
 40
0.0
  9
$USERR3
 40
0.0
  9
$USERR4
 40
0.0
  9
$USERR5
 40
0.0
  9
$WORLDVIEW
 70
     1
  9
$SHADEDGE
 70
     3
  9
$SHADEDIF
 70
    70
  9
$TILEMODE
 70
     1
  9
$MAXACTVP
 70
    64
  9
$PLIMCHECK
 70
     0
  9
$PEXTMIN
 10
1.0000000000000000E+20
 20
1.0000000000000000E+20
 30
1.0000000000000000E+20
  9
$PEXTMAX
 10
-1.0000000000000000E+20
 20
-1.0000000000000000E+20
 30
-1.0000000000000000E+20
  9
$PLIMMIN
 10
0.0
 20
0.0
  9
$PLIMMAX
 10
12.0
 20
9.0
  9
$UNITMODE
 70
     0
  9
$VISRETAIN
 70
     1
  9
$PLINEGEN
 70
     0
  9
$PSLTSCALE
 70
     1
  0
ENDSEC
  0
SECTION
  2
TABLES
  0
TABLE
  2
VPORT
 70
     1
  0
VPORT
  2
*ACTIVE
 70
     0
 10
0.0
 20
0.0
 11
1.0
 21
1.0
 12
683.9058025621651495
 22
351.1859956136668188
 13
0.0
 23
0.0
 14
1.0
 24
1.0
 15
0.0
 25
0.0
 16
0.0
 26
0.0
 36
60.4960186965801583
 17
3911.3653564453120453
 27
132.5796051025390057
 37
0.0
 40
10.1533149741166202
 41
2.448010269576379
 42
50.0
 43
0.0
 44
0.0
 50
0.0
 51
0.0
 71
     0
 72
   100
 73
     1
 74
     1
 75
     0
 76
     0
 77
     0
 78
     0
  0
ENDTAB
  0
TABLE
  2
LTYPE
 70
     2
  0
LTYPE
  2
CONTINUOUS
 70
     0
  3
Solid line
 72
    65
 73
     0
 40
0.0
  0
LTYPE
  2
PHANTOM2
 70
     0
  3
___ _ _ ___ _ _ ___ _ _ ___ _ _
 72
    65
 73
     6
 40
1.25
 49
0.625
 49
-0.125
 49
0.125
 49
-0.125
 49
0.125
 49
-0.125
  0
ENDTAB
  0
TABLE
  2
LAYER
 70
     2
  0
LAYER
  2
0
 70
     0
 62
   255
  6
CONTINUOUS
  0
LAYER
  2
DEFPOINTS
 70
     0
 62
     7
  6
CONTINUOUS
  0
ENDTAB
  0
TABLE
  2
STYLE
 70
     1
  0
STYLE
  2
STANDARD
 70
     0
 40
0.0
 41
0.8
 50
0.0
 71
     0
 42
0.2
  3
txt
  4

  0
ENDTAB
  0
TABLE
  2
VIEW
 70
     0
  0
ENDTAB
  0
TABLE
  2
UCS
 70
     0
  0
ENDTAB
  0
TABLE
  2
APPID
 70
    11
  0
APPID
  2
ACAD
 70
     0
  0
APPID
  2
ACAD_MLEADERVER
 70
     0
  0
APPID
  2
ACAD_EXEMPT_FROM_CAD_STANDARDS
 70
     0
  0
APPID
  2
ACAD_NAV_VCDISPLAY
 70
     0
  0
APPID
  2
ACAECLAYERSTANDARD
 70
     0
  0
APPID
  2
ACCMTRANSPARENCY
 70
     0
  0
APPID
  2
ACAD_DSTYLE_DIMJAG
 70
     0
  0
APPID
  2
ACAD_DSTYLE_DIMTALN
 70
     0
  0
APPID
  2
ACDBATTR
 70
     0
  0
APPID
  2
ACADANNOTATIVE
 70
     0
  0
APPID
  2
DCO15
 70
     0
  0
ENDTAB
  0
TABLE
  2
DIMSTYLE
 70
     1
  0
DIMSTYLE
  2
STANDARD
 70
     0
  3

  4

  5

  6

  7

 40
1.0
 41
0.1875
 42
0.0625
 43
0.38
 44
0.125
 45
0.0
 46
0.0
 47
0.01
 48
0.01
140
0.15625
141
0.09
142
0.0
143
25.3999999999999986
144
1.0
145
0.0
146
1.0
147
0.09
 71
     1
 72
     0
 73
     1
 74
     1
 75
     0
 76
     0
 77
     0
 78
     4
170
     0
171
     2
172
     0
173
     0
174
     0
175
     0
176
     0
177
     0
178
     0
  0
ENDTAB
  0
ENDSEC
  0
SECTION
  2
BLOCKS
  0
BLOCK
  8
0
  2
$MODEL_SPACE
 70
     0
 10
0.0
 20
0.0
 30
0.0
  3
$MODEL_SPACE
  1

  0
ENDBLK
  5
21
  8
0
  0
BLOCK
 67
     1
  8
0
  2
$PAPER_SPACE
 70
     0
 10
0.0
 20
0.0
 30
0.0
  3
$PAPER_SPACE
  1

  0
ENDBLK
  5
1D
 67
     1
  8
0
  0
ENDSEC
  0
SECTION
  2
ENTITIES
  0
ATTDEF
  5
159BF
  8
DEFPOINTS
 10
4595.2851109703069596
 20
487.574262530187525
 30
0.0
 40
0.001
  1
K-21916T-1
  3

  2
MODELNUMBER
 70
     0
1001
ACDBATTR
1070
     0
1070
     1
  0
ATTDEF
  5
159C0
  8
DEFPOINTS
 10
4595.2851109703069596
 20
487.572595689808395
 30
0.0
 40
0.001
  1
FAMILY CARE
  3

  2
TRADENAME
 70
     0
1001
ACDBATTR
1070
     0
1070
     1
  0
ATTDEF
  5
159C1
  8
DEFPOINTS
 10
4595.2851109703069596
 20
487.5709291968541947
 30
0.0
 40
0.001
  1
BATHROOM SINK
  3

  2
PRODUCT
 70
     0
1001
ACDBATTR
1070
     0
1070
     1
  0
LINE
  5
1B877
  8
0
 10
4590.9845739292768485
 20
479.9713650804627036
 30
0.0
 11
4588.7195129106275999
 21
479.9713650804627036
 31
0.0
  0
LINE
  5
1B878
  8
0
 10
4606.0951528701052666
 20
487.5709258360627132
 30
0.0
 11
4584.4764991649453805
 21
487.5709258360627132
 31
0.0
  0
LINE
  5
1B879
  8
0
 10
4590.3985774190286975
 20
480.483176104062693
 30
0.0
 11
4592.824888707127684
 21
480.483176104062693
 31
0.0
  0
LINE
  5
1B87A
  8
0
 10
4593.2573985737290059
 20
481.6070888186628167
 30
0.0
 11
4593.2180499412288555
 21
480.856272184262707
 31
0.0
  0
ARC
  5
1B87B
  8
0
 10
4592.8248887071658828
 20
480.8768768913666918
 30
0.0
 40
0.3937007873039429
 50
269.9999999944242859
 51
357.0000000106691118
  0
LINE
  5
1B87C
  8
0
 10
4591.1982008570848848
 20
480.483176104062693
 30
0.0
 11
4591.181154546405196
 21
480.1579131205713793
 31
0.0
  0
ARC
  5
1B87D
  8
0
 10
4590.9845739293277802
 20
480.1682154741627073
 30
0.0
 40
0.1968503937000037
 50
270.0
 51
356.9999999998996145
  0
LINE
  5
1B87E
  8
0
 10
4588.1931034490289676
 20
481.5964598341627152
 30
0.0
 11
4588.3906820205284021
 21
481.3411008588627169
 31
0.0
  0
ARC
  5
1B87F
  8
0
 10
4588.0793025083294197
 20
481.1001794841859009
 30
0.0
 40
0.393700786631098
 50
2.9999999613552601
 51
37.7299313861545116
  0
LINE
  5
1B880
  8
0
 10
4588.4724637417275517
 20
481.1207841910626826
 30
0.0
 11
4588.5229256762513614
 21
480.1579131205713793
 31
0.0
  0
ARC
  5
1B881
  8
0
 10
4588.7195062935261376
 20
480.1682154742541115
 30
0.0
 40
0.1968503939024832
 50
183.0000000236126141
 51
270.0019259906267735
  0
ARC
  5
1B882
  8
0
 10
4588.1500327191879478
 20
483.4229020606504719
 30
0.0
 40
2.703979641831574
 50
305.4667773669356166
 51
313.8841575624280722
  0
ARC
  5
1B883
  8
0
 10
4589.8056646866152732
 20
481.0731330568332282
 30
0.0
 40
0.1710999291162123
 50
120.4455756825810937
 51
167.3941965475139
  0
LINE
  5
1B884
  8
0
 10
4589.6386891792335518
 20
481.1104742630060969
 30
0.0
 11
4589.612502016295366
 21
480.8768768843756902
 31
0.0
  0
ARC
  5
1B885
  8
0
 10
4589.7233519240517126
 20
480.858136479532277
 30
0.0
 40
0.1124228838967108
 50
170.4042480360334935
 51
202.3959547207583967
  0
ARC
  5
1B886
  8
0
 10
4589.7962683199666571
 20
480.8901641697934792
 30
0.0
 40
0.1920508464272717
 50
202.9420431987668962
 51
222.7507253605182029
  0
ARC
  5
1B887
  8
0
 10
4590.2186395733187965
 20
481.3551562162782034
 30
0.0
 40
0.8196751060328988
 50
226.5799537580709
 51
250.3453130001591944
  0
ARC
  5
1B888
  8
0
 10
4590.4405249424207796
 20
481.7615961716924744
 30
0.0
 40
1.279108073634619
 50
247.1071973906772996
 51
268.1206849446706997
  0
LINE
  5
1B889
  8
0
 10
4607.4898353869275525
 20
487.5709258360627132
 30
0.0
 11
4583.0803865680281888
 21
487.5709258360627132
 31
0.0
  0
LINE
  5
1B88A
  8
0
 10
4583.0803865680281888
 20
487.5709258360627132
 30
0.0
 11
4583.0803865680281888
 21
487.1378549699628024
 31
0.0
  0
LINE
  5
1B88B
  8
0
 10
4607.4898353869275525
 20
487.5709258360627132
 30
0.0
 11
4607.4898353869275525
 21
487.1378549688560042
 31
0.0
  0
LINE
  5
1B88C
  8
0
 10
4607.2930142599288956
 20
486.9410045762626851
 30
0.0
 11
4583.277236961728704
 21
486.9410045762626851
 31
0.0
  0
ARC
  5
1B88D
  8
0
 10
4607.2929849921592904
 20
487.1378549688560042
 30
0.0
 40
0.1968503947689913
 50
270.0085187517551049
 51
0.0000003221420484
  0
LINE
  5
1B88E
  8
0
 10
4587.5020648050276577
 20
482.2002982553627817
 30
0.0
 11
4587.5124797965281687
 21
482.001568378862828
 31
0.0
  0
LINE
  5
1B88F
  8
0
 10
4587.7090472048275842
 20
481.8150203242627754
 30
0.0
 11
4588.5240876566986117
 21
481.8150203242627754
 31
0.0
  0
LINE
  5
1B890
  8
0
 10
4587.9349454508283088
 20
481.7815521631628144
 30
0.0
 11
4588.1497841264281305
 21
481.6371652754627917
 31
0.0
  0
ARC
  5
1B891
  8
0
 10
4587.8250450536252174
 20
481.6180740717380218
 30
0.0
 40
0.19694627740627
 50
84.0032059534170941
 51
89.9711767574427768
  0
ARC
  5
1B892
  8
0
 10
4587.8250100161731098
 20
481.6177405331226851
 30
0.0
 40
0.1972816512736986
 50
56.1340885323272474
 51
84.0032059534170941
  0
ARC
  5
1B893
  8
0
 10
4588.040547770538069
 20
481.477511109732518
 30
0.0
 40
0.1934477554360377
 50
37.9437905027842817
 51
55.6198275761136713
  0
ARC
  5
1B894
  8
0
 10
4587.7090604150898798
 20
482.0118707182604112
 30
0.0
 40
0.1968503944409574
 50
182.9999958518629057
 51
269.9961549871297279
  0
ARC
  5
1B895
  8
0
 10
4584.1518464661667167
 20
486.6036304907382828
 30
0.0
 40
0.3374376939435794
 50
80.8031180020491036
 51
88.8874873539791395
  0
ARC
  5
1B896
  8
0
 10
4584.1537955311578116
 20
486.6256207796305944
 30
0.0
 40
0.3154225876242693
 50
22.1079607315114401
 51
80.5141802654613912
  0
ARC
  5
1B897
  8
0
 10
4602.7628015502832568
 20
494.0887636478573768
 30
0.0
 40
19.7343587943780712
 50
201.8491848827779052
 51
210.8109278708118097
  0
ARC
  5
1B898
  8
0
 10
4591.6229611746975934
 20
487.540708241208506
 30
0.0
 40
6.8133067570646313
 50
211.5007105630967033
 51
223.623139796060002
  0
ARC
  5
1B899
  8
0
 10
4589.2223861354095789
 20
485.21558338126232
 30
0.0
 40
3.471519821380721
 50
223.1782251750028081
 51
258.3957458515694157
  0
ARC
  5
1B89A
  8
0
 10
4590.5296849718488374
 20
491.0608509550253871
 30
0.0
 40
9.4608564434712559
 50
257.761062879031897
 51
263.0340310985076258
  0
ARC
  5
1B89B
  8
0
 10
4590.806212396668343
 20
493.3240985182550844
 30
0.0
 40
11.7409347204481307
 50
263.0340310985076258
 51
269.0996993316284147
  0
ARC
  5
1B89C
  8
0
 10
4591.4760598633101836
 20
535.9501626334035791
 30
0.0
 40
54.3722616711462621
 50
269.0996993316284147
 51
271.8774546763136186
  0
ARC
  5
1B89D
  8
0
 10
4591.5188867872839182
 20
534.6436471026448771
 30
0.0
 40
53.0650444062930475
 50
271.8774546763136186
 51
276.1994710741171843
  0
ARC
  5
1B89E
  8
0
 10
4590.9257856512740545
 20
539.5157024857369379
 30
0.0
 40
57.9726916920491391
 50
276.2622281809768197
 51
280.8902014940542813
  0
ARC
  5
1B89F
  8
0
 10
4601.2580939233457684
 20
486.5115417424783004
 30
0.0
 40
3.9732265985870359
 50
278.9821648752857755
 51
317.3081256505561782
  0
ARC
  5
1B8A0
  8
0
 10
4596.5453255828533656
 20
491.0378027555100857
 30
0.0
 40
10.5070387743464106
 50
316.5919404072229213
 51
335.9801844352874127
  0
ARC
  5
1B8A1
  8
0
 10
4606.4272940191640373
 20
486.6258132113167107
 30
0.0
 40
0.3151977365008011
 50
90.3643086868710839
 51
154.6255389946551873
  0
LINE
  5
1B8A2
  8
0
 10
4590.9133307467291161
 20
481.5806337166627031
 30
0.0
 11
4590.9114399464278904
 21
481.3679228359627018
 31
0.0
  0
LINE
  5
1B8A3
  8
0
 10
4590.9114399464278904
 20
481.3679228359627018
 30
0.0
 11
4590.9114399893287555
 21
480.483176104062693
 31
0.0
  0
LINE
  5
1B8A4
  8
0
 10
4588.4724637417275517
 20
481.1207841910626826
 30
0.0
 11
4589.5664730096277708
 21
481.1207841910626826
 31
0.0
  0
LINE
  5
1B8A5
  8
0
 10
4589.5664730096277708
 20
481.1207841910626826
 30
0.0
 11
4589.6386891792335518
 21
481.1104742630060969
 31
0.0
  0
ARC
  5
1B8A6
  8
0
 10
4583.277236961728704
 20
487.1378549699628024
 30
0.0
 40
0.1968503937000028
 50
180.0
 51
270.0
  0
ARC
  5
1B8A8
  8
0
 10
4598.9484683608952764
 20
463.6658950236662236
 30
0.0
 40
19.9190340520477491
 50
115.8264104413697027
 51
116.6164123306757006
  0
ENDSEC
  0
EOF
