  0
SECTION
  2
HEADER
  9
$ACADVER
  1
AC1009
  9
$INSBASE
 10
4595.1639187930650223
 20
509.7714871314328207
 30
0.0
  9
$EXTMIN
 10
4582.9591943836139762
 20
498.8462902810327932
 30
0.0
  9
$EXTMAX
 10
4607.3686432025151589
 20
520.6966839818328481
 30
0.0
  9
$LIMMIN
 10
0.0
 20
0.0
  9
$LIMMAX
 10
11.6929133858000007
 20
8.2677165353999982
  9
$ORTHOMODE
 70
     0
  9
$REGENMODE
 70
     1
  9
$FILLMODE
 70
     1
  9
$QTEXTMODE
 70
     0
  9
$MIRRTEXT
 70
     0
  9
$DRAGMODE
 70
     2
  9
$LTSCALE
 40
0.6431102362
  9
$OSMODE
 70
     7
  9
$ATTMODE
 70
     1
  9
$TEXTSIZE
 40
0.2
  9
$TRACEWID
 40
0.05
  9
$TEXTSTYLE
  7
STANDARD
  9
$CLAYER
  8
0
  9
$CELTYPE
  6
BYLAYER
  9
$CECOLOR
 62
   256
  9
$DIMSCALE
 40
1.0
  9
$DIMASZ
 40
0.1875
  9
$DIMEXO
 40
0.0625
  9
$DIMDLI
 40
0.4443307087
  9
$DIMRND
 40
0.0
  9
$DIMDLE
 40
0.0
  9
$DIMEXE
 40
0.125
  9
$DIMTP
 40
0.01
  9
$DIMTM
 40
0.01
  9
$DIMTXT
 40
2.0
  9
$DIMCEN
 40
0.1052362205
  9
$DIMTSZ
 40
0.0
  9
$DIMTOL
 70
     1
  9
$DIMLIM
 70
     0
  9
$DIMTIH
 70
     1
  9
$DIMTOH
 70
     1
  9
$DIMSE1
 70
     0
  9
$DIMSE2
 70
     0
  9
$DIMTAD
 70
     0
  9
$DIMZIN
 70
     0
  9
$DIMBLK
  1

  9
$DIMASO
 70
     1
  9
$DIMSHO
 70
     1
  9
$DIMPOST
  1
\X
  9
$DIMAPOST
  1

  9
$DIMALT
 70
     1
  9
$DIMALTD
 70
     2
  9
$DIMALTF
 40
25.3999999999999986
  9
$DIMLFAC
 40
1.0
  9
$DIMTOFL
 70
     0
  9
$DIMTVP
 40
0.0
  9
$DIMTIX
 70
     0
  9
$DIMSOXD
 70
     0
  9
$DIMSAH
 70
     0
  9
$DIMBLK1
  1

  9
$DIMBLK2
  1

  9
$DIMSTYLE
  2
STANDARD
  9
$DIMCLRD
 70
     0
  9
$DIMCLRE
 70
     0
  9
$DIMCLRT
 70
     0
  9
$DIMTFAC
 40
1.0
  9
$DIMGAP
 40
0.09
  9
$LUNITS
 70
     2
  9
$LUPREC
 70
     4
  9
$SKETCHINC
 40
0.1
  9
$FILLETRAD
 40
0.0
  9
$AUNITS
 70
     0
  9
$AUPREC
 70
     0
  9
$MENU
  1
.
  9
$ELEVATION
 40
0.0
  9
$PELEVATION
 40
0.0
  9
$THICKNESS
 40
0.0
  9
$LIMCHECK
 70
     0
  9
$BLIPMODE
 70
     0
  9
$CHAMFERA
 40
0.0
  9
$CHAMFERB
 40
0.0
  9
$SKPOLY
 70
     0
  9
$TDCREATE
 40
2458060.468368056230247
  9
$TDUPDATE
 40
2459319.5031944448128343
  9
$TDINDWG
 40
1.5092561806
  9
$TDUSRTIMER
 40
1.5092561806
  9
$USRTIMER
 70
     1
  9
$ANGBASE
 50
0.0
  9
$ANGDIR
 70
     0
  9
$PDMODE
 70
     0
  9
$PDSIZE
 40
0.3125
  9
$PLINEWID
 40
0.0
  9
$COORDS
 70
     1
  9
$SPLFRAME
 70
     0
  9
$SPLINETYPE
 70
     6
  9
$SPLINESEGS
 70
     8
  9
$ATTDIA
 70
     1
  9
$ATTREQ
 70
     1
  9
$HANDLING
 70
     1
  9
$HANDSEED
  5
1BC31
  9
$SURFTAB1
 70
     6
  9
$SURFTAB2
 70
     6
  9
$SURFTYPE
 70
     6
  9
$SURFU
 70
     6
  9
$SURFV
 70
     6
  9
$UCSNAME
  2

  9
$UCSORG
 10
0.0
 20
0.0
 30
0.0
  9
$UCSXDIR
 10
1.0
 20
0.0
 30
0.0
  9
$UCSYDIR
 10
0.0
 20
1.0
 30
0.0
  9
$PUCSNAME
  2

  9
$PUCSORG
 10
0.0
 20
0.0
 30
0.0
  9
$PUCSXDIR
 10
1.0
 20
0.0
 30
0.0
  9
$PUCSYDIR
 10
0.0
 20
1.0
 30
0.0
  9
$USERI1
 70
     0
  9
$USERI2
 70
     0
  9
$USERI3
 70
     0
  9
$USERI4
 70
     0
  9
$USERI5
 70
     0
  9
$USERR1
 40
0.0
  9
$USERR2
 40
0.0
  9
$USERR3
 40
0.0
  9
$USERR4
 40
0.0
  9
$USERR5
 40
0.0
  9
$WORLDVIEW
 70
     1
  9
$SHADEDGE
 70
     3
  9
$SHADEDIF
 70
    70
  9
$TILEMODE
 70
     1
  9
$MAXACTVP
 70
    64
  9
$PLIMCHECK
 70
     0
  9
$PEXTMIN
 10
1.0000000000000000E+20
 20
1.0000000000000000E+20
 30
1.0000000000000000E+20
  9
$PEXTMAX
 10
-1.0000000000000000E+20
 20
-1.0000000000000000E+20
 30
-1.0000000000000000E+20
  9
$PLIMMIN
 10
0.0
 20
0.0
  9
$PLIMMAX
 10
12.0
 20
9.0
  9
$UNITMODE
 70
     0
  9
$VISRETAIN
 70
     1
  9
$PLINEGEN
 70
     0
  9
$PSLTSCALE
 70
     1
  0
ENDSEC
  0
SECTION
  2
TABLES
  0
TABLE
  2
VPORT
 70
     1
  0
VPORT
  2
*ACTIVE
 70
     0
 10
0.0
 20
0.0
 11
1.0
 21
1.0
 12
683.9058025621651495
 22
377.2023132862669854
 13
0.0
 23
0.0
 14
1.0
 24
1.0
 15
0.0
 25
0.0
 16
0.0
 26
0.0
 36
60.4960186965801583
 17
3911.3653564453120453
 27
132.5796051025390057
 37
0.0
 40
22.0621166402051898
 41
2.448010269576379
 42
50.0
 43
0.0
 44
0.0
 50
0.0
 51
0.0
 71
     0
 72
   100
 73
     1
 74
     1
 75
     0
 76
     0
 77
     0
 78
     0
  0
ENDTAB
  0
TABLE
  2
LTYPE
 70
     2
  0
LTYPE
  2
CONTINUOUS
 70
     0
  3
Solid line
 72
    65
 73
     0
 40
0.0
  0
LTYPE
  2
PHANTOM2
 70
     0
  3
___ _ _ ___ _ _ ___ _ _ ___ _ _
 72
    65
 73
     6
 40
1.25
 49
0.625
 49
-0.125
 49
0.125
 49
-0.125
 49
0.125
 49
-0.125
  0
ENDTAB
  0
TABLE
  2
LAYER
 70
     2
  0
LAYER
  2
0
 70
     0
 62
   255
  6
CONTINUOUS
  0
LAYER
  2
DEFPOINTS
 70
     0
 62
     7
  6
CONTINUOUS
  0
ENDTAB
  0
TABLE
  2
STYLE
 70
     1
  0
STYLE
  2
STANDARD
 70
     0
 40
0.0
 41
0.8
 50
0.0
 71
     0
 42
0.2
  3
txt
  4

  0
ENDTAB
  0
TABLE
  2
VIEW
 70
     0
  0
ENDTAB
  0
TABLE
  2
UCS
 70
     0
  0
ENDTAB
  0
TABLE
  2
APPID
 70
    11
  0
APPID
  2
ACAD
 70
     0
  0
APPID
  2
ACAD_MLEADERVER
 70
     0
  0
APPID
  2
ACAD_EXEMPT_FROM_CAD_STANDARDS
 70
     0
  0
APPID
  2
ACAD_NAV_VCDISPLAY
 70
     0
  0
APPID
  2
ACAECLAYERSTANDARD
 70
     0
  0
APPID
  2
ACCMTRANSPARENCY
 70
     0
  0
APPID
  2
ACAD_DSTYLE_DIMJAG
 70
     0
  0
APPID
  2
ACAD_DSTYLE_DIMTALN
 70
     0
  0
APPID
  2
ACDBATTR
 70
     0
  0
APPID
  2
ACADANNOTATIVE
 70
     0
  0
APPID
  2
DCO15
 70
     0
  0
ENDTAB
  0
TABLE
  2
DIMSTYLE
 70
     1
  0
DIMSTYLE
  2
STANDARD
 70
     0
  3

  4

  5

  6

  7

 40
1.0
 41
0.1875
 42
0.0625
 43
0.38
 44
0.125
 45
0.0
 46
0.0
 47
0.01
 48
0.01
140
0.15625
141
0.09
142
0.0
143
25.3999999999999986
144
1.0
145
0.0
146
1.0
147
0.09
 71
     1
 72
     0
 73
     1
 74
     1
 75
     0
 76
     0
 77
     0
 78
     4
170
     0
171
     2
172
     0
173
     0
174
     0
175
     0
176
     0
177
     0
178
     0
  0
ENDTAB
  0
ENDSEC
  0
SECTION
  2
BLOCKS
  0
BLOCK
  8
0
  2
$MODEL_SPACE
 70
     0
 10
0.0
 20
0.0
 30
0.0
  3
$MODEL_SPACE
  1

  0
ENDBLK
  5
21
  8
0
  0
BLOCK
 67
     1
  8
0
  2
$PAPER_SPACE
 70
     0
 10
0.0
 20
0.0
 30
0.0
  3
$PAPER_SPACE
  1

  0
ENDBLK
  5
1D
 67
     1
  8
0
  0
ENDSEC
  0
SECTION
  2
ENTITIES
  0
ATTDEF
  5
159BF
  8
DEFPOINTS
 10
4595.1639191498461514
 20
509.7748219260834048
 30
0.0
 40
0.001
  1
K-21916T-1
  3

  2
MODELNUMBER
 70
     0
1001
ACDBATTR
1070
     0
1070
     1
  0
ATTDEF
  5
159C0
  8
DEFPOINTS
 10
4595.1639191498461514
 20
509.7731550857042748
 30
0.0
 40
0.001
  1
FAMILY CARE
  3

  2
TRADENAME
 70
     0
1001
ACDBATTR
1070
     0
1070
     1
  0
ATTDEF
  5
159C1
  8
DEFPOINTS
 10
4595.1639191498461514
 20
509.7714885927500177
 30
0.0
 40
0.001
  1
BATHROOM SINK
  3

  2
PRODUCT
 70
     0
1001
ACDBATTR
1070
     0
1070
     1
  0
LINE
  5
1BB50
  8
0
 10
4585.321399108013793
 20
520.6966839818328481
 30
0.0
 11
4605.0064384781153421
 21
520.6966839818328481
 31
0.0
  0
LINE
  5
1BB51
  8
0
 10
4604.5341744733168525
 20
513.7448591194320215
 30
0.0
 11
4585.7936633136150704
 21
513.7448591189329363
 31
0.0
  0
CIRCLE
  5
1BB52
  8
0
 10
4595.163918793114135
 20
515.7754241393329266
 30
0.0
 40
0.692840478
  0
CIRCLE
  5
1BB53
  8
0
 10
4589.7308479270150201
 20
515.9958227758329485
 30
0.0
 40
0.8856585388999999
  0
LINE
  5
1BB54
  8
0
 10
4586.6261453449151304
 20
517.5021739657329363
 30
0.0
 11
4586.6261453449151304
 21
514.6675282961329003
 31
0.0
  0
LINE
  5
1BB55
  8
0
 10
4587.0592162111151993
 20
514.2344574299329452
 30
0.0
 11
4591.8229957386138267
 21
514.2344574299329452
 31
0.0
  0
LINE
  5
1BB56
  8
0
 10
4592.2560666048138955
 20
514.6675282956329056
 30
0.0
 11
4592.2560666048138955
 21
517.502173965432803
 31
0.0
  0
LINE
  5
1BB57
  8
0
 10
4591.8229957392150027
 20
517.9352448315329411
 30
0.0
 11
4587.0592162111151993
 21
517.9352448315329411
 31
0.0
  0
ARC
  5
1BB58
  8
0
 10
4587.0592182725067687
 20
517.5021719039402797
 30
0.0
 40
0.4330729275974966
 50
90.0002727233587478
 51
179.9997272237395975
  0
ARC
  5
1BB59
  8
0
 10
4587.0592182668387977
 20
514.6675303518564988
 30
0.0
 40
0.4330729219284847
 50
180.0002719733332981
 51
269.9997280266634903
  0
ARC
  5
1BB5A
  8
0
 10
4591.8229957128696697
 20
514.6675283218769437
 30
0.0
 40
0.4330708919441343
 50
270.000003405975292
 51
359.9999965278707919
  0
ARC
  5
1BB5B
  8
0
 10
4591.8229957130406547
 20
517.5021739397593592
 30
0.0
 40
0.4330708917734398
 50
0.0000033966247732
 51
89.9999965372245754
  0
LINE
  5
1BB5C
  8
0
 10
4588.044498930114969
 20
517.6580839544327546
 30
0.0
 11
4591.1809764513136543
 21
517.6580839545329127
 31
0.0
  0
LINE
  5
1BB5D
  8
0
 10
4591.5741376633150139
 20
517.2649227424327592
 30
0.0
 11
4591.5741377245140029
 21
514.7086579886329218
 31
0.0
  0
LINE
  5
1BB5E
  8
0
 10
4591.1816718883137582
 20
514.3157323521328408
 30
0.0
 11
4588.0438034920152859
 21
514.3157323521328408
 31
0.0
  0
LINE
  5
1BB5F
  8
0
 10
4587.651337656715441
 20
514.7086579886329218
 30
0.0
 11
4587.6513377181154283
 21
517.2649227424327592
 31
0.0
  0
ARC
  5
1BB60
  8
0
 10
4588.043862066055226
 20
517.2655596064929568
 30
0.0
 40
0.3925248645899745
 50
89.9070386564829391
 51
180.0929613435365013
  0
ARC
  5
1BB61
  8
0
 10
4591.1816133436386735
 20
517.2655596348574818
 30
0.0
 40
0.3925248363713856
 50
359.9070345094884829
 51
90.0929654759140845
  0
ARC
  5
1BB62
  8
0
 10
4591.1819166589812085
 20
514.7079539731246314
 30
0.0
 40
0.3922216973678155
 50
269.9642438775413211
 51
0.1028427016237891
  0
ARC
  5
1BB63
  8
0
 10
4588.0430911228122568
 20
514.7074869208726113
 30
0.0
 40
0.391755216427702
 50
179.8287263645659095
 51
270.1041869248761031
  0
ARC
  5
1BB64
  8
0
 10
4608.6117501349817758
 20
515.8403886560868159
 30
0.0
 40
20.6341718595056314
 50
176.8276836352939085
 51
183.2988225008178915
  0
ARC
  5
1BB65
  8
0
 10
4579.3830087783308045
 20
515.8528817905387314
 30
0.0
 40
11.9128589424614599
 50
354.3205610934243737
 51
5.4122813387216819
  0
ARC
  5
1BB66
  8
0
 10
4589.6640314971709813
 20
506.7800086100095882
 30
0.0
 40
10.6361143481731393
 50
83.5256339529530436
 51
96.7183369295617723
  0
ARC
  5
1BB67
  8
0
 10
4588.2300060955767549
 20
517.683572993834332
 30
0.0
 40
0.3897750370212348
 50
271.7449340251721992
 51
299.1269275707950897
  0
ARC
  5
1BB68
  8
0
 10
4588.2885530907151406
 20
517.0232564138345879
 30
0.0
 40
0.2747169806703813
 50
99.7828254453418282
 51
176.0016381525948077
  0
ARC
  5
1BB69
  8
0
 10
4584.5463796476324205
 20
517.3181136524082149
 30
0.0
 40
3.4790664355613869
 50
354.4603713136816054
 51
355.4547780466514268
  0
ARC
  5
1BB6A
  8
0
 10
4591.0564096952475666
 20
517.8346656670552193
 30
0.0
 40
0.5232923474196954
 50
248.3496831872662085
 51
261.7265274751632091
  0
ARC
  5
1BB6B
  8
0
 10
4590.9217082069480966
 20
517.010225148925656
 30
0.0
 40
0.3122955796427301
 50
7.4597839538250597
 51
79.0351468330926394
  0
ARC
  5
1BB6C
  8
0
 10
4592.8631389043730451
 20
517.2632470315103319
 30
0.0
 40
1.645553619985449
 50
187.4188341160304958
 51
190.0345312928527903
  0
ARC
  5
1BB6D
  8
0
 10
4591.8140788361333762
 20
514.471410073076072
 30
0.0
 40
0.6112239774924849
 50
160.6478282618413118
 51
175.6337311539886912
  0
ARC
  5
1BB6E
  8
0
 10
4590.9413785279957665
 20
514.5561134769942555
 30
0.0
 40
0.2660030508146144
 50
295.3541736827576187
 51
351.749955090071694
  0
ARC
  5
1BB6F
  8
0
 10
4586.7822126951023165
 20
514.4233825807732501
 30
0.0
 40
1.2508177611598821
 50
4.8294453896081242
 51
10.5792063976791209
  0
ARC
  5
1BB70
  8
0
 10
4588.2875120302351206
 20
514.5572563306118354
 30
0.0
 40
0.2604935106384775
 50
186.2961032667637085
 51
247.9991787041531097
  0
ARC
  5
1BB71
  8
0
 10
4589.6525995190331741
 20
515.9964740379460864
 30
0.0
 40
1.2802563032700569
 50
143.8605497578654138
 51
217.4113659152280036
  0
ARC
  5
1BB72
  8
0
 10
4589.8633088292599496
 20
516.1200343771620282
 30
0.0
 40
1.5229814442999381
 50
216.287571990048292
 51
231.613477744336592
  0
ARC
  5
1BB73
  8
0
 10
4589.7331312760734363
 20
515.9173571431937262
 30
0.0
 40
1.2835005082245241
 50
230.5502274336778896
 51
308.7770953448937803
  0
ARC
  5
1BB74
  8
0
 10
4589.9909024522912659
 20
515.7657802541096999
 30
0.0
 40
1.689568234890676
 50
130.1873439432206112
 51
144.3085389033691115
  0
ARC
  5
1BB75
  8
0
 10
4589.9119078243111289
 20
515.8738030192289443
 30
0.0
 40
1.556099259185
 50
114.664005075815794
 51
130.53194022453701
  0
ARC
  5
1BB76
  8
0
 10
4589.7025287585120168
 20
515.389783753913548
 30
0.0
 40
1.9484804204984441
 50
71.5775136281174014
 51
103.050179771867505
  0
ARC
  5
1BB77
  8
0
 10
4589.5299292707250061
 20
515.8786135478277401
 30
0.0
 40
1.5718001078173489
 50
49.2346523197294133
 51
59.8963601304319084
  0
ARC
  5
1BB78
  8
0
 10
4589.3264121409420113
 20
515.6202149933704959
 30
0.0
 40
1.9004536511925529
 50
36.9369829343657301
 51
49.674304199021698
  0
ARC
  5
1BB79
  8
0
 10
4589.8598069155232224
 20
515.9985923492447455
 30
0.0
 40
1.2468635494136779
 50
320.7716154209676915
 51
37.7687607332731119
  0
ARC
  5
1BB7A
  8
0
 10
4589.5512174674977359
 20
516.1757277171132046
 30
0.0
 40
1.598979465214952
 50
308.0605088777184051
 51
322.8482687102498971
  0
ARC
  5
1BB7B
  8
0
 10
4585.7909421859149006
 20
512.6501641733185579
 30
0.0
 40
1.0946983276178199
 50
89.8575778464602166
 51
178.554996267894893
  0
ARC
  5
1BB7C
  8
0
 10
4591.6651383665166577
 20
513.7725701668003921
 30
0.0
 40
7.1166153418416727
 50
180.7450997021981038
 51
185.7518527939064938
  0
LINE
  5
1BB7D
  8
0
 10
4584.5491247813151858
 20
513.6800251563329311
 30
0.0
 11
4584.5493141133138124
 21
518.3547926488329267
 31
0.0
  0
LINE
  5
1BB7E
  8
0
 10
4585.3621715465151283
 20
519.1262058313327543
 30
0.0
 11
4604.9656660396149164
 21
519.1262058313327543
 31
0.0
  0
ARC
  5
1BB7F
  8
0
 10
4585.3250452809052149
 20
518.3513559778255058
 30
0.0
 40
0.7757387801821413
 50
87.2568198552819183
 51
179.7461679196244972
  0
ARC
  5
1BB80
  8
0
 10
4588.9230116121752872
 20
513.568281709535313
 30
0.0
 40
0.6392222513259503
 50
294.4390886372958107
 51
340.9956667735395968
  0
ARC
  5
1BB81
  8
0
 10
4587.2893287561728357
 20
389.6685530424273907
 30
0.0
 40
123.3323872514652066
 50
89.1181552444094365
 51
90.290303090696284
  0
ARC
  5
1BB82
  8
0
 10
4586.5933559370141666
 20
507.2527432703420232
 30
0.0
 40
5.747053538534276
 50
89.2913257198026571
 51
109.2712709886872062
  0
ARC
  5
1BB83
  8
0
 10
4590.5303760391270771
 20
-94.3802250016661901
 30
0.0
 40
607.7411782291517284
 50
89.9711253472768959
 51
90.0945579442699653
  0
ARC
  5
1BB84
  8
0
 10
4590.868793038676813
 20
510.3035610029727991
 30
0.0
 40
3.0574839924113451
 50
83.2764353986250541
 51
90.6023203997947348
  0
ARC
  5
1BB85
  8
0
 10
4591.2040080700753606
 20
513.1728481992937532
 30
0.0
 40
0.1687104862517479
 50
68.6631038173642878
 51
82.2493222939658466
  0
ARC
  5
1BB86
  8
0
 10
4591.2645117233651035
 20
513.3225034284045023
 30
0.0
 40
0.0056054380281801
 50
348.0908169161664887
 51
12.3720434652562705
  0
ARC
  5
1BB87
  8
0
 10
4591.2409547233910416
 20
513.3284409551878298
 30
0.0
 40
0.0298957190483507
 50
326.4693177270880824
 51
346.2727286157945059
  0
ARC
  5
1BB88
  8
0
 10
4589.2497602971216111
 20
515.5071667977314291
 30
0.0
 40
2.9805700865854479
 50
302.1376438599792777
 51
312.5644660737036133
  0
ARC
  5
1BB89
  8
0
 10
4582.3835498820426437
 20
2337.8799381648618692
 30
0.0
 40
1824.9162078510689753
 50
270.2653550566856211
 51
270.2930663888291178
  0
LINE
  5
1BB8A
  8
0
 10
4591.7179069344147138
 20
512.9875850681328302
 30
0.0
 11
4601.6599850189113567
 21
513.093885226623911
 31
0.0
  0
ARC
  5
1BB8B
  8
0
 10
4595.1639187930777553
 20
518.4606424637688633
 30
0.0
 40
19.6143521827359706
 50
238.9182909840411924
 51
301.081709016020227
  0
LINE
  5
1BB8C
  8
0
 10
4588.6678461257888557
 20
512.9932360341424555
 30
0.0
 11
4588.6678547147148493
 21
510.813907220532883
 31
0.0
  0
ARC
  5
1BB8D
  8
0
 10
4592.2111783959380773
 20
510.8139290249940814
 30
0.0
 40
3.5433236812912452
 50
180.0003525795881956
 51
248.886012070816605
  0
LINE
  5
1BB8E
  8
0
 10
4601.6599850189122662
 20
513.093885226623911
 30
0.0
 11
4601.6599828327152863
 21
510.8139095736328272
 31
0.0
  0
ARC
  5
1BB8F
  8
0
 10
4598.1166659582286229
 20
510.8139270867657729
 30
0.0
 40
3.5433168745289101
 50
291.1138901671681083
 51
359.9997168109313179
  0
ARC
  5
1BB90
  8
0
 10
4595.163915238815207
 20
518.4606232446327567
 30
0.0
 40
11.7403101612
 50
248.8861116842107037
 51
291.1139185777865919
  0
POINT
  5
1BB91
  8
DEFPOINTS
 10
4595.163918793114135
 20
515.7754241393329266
 30
0.0
  0
LINE
  5
1BB92
  8
0
 10
4585.321399108013793
 20
520.6966839818328481
 30
0.0
 11
4605.0064384781153421
 21
520.6966839818328481
 31
0.0
  0
LINE
  5
1BB93
  8
0
 10
4582.9591943836139762
 20
518.3344792574329176
 30
0.0
 11
4582.9591943836139762
 21
504.8520901015089066
 31
0.0
  0
ARC
  5
1BB94
  8
0
 10
4585.321399108013793
 20
518.3344792574329176
 30
0.0
 40
2.3622047244000051
 50
90.0
 51
180.0
  0
ARC
  5
1BB95
  8
0
 10
4591.2600479364482453
 20
513.3212689199268652
 30
0.0
 40
0.0102331068449359
 50
13.7687777643269893
 51
58.5075479819783268
  0
ARC
  5
1BB96
  8
0
 10
4586.8221811648963921
 20
505.0972216873709044
 30
0.0
 40
3.8707565625771432
 50
183.6309207637125098
 51
242.5492117474215092
  0
LINE
  5
1BB97
  8
0
 10
4584.5843532051148941
 20
513.0593412962329012
 30
0.0
 11
4584.5860793486153852
 21
505.4795177671329043
 31
0.0
  0
ARC
  5
1BB98
  8
0
 10
4587.2239994429346552
 20
513.6284962793411069
 30
0.0
 40
2.7003091777855781
 50
192.1677148259686021
 51
200.614631028351198
  0
ARC
  5
1BB99
  8
0
 10
4587.9330466114652154
 20
505.3501406487959002
 30
0.0
 40
3.349466867628665
 50
177.786332075305495
 51
203.0058182748111051
  0
ARC
  5
1BB9A
  8
0
 10
4587.0960955227728846
 20
505.3654505993048929
 30
0.0
 40
2.6074852572720508
 50
210.5246181698344117
 51
243.046547662378714
  0
LINE
  5
1BB9B
  8
0
 10
4607.3686432025151589
 20
518.3344792574329176
 30
0.0
 11
4607.3686432025151589
 21
504.8520901015089066
 31
0.0
  0
ARC
  5
1BB9C
  8
0
 10
4595.7669291681850154
 20
515.080968629791073
 30
0.0
 40
4.253362971176375
 50
174.0819106066622908
 51
185.7697066797528862
  0
ARC
  5
1BB9D
  8
0
 10
4587.5326713916483641
 20
515.0916310398890801
 30
0.0
 40
4.0263645382993518
 50
353.7511964610263817
 51
6.1004208253893522
  0
ARC
  5
1BB9E
  8
0
 10
4604.5368954002142345
 20
512.6501641733185579
 30
0.0
 40
1.0946983276178199
 50
1.445003732105044
 51
90.1424116436079288
  0
ARC
  5
1BB9F
  8
0
 10
4598.662699219613387
 20
513.7725701668003921
 30
0.0
 40
7.1166153418416727
 50
354.2481472060933925
 51
359.2549002978018962
  0
LINE
  5
1BBA0
  8
0
 10
4605.7787128048148588
 20
513.6800251563329311
 30
0.0
 11
4605.7785234728153227
 21
518.3547926488329267
 31
0.0
  0
ARC
  5
1BBA1
  8
0
 10
4605.0027923052239203
 20
518.3513559778255058
 30
0.0
 40
0.7757387801821413
 50
0.2538320803754839
 51
92.7431801447180675
  0
ARC
  5
1BBA2
  8
0
 10
4605.0064384781153421
 20
518.3344792574329176
 30
0.0
 40
2.3622047244000051
 50
0.0
 51
90.0
  0
ARC
  5
1BBA3
  8
0
 10
4603.5056564212336525
 20
505.0972216873709044
 30
0.0
 40
3.8707565625771432
 50
297.4507882525784908
 51
356.3690792362874049
  0
LINE
  5
1BBA4
  8
0
 10
4605.7434843810142411
 20
513.0593412962329012
 30
0.0
 11
4605.7417582375137499
 21
505.4795177671329043
 31
0.0
  0
ARC
  5
1BBA5
  8
0
 10
4603.1038381431953894
 20
513.6284962793411069
 30
0.0
 40
2.7003091777855781
 50
339.3853689716486883
 51
347.8322851740314263
  0
ARC
  5
1BBA6
  8
0
 10
4602.5899981528673379
 20
505.3143272494525036
 30
0.0
 40
3.156086110723666
 50
336.2075999963399795
 51
3.000249653530934
  0
ARC
  5
1BBA7
  8
0
 10
4603.2317420633562506
 20
505.3654505993048929
 30
0.0
 40
2.6074852572720508
 50
296.953452337621286
 51
329.4753818301655883
  0
ARC
  5
1BBA8
  8
0
 10
4595.1639187930650223
 20
518.4428357156438096
 30
0.0
 40
17.9657284124811412
 50
239.0123709968090111
 51
300.9876290031911026
  0
ARC
  5
1BBA9
  8
0
 10
4602.2399590017130322
 20
480.9614899657352112
 30
0.0
 40
32.1376289576985883
 50
87.4385447808773364
 51
91.034048450499057
  0
ARC
  5
1BBAA
  8
0
 10
4603.3853890800410227
 20
506.5019014241415789
 30
0.0
 40
6.5715462012922012
 50
70.0161865850957525
 51
87.4634866635923913
  0
ENDSEC
  0
EOF
