  0
SECTION
  2
HEADER
  9
$ACADVER
  1
AC1009
  9
$INSBASE
 10
3362.6266949174078036
 20
168.762135101522091
 30
0.0
  9
$EXTMIN
 10
3351.3476324841130918
 20
159.5080909020452111
 30
-0.0015258207003583
  9
$EXTMAX
 10
3390.1435586240718294
 20
178.0195365792638995
 30
0.0000000349246037
  9
$LIMMIN
 10
0.0
 20
0.0
  9
$LIMMAX
 10
11.6929133858000007
 20
8.2677165353999982
  9
$ORTHOMODE
 70
     0
  9
$REGENMODE
 70
     1
  9
$FILLMODE
 70
     1
  9
$QTEXTMODE
 70
     0
  9
$MIRRTEXT
 70
     0
  9
$DRAGMODE
 70
     2
  9
$LTSCALE
 40
0.6431102362
  9
$OSMODE
 70
  2039
  9
$ATTMODE
 70
     1
  9
$TEXTSIZE
 40
0.2
  9
$TRACEWID
 40
0.05
  9
$TEXTSTYLE
  7
STANDARD
  9
$CLAYER
  8
0
  9
$CELTYPE
  6
BYLAYER
  9
$CECOLOR
 62
   256
  9
$DIMSCALE
 40
1.0
  9
$DIMASZ
 40
0.1875
  9
$DIMEXO
 40
0.0625
  9
$DIMDLI
 40
0.4443307087
  9
$DIMRND
 40
0.0
  9
$DIMDLE
 40
0.0
  9
$DIMEXE
 40
0.125
  9
$DIMTP
 40
0.01
  9
$DIMTM
 40
0.01
  9
$DIMTXT
 40
2.0
  9
$DIMCEN
 40
0.1052362205
  9
$DIMTSZ
 40
0.0
  9
$DIMTOL
 70
     1
  9
$DIMLIM
 70
     0
  9
$DIMTIH
 70
     1
  9
$DIMTOH
 70
     1
  9
$DIMSE1
 70
     0
  9
$DIMSE2
 70
     0
  9
$DIMTAD
 70
     0
  9
$DIMZIN
 70
     0
  9
$DIMBLK
  1

  9
$DIMASO
 70
     1
  9
$DIMSHO
 70
     1
  9
$DIMPOST
  1
\X
  9
$DIMAPOST
  1

  9
$DIMALT
 70
     1
  9
$DIMALTD
 70
     2
  9
$DIMALTF
 40
25.3999999999999986
  9
$DIMLFAC
 40
1.0
  9
$DIMTOFL
 70
     0
  9
$DIMTVP
 40
0.0
  9
$DIMTIX
 70
     0
  9
$DIMSOXD
 70
     0
  9
$DIMSAH
 70
     0
  9
$DIMBLK1
  1

  9
$DIMBLK2
  1

  9
$DIMSTYLE
  2
STANDARD
  9
$DIMCLRD
 70
     0
  9
$DIMCLRE
 70
     0
  9
$DIMCLRT
 70
     0
  9
$DIMTFAC
 40
1.0
  9
$DIMGAP
 40
0.09
  9
$LUNITS
 70
     2
  9
$LUPREC
 70
     4
  9
$SKETCHINC
 40
0.1
  9
$FILLETRAD
 40
0.0
  9
$AUNITS
 70
     0
  9
$AUPREC
 70
     0
  9
$MENU
  1
.
  9
$ELEVATION
 40
0.0
  9
$PELEVATION
 40
0.0
  9
$THICKNESS
 40
0.0
  9
$LIMCHECK
 70
     0
  9
$BLIPMODE
 70
     0
  9
$CHAMFERA
 40
0.0
  9
$CHAMFERB
 40
0.0
  9
$SKPOLY
 70
     0
  9
$TDCREATE
 40
2458060.468368056230247
  9
$TDUPDATE
 40
2459167.4695023149251938
  9
$TDINDWG
 40
0.5814538194
  9
$TDUSRTIMER
 40
0.5814538194
  9
$USRTIMER
 70
     1
  9
$ANGBASE
 50
0.0
  9
$ANGDIR
 70
     0
  9
$PDMODE
 70
     0
  9
$PDSIZE
 40
0.3125
  9
$PLINEWID
 40
0.0
  9
$COORDS
 70
     1
  9
$SPLFRAME
 70
     0
  9
$SPLINETYPE
 70
     6
  9
$SPLINESEGS
 70
     8
  9
$ATTDIA
 70
     1
  9
$ATTREQ
 70
     1
  9
$HANDLING
 70
     1
  9
$HANDSEED
  5
18FCA
  9
$SURFTAB1
 70
     6
  9
$SURFTAB2
 70
     6
  9
$SURFTYPE
 70
     6
  9
$SURFU
 70
     6
  9
$SURFV
 70
     6
  9
$UCSNAME
  2

  9
$UCSORG
 10
0.0
 20
0.0
 30
0.0
  9
$UCSXDIR
 10
1.0
 20
0.0
 30
0.0
  9
$UCSYDIR
 10
0.0
 20
1.0
 30
0.0
  9
$PUCSNAME
  2

  9
$PUCSORG
 10
0.0
 20
0.0
 30
0.0
  9
$PUCSXDIR
 10
1.0
 20
0.0
 30
0.0
  9
$PUCSYDIR
 10
0.0
 20
1.0
 30
0.0
  9
$USERI1
 70
     0
  9
$USERI2
 70
     0
  9
$USERI3
 70
     0
  9
$USERI4
 70
     0
  9
$USERI5
 70
     0
  9
$USERR1
 40
0.0
  9
$USERR2
 40
0.0
  9
$USERR3
 40
0.0
  9
$USERR4
 40
0.0
  9
$USERR5
 40
0.0
  9
$WORLDVIEW
 70
     1
  9
$SHADEDGE
 70
     3
  9
$SHADEDIF
 70
    70
  9
$TILEMODE
 70
     1
  9
$MAXACTVP
 70
    64
  9
$PLIMCHECK
 70
     0
  9
$PEXTMIN
 10
1.0000000000000000E+20
 20
1.0000000000000000E+20
 30
1.0000000000000000E+20
  9
$PEXTMAX
 10
-1.0000000000000000E+20
 20
-1.0000000000000000E+20
 30
-1.0000000000000000E+20
  9
$PLIMMIN
 10
0.0
 20
0.0
  9
$PLIMMAX
 10
12.0
 20
9.0
  9
$UNITMODE
 70
     0
  9
$VISRETAIN
 70
     1
  9
$PLINEGEN
 70
     0
  9
$PSLTSCALE
 70
     1
  0
ENDSEC
  0
SECTION
  2
TABLES
  0
TABLE
  2
VPORT
 70
     1
  0
VPORT
  2
*ACTIVE
 70
     0
 10
0.0
 20
0.0
 11
1.0
 21
1.0
 12
67.052480319717688
 22
-26.4976978352331685
 13
0.0
 23
0.0
 14
1.0
 24
1.0
 15
0.0
 25
0.0
 16
0.0
 26
0.0
 36
96.5995694866707311
 17
3303.693115234375
 27
195.2615115758877096
 37
0.0
 40
18.6654937688460585
 41
2.6486111111111108
 42
50.0
 43
0.0
 44
0.0
 50
0.0
 51
0.0
 71
     0
 72
   100
 73
     1
 74
     1
 75
     0
 76
     0
 77
     0
 78
     0
  0
ENDTAB
  0
TABLE
  2
LTYPE
 70
     2
  0
LTYPE
  2
CONTINUOUS
 70
     0
  3
Solid line
 72
    65
 73
     0
 40
0.0
  0
LTYPE
  2
PHANTOM2
 70
     0
  3
___ _ _ ___ _ _ ___ _ _ ___ _ _
 72
    65
 73
     6
 40
1.25
 49
0.625
 49
-0.125
 49
0.125
 49
-0.125
 49
0.125
 49
-0.125
  0
ENDTAB
  0
TABLE
  2
LAYER
 70
     2
  0
LAYER
  2
0
 70
     0
 62
   255
  6
CONTINUOUS
  0
LAYER
  2
DEFPOINTS
 70
     0
 62
     7
  6
CONTINUOUS
  0
ENDTAB
  0
TABLE
  2
STYLE
 70
     1
  0
STYLE
  2
STANDARD
 70
     0
 40
0.0
 41
0.8
 50
0.0
 71
     0
 42
0.2
  3
txt
  4

  0
ENDTAB
  0
TABLE
  2
VIEW
 70
     0
  0
ENDTAB
  0
TABLE
  2
UCS
 70
     0
  0
ENDTAB
  0
TABLE
  2
APPID
 70
     9
  0
APPID
  2
ACAD
 70
     0
  0
APPID
  2
ACAD_MLEADERVER
 70
     0
  0
APPID
  2
ACAD_EXEMPT_FROM_CAD_STANDARDS
 70
     0
  0
APPID
  2
ACAD_NAV_VCDISPLAY
 70
     0
  0
APPID
  2
ACAECLAYERSTANDARD
 70
     0
  0
APPID
  2
ACCMTRANSPARENCY
 70
     0
  0
APPID
  2
ACAD_DSTYLE_DIMJAG
 70
     0
  0
APPID
  2
ACAD_DSTYLE_DIMTALN
 70
     0
  0
APPID
  2
ACDBATTR
 70
     0
  0
ENDTAB
  0
TABLE
  2
DIMSTYLE
 70
     1
  0
DIMSTYLE
  2
STANDARD
 70
     0
  3

  4

  5

  6

  7

 40
1.0
 41
0.1875
 42
0.0625
 43
0.38
 44
0.125
 45
0.0
 46
0.0
 47
0.01
 48
0.01
140
0.15625
141
0.09
142
0.0
143
25.3999999999999986
144
1.0
145
0.0
146
1.0
147
0.09
 71
     1
 72
     0
 73
     1
 74
     1
 75
     0
 76
     0
 77
     0
 78
     4
170
     0
171
     2
172
     0
173
     0
174
     0
175
     0
176
     0
177
     0
178
     0
  0
ENDTAB
  0
ENDSEC
  0
SECTION
  2
BLOCKS
  0
BLOCK
  8
0
  2
$MODEL_SPACE
 70
     0
 10
0.0
 20
0.0
 30
0.0
  3
$MODEL_SPACE
  1

  0
ENDBLK
  5
21
  8
0
  0
BLOCK
 67
     1
  8
0
  2
$PAPER_SPACE
 70
     0
 10
0.0
 20
0.0
 30
0.0
  3
$PAPER_SPACE
  1

  0
ENDBLK
  5
1D
 67
     1
  8
0
  0
BLOCK
  8
0
  2
_FILLED
 70
     0
 10
0.0
 20
0.0
 30
0.0
  3
_FILLED
  1

  0
SOLID
  5
9E2C
  8
0
  6
BYBLOCK
 62
     0
 10
0.0
 20
0.0
 30
0.0
 11
-1.0
 21
0.1666666667
 31
0.0
 12
-1.0
 22
-0.1666666667
 32
0.0
 13
-1.0
 23
-0.1666666667
 33
0.0
  0
ENDBLK
  5
9E2D
  8
0
  6
BYBLOCK
 62
     0
  0
BLOCK
  8
0
  2
A$C6B0F1CD5
 70
     2
 10
0.0
 20
0.0
 30
0.0
  3
A$C6B0F1CD5
  1

  0
ATTDEF
  5
B779
  8
DEFPOINTS
 10
0.0005209962714616
 20
0.000347009907216
 30
0.0
 40
0.001
  1
BATH FAUCET
  3

  2
PRODUCT
 70
     0
1001
ACDBATTR
1070
     0
1070
     1
  0
ATTDEF
  5
B77A
  8
DEFPOINTS
 10
0.0005209962714616
 20
0.0020136765738812
 30
0.0
 40
0.001
  1
SINGULIER
  3

  2
TRADENAME
 70
     0
1001
ACDBATTR
1070
     0
1070
     1
  0
ATTDEF
  5
B77B
  8
DEFPOINTS
 10
0.0005209962714616
 20
0.0036803432405463
 30
0.0
 40
0.001
  1
K-10873W
  3

  2
MODELNUMBER
 70
     0
1001
ACDBATTR
1070
     0
1070
     1
  0
ENDBLK
  5
B77F
  8
0
  0
ENDSEC
  0
SECTION
  2
ENTITIES
  0
ATTDEF
  5
1847A
  8
DEFPOINTS
 10
3362.6274673783700564
 20
168.7666405405502132
 30
0.0
 40
0.001
  1
K-21920T-2FD
  3

  2
MODELNUMBER
 70
     0
1001
ACDBATTR
1070
     0
1070
     1
  0
ATTDEF
  5
1847B
  8
DEFPOINTS
 10
3362.6274673783700564
 20
168.7649738738836049
 30
0.0
 40
0.001
  1
MALLECO
  3

  2
TRADENAME
 70
     0
1001
ACDBATTR
1070
     0
1070
     1
  0
ATTDEF
  5
1847C
  8
DEFPOINTS
 10
3362.6274673783700564
 20
168.7633072072169114
 30
0.0
 40
0.001
  1
KITCHEN SINK 
  3

  2
PRODUCT
 70
     0
1001
ACDBATTR
1070
     0
1070
     1
  0
LINE
  5
18C90
  8
0
 10
3351.4849626339578208
 20
178.0141036054720871
 30
0.0
 11
3373.8471673583580923
 21
178.0141036054720871
 31
0.0
  0
LINE
  5
18C91
  8
0
 10
3373.8471673583580923
 20
178.0141036054720871
 30
0.0
 11
3373.8471673583580923
 21
159.5101665975720948
 31
0.0
  0
LINE
  5
18C92
  8
0
 10
3373.8471673583580923
 20
159.5101665975720948
 30
0.0
 11
3351.4849626339578208
 21
159.5101665975720948
 31
0.0
  0
ARC
  5
18C93
  8
0
 10
3351.4849626339578208
 20
159.5889067550720881
 30
0.0
 40
0.0787401575000004
 50
180.0
 51
270.0
  0
LINE
  5
18C94
  8
0
 10
3351.4062224764579696
 20
159.5889067550720881
 30
0.0
 11
3351.4062224764579696
 21
177.9353634479720938
 31
0.0
  0
ARC
  5
18C95
  8
0
 10
3351.4849626339578208
 20
177.9353634479720938
 30
0.0
 40
0.0787401574999986
 50
90.0
 51
179.9999999999984084
  0
LINE
  5
18C96
  8
0
 10
3352.3511043664589124
 20
174.3920563613721129
 30
0.0
 11
3352.3511043662579141
 21
161.0849697471815887
 31
0.0
  0
ARC
  5
18C97
  8
0
 10
3352.9810256258579102
 20
161.0849697471720958
 30
0.0
 40
0.6299212595999997
 50
179.9999999991385096
 51
269.9999998544561777
  0
LINE
  5
18C98
  8
0
 10
3352.981025624258109
 20
160.4550484875720997
 30
0.0
 11
3372.2723642087580629
 21
160.4550484385719926
 31
0.0
  0
ARC
  5
18C99
  8
0
 10
3372.2723642103578641
 20
161.0849696967719922
 30
0.0
 40
0.6299212582000031
 50
269.9999998544561777
 51
0.0000043949423655
  0
LINE
  5
18C9A
  8
0
 10
3372.9022854685567836
 20
161.0849697450908877
 30
0.0
 11
3372.9022844478217849
 21
174.3920563613721129
 31
0.0
  0
ARC
  5
18C9B
  8
0
 10
3372.2723631397020654
 20
174.3920563130531889
 30
0.0
 40
0.6299213081198271
 50
0.0000043949423655
 51
89.9999025957296652
  0
LINE
  5
18C9C
  8
0
 10
3372.2723642105838735
 20
175.0219776211721125
 30
0.0
 11
3371.595221777405186
 21
175.0219787723314084
 31
0.0
  0
LINE
  5
18C9D
  8
0
 10
3371.3747340993331818
 20
175.0219791471660074
 30
0.0
 11
3352.9810256260861934
 21
175.0220104169364959
 31
0.0
  0
ARC
  5
18C9E
  8
0
 10
3352.9810245552062042
 20
174.3920902272793967
 30
0.0
 40
0.629920189657949
 50
89.9999025957296652
 51
180.0030803482611077
  0
CIRCLE
  5
18C9F
  8
0
 10
3362.6266949174578258
 20
176.4393004558720861
 30
0.0
 40
0.6889763779999996
  0
ARC
  5
18CA0
  8
0
 10
3371.4849626339578208
 20
176.4393004558720861
 30
0.0
 40
0.8267716534999998
 50
277.6622556630989038
 51
262.3379051811576232
  0
ARC
  5
18CA1
  8
0
 10
3371.4849626339578208
 20
176.4393004558720861
 30
0.0
 40
0.5746811937000001
 50
281.0591051843466062
 51
258.9408948156532801
  0
LINE
  5
18CA2
  8
0
 10
3371.3747264134581201
 20
175.8752911916907919
 30
0.0
 11
3371.3747553114449147
 21
172.6669382681855041
 31
0.0
  0
ARC
  5
18CA3
  8
0
 10
3371.4848132871002235
 20
172.6825040394980988
 30
0.0
 40
0.1111532781428565
 50
188.0500912465076055
 51
353.2512602895304212
  0
LINE
  5
18CA4
  8
0
 10
3371.5951963888578575
 20
172.6694418004721001
 30
0.0
 11
3371.5952309864101153
 21
175.8752974728658103
 31
0.0
  0
CIRCLE
  5
18CA5
  8
0
 10
3362.6266949174578258
 20
169.7463870700721031
 30
0.0
 40
1.9192913385999999
  0
CIRCLE
  5
18CA6
  8
0
 10
3362.6305555735580128
 20
169.7467317290721098
 30
0.0
 40
2.3645656203999992
  0
LINE
  5
18CA7
  8
0
 10
3379.2133232638580012
 20
173.5062295896721025
 30
0.0
 11
3379.2133232638580012
 21
165.9865445503720878
 31
0.0
  0
ARC
  5
18CA8
  8
0
 10
3380.9849768071580911
 20
165.9865445503720878
 30
0.0
 40
1.771653543300002
 50
180.0
 51
270.0
  0
LINE
  5
18CA9
  8
0
 10
3380.9849768071580911
 20
164.2148910070721115
 30
0.0
 11
3388.2684413741581011
 21
164.2148910070721115
 31
0.0
  0
ARC
  5
18CAA
  8
0
 10
3388.2684413741581011
 20
165.9865445503720878
 30
0.0
 40
1.7716535433000009
 50
270.0
 51
0.0
  0
LINE
  5
18CAB
  8
0
 10
3390.040094917458191
 20
165.9865445503720878
 30
0.0
 11
3390.040094917458191
 21
173.5062295896721025
 31
0.0
  0
ARC
  5
18CAC
  8
0
 10
3388.2684413741581011
 20
173.5062295896721025
 30
0.0
 40
1.7716535433000109
 50
0.0
 51
90.0
  0
LINE
  5
18CAD
  8
0
 10
3388.2684413741581011
 20
175.2778831329721072
 30
0.0
 11
3380.9849768071580911
 21
175.2778831329723914
 31
0.0
  0
ARC
  5
18CAE
  8
0
 10
3380.9849768071580911
 20
173.5062295896725004
 30
0.0
 40
1.771653543299933
 50
90.0
 51
180.0000000000113971
  0
ARC
  5
18CAF
  8
0
 10
3381.1030870435279212
 20
173.7621351014014124
 30
0.0
 40
1.3956029033707129
 50
90.0000000070088078
 51
179.9999999929912065
  0
LINE
  5
18CB0
  8
0
 10
3381.1030870433578457
 20
175.1577380047721135
 30
0.0
 11
3388.1503311378578474
 21
175.1577380056340871
 31
0.0
  0
ARC
  5
18CB1
  8
0
 10
3388.1503311380279229
 20
173.7621351025048
 30
0.0
 40
1.3956029031292869
 50
359.9999999617072035
 51
90.0000000070088078
  0
LINE
  5
18CB2
  8
0
 10
3389.5459340411580342
 20
173.7621351015721132
 30
0.0
 11
3389.5459340357901965
 21
165.7306390384721055
 31
0.0
  0
ARC
  5
18CB3
  8
0
 10
3388.1503311317578664
 20
165.7306390394047924
 30
0.0
 40
1.395602904032728
 50
270.0000002504415875
 51
359.9999999617072035
  0
LINE
  5
18CB4
  8
0
 10
3388.1503311378578474
 20
164.3350361353720928
 30
0.0
 11
3381.1030870434578901
 21
164.3350361045671946
 31
0.0
  0
ARC
  5
18CB5
  8
0
 10
3381.1030870373579091
 20
165.7306390016667024
 30
0.0
 40
1.3956028970995431
 50
179.9999984871689946
 51
270.0000002504415875
  0
LINE
  5
18CB6
  8
0
 10
3379.7074841402582024
 20
165.7306390385161023
 30
0.0
 11
3379.7074841401567937
 21
173.7621351015721132
 31
0.0
  0
ARC
  5
18CB7
  8
0
 10
3381.1047065169382222
 20
173.7602928191838885
 30
0.0
 40
0.6080855250136727
 50
89.946840810833379
 51
180.0638628111049115
  0
LINE
  5
18CB8
  8
0
 10
3381.105270700357778
 20
174.3683780824721055
 30
0.0
 11
3388.1481290691831418
 21
174.3683786111708116
 31
0.0
  0
ARC
  5
18CB9
  8
0
 10
3388.1486950828088993
 20
173.7602810505119066
 30
0.0
 40
0.6081093957907445
 50
359.9331557305187062
 51
90.0493830633090653
  0
LINE
  5
18CBA
  8
0
 10
3388.7568040647579437
 20
173.759571598272089
 30
0.0
 11
3388.7568040987580389
 21
165.7332255880720879
 31
0.0
  0
ARC
  5
18CBB
  8
0
 10
3388.1487035667169039
 20
165.7324950717568015
 30
0.0
 40
0.6081009708295027
 50
269.9479138724774998
 51
0.0688298716951886
  0
LINE
  5
18CBC
  8
0
 10
3388.1481507577550474
 20
165.1243943521994879
 30
0.0
 11
3381.105280741957813
 21
165.124401348172114
 31
0.0
  0
ARC
  5
18CBD
  8
0
 10
3381.1047374898580529
 20
165.7325278065721079
 30
0.0
 40
0.6081441190000053
 50
179.9364305381000975
 51
270.0503039363094899
  0
LINE
  5
18CBE
  8
0
 10
3380.4965937451661375
 20
165.7332025401528028
 30
0.0
 11
3380.4966213696579871
 21
173.7596150372721127
 31
0.0
  0
CIRCLE
  5
18CBF
  8
0
 10
3384.6267090906580961
 20
169.7463870700721031
 30
0.0
 40
1.381831832400001
  0
CIRCLE
  5
18CC0
  8
0
 10
3384.6267090906580961
 20
169.7463870700721031
 30
0.0
 40
1.2776053135000001
  0
ARC
  5
18CC1
  8
0
 10
3384.4363686895371757
 20
170.4431404868230118
 30
0.0
 40
0.6692913377767206
 50
183.984460711591197
 51
226.2349022360045012
  0
ARC
  5
18CC2
  8
0
 10
3384.0006500262779809
 20
169.9882228688987027
 30
0.0
 40
0.0393700787212596
 50
226.2349022360056097
 51
283.4253891040261806
  0
ARC
  5
18CC3
  8
0
 10
3384.0006500262998088
 20
169.9882228688061048
 30
0.0
 40
0.0393700786261062
 50
283.4253891040265785
 51
321.4260000361221046
  0
LINE
  5
18CC4
  8
0
 10
3384.0314296915621526
 20
169.9636746448908866
 30
0.0
 11
3384.0406942571289619
 21
169.975290973140801
 31
0.0
  0
ARC
  5
18CC5
  8
0
 10
3383.9791349244701451
 20
170.0243874226738114
 30
0.0
 40
0.0787401599828348
 50
321.4260000361221046
 51
341.8488321541677237
  0
ARC
  5
18CC6
  8
0
 10
3383.9791349298780005
 20
170.0243874209010926
 30
0.0
 40
0.0787401542922854
 50
341.8488321541677237
 51
12.2535230478254409
  0
ARC
  5
18CC7
  8
0
 10
3383.9791349234319568
 20
170.0243874195012097
 30
0.0
 40
0.0787401608883269
 50
12.2535230478254409
 51
36.1722104942888478
  0
ARC
  5
18CC8
  8
0
 10
3384.7418877068930669
 20
170.5820701519245119
 30
0.0
 40
0.8661417569836521
 50
193.5021557354527033
 51
216.1722104942888052
  0
ARC
  5
18CC9
  8
0
 10
3383.8231212538371437
 20
170.361457280923986
 30
0.0
 40
0.0787401584495723
 50
13.5021557354511792
 51
63.0728460500148316
  0
ARC
  5
18CCA
  8
0
 10
3383.8231212550967939
 20
170.3614572834036096
 30
0.0
 40
0.0787401556685241
 50
63.0728460500148316
 51
90.0000003190447444
  0
ARC
  5
18CCB
  8
0
 10
3383.8240930051260875
 20
170.3160204900167116
 30
0.0
 40
0.1241807511628604
 50
90.4483568283278601
 51
99.5157051152138905
  0
ARC
  5
18CCC
  8
0
 10
3383.8117217351191357
 20
170.3898240038114125
 30
0.0
 40
0.049347556856832
 50
99.5157051152138905
 51
123.3963736160399947
  0
ARC
  5
18CCD
  8
0
 10
3383.807969992758899
 20
170.3993698285721052
 30
0.0
 40
0.0393700787000046
 50
126.4860787758095029
 51
183.9844607447946032
  0
ARC
  5
18CCE
  8
0
 10
3384.1529083372411151
 20
170.2915546022256876
 30
0.0
 40
0.6692913377767205
 50
209.698746425872713
 51
251.9491879502857046
  0
ARC
  5
18CCF
  8
0
 10
3383.9577207435359014
 20
169.6926367481974012
 30
0.0
 40
0.0393700787212596
 50
251.9491879502861877
 51
309.1396748182983174
  0
ARC
  5
18CD0
  8
0
 10
3383.9577207435959281
 20
169.69263674812359
 30
0.0
 40
0.0393700786261062
 50
309.1396748182992837
 51
347.1402857504132839
  0
LINE
  5
18CD1
  8
0
 10
3383.9961033389417935
 20
169.6838743588664045
 30
0.0
 11
3383.9994102881569233
 21
169.6983600533284005
 31
0.0
  0
ARC
  5
18CD2
  8
0
 10
3383.922645094802192
 20
169.7158848324507119
 30
0.0
 40
0.0787401599828348
 50
347.1402857504132839
 51
7.5631178684564366
  0
ARC
  5
18CD3
  8
0
 10
3383.9226451004428782
 20
169.7158848331997092
 30
0.0
 40
0.0787401542922853
 50
7.5631178684580513
 51
37.9678087621069622
  0
ARC
  5
18CD4
  8
0
 10
3383.9226450952428422
 20
169.7158848291416859
 30
0.0
 40
0.0787401608883269
 50
37.9678087621069622
 51
61.8864962085843402
  0
ARC
  5
18CD5
  8
0
 10
3384.367892137862782
 20
170.5492856389325027
 30
0.0
 40
0.8661417569836519
 50
219.2164414497381131
 51
241.8864962085843899
  0
ARC
  5
18CD6
  8
0
 10
3383.6358325041528587
 20
169.9518824862745987
 30
0.0
 40
0.0787401584495723
 50
39.2164414497368696
 51
88.7871317643067641
  0
ARC
  5
18CD7
  8
0
 10
3383.6358325042110664
 20
169.9518824890550093
 30
0.0
 40
0.0787401556685241
 50
88.7871317643067641
 51
115.7142860333374017
  0
ARC
  5
18CD8
  8
0
 10
3383.6564223065452097
 20
169.9113669792924952
 30
0.0
 40
0.1241807511628604
 50
116.1626425426092055
 51
125.2299908295178028
  0
ARC
  5
18CD9
  8
0
 10
3383.613254032885834
 20
169.9724939546748885
 30
0.0
 40
0.049347556856832
 50
125.2299908295168933
 51
149.1106593303163947
  0
ARC
  5
18CDA
  8
0
 10
3383.6057320516779328
 20
169.9794666255990023
 30
0.0
 40
0.0393700787000046
 50
152.200364490095609
 51
209.6987464590852142
  0
ARC
  5
18CDB
  8
0
 10
3383.9632900349438387
 20
170.0319916018441972
 30
0.0
 40
0.6692913377767205
 50
235.4130321401675019
 51
277.6634736645801809
  0
ARC
  5
18CDC
  8
0
 10
3384.0472928075450909
 20
169.4076965379479134
 30
0.0
 40
0.0393700787212596
 50
277.6634736645801809
 51
334.8539605325877915
  0
ARC
  5
18CDD
  8
0
 10
3384.0472928076310382
 20
169.4076965379074977
 30
0.0
 40
0.0393700786261062
 50
334.8539605325893262
 51
12.8545714646985996
  0
LINE
  5
18CDE
  8
0
 10
3384.08567618932193
 20
169.4164554819641921
 30
0.0
 11
3384.0823705403358872
 21
169.4309414731947072
 31
0.0
  0
ARC
  5
18CDF
  8
0
 10
3384.005603774291103
 20
169.4134235844738896
 30
0.0
 40
0.0787401599828348
 50
12.8545714646985996
 51
33.2774035827457624
  0
ARC
  5
18CE0
  8
0
 10
3384.0056037790491246
 20
169.4134235875962133
 30
0.0
 40
0.0787401542922853
 50
33.2774035827457624
 51
63.6820944764058723
  0
ARC
  5
18CE1
  8
0
 10
3384.0056037761241896
 20
169.4134235816839009
 30
0.0
 40
0.0787401608883269
 50
63.6820944764058723
 51
87.6007819228554752
  0
ARC
  5
18CE2
  8
0
 10
3384.0451584405141148
 20
170.3574772174729048
 30
0.0
 40
0.8661417569836517
 50
244.9307271640215902
 51
267.6007819228555036
  0
ARC
  5
18CE3
  8
0
 10
3383.6447990147298697
 20
169.5016068042104109
 30
0.0
 40
0.0787401584495723
 50
64.9307271640215617
 51
114.5014174785901986
  0
ARC
  5
18CE4
  8
0
 10
3383.6447990135770851
 20
169.5016068067409947
 30
0.0
 40
0.0787401556685241
 50
114.5014174785901986
 51
141.4285717476269042
  0
ARC
  5
18CE5
  8
0
 10
3383.6809288053418641
 20
169.4740371742014133
 30
0.0
 40
0.1241807511628604
 50
141.8769282568912047
 51
150.9442765438024026
  0
ARC
  5
18CE6
  8
0
 10
3383.615513534055026
 20
169.5103806640238986
 30
0.0
 40
0.049347556856832
 50
150.9442765438024026
 51
174.8249450446014919
  0
ARC
  5
18CE7
  8
0
 10
3383.605711134629928
 20
169.5133991581207056
 30
0.0
 40
0.0393700787000046
 50
177.9146502043836051
 51
235.4130321733686912
  0
ARC
  5
18CE8
  8
0
 10
3383.9050700129319011
 20
169.7158611212356902
 30
0.0
 40
0.6692913377767203
 50
261.1273178544408893
 51
303.3777593788676086
  0
ARC
  5
18CE9
  8
0
 10
3384.2516253724988928
 20
169.1898381413523964
 30
0.0
 40
0.0393700787212596
 50
303.3777593788685181
 51
0.568246246875834
  0
ARC
  5
18CEA
  8
0
 10
3384.2516253725948445
 20
169.1898381413533059
 30
0.0
 40
0.0393700786261062
 50
0.5682462468774624
 51
38.5688571789792931
  0
LINE
  5
18CEB
  8
0
 10
3384.2824072411449379
 20
169.214383602432207
 30
0.0
 11
3384.2731437182801528
 21
169.2260007622091109
 31
0.0
  0
ARC
  5
18CEC
  8
0
 10
3384.2115799790440178
 20
169.1769098383489052
 30
0.0
 40
0.0787401599828348
 50
38.5688571789792931
 51
58.9916892970376878
  0
ARC
  5
18CED
  8
0
 10
3384.2115799819748645
 20
169.1769098432262126
 30
0.0
 40
0.0787401542922853
 50
58.9916892970376878
 51
89.396380190675103
  0
ARC
  5
18CEE
  8
0
 10
3384.2115799819061976
 20
169.1769098366306139
 30
0.0
 40
0.0787401608883268
 50
89.396380190675103
 51
113.3150676371482035
  0
ARC
  5
18CEF
  8
0
 10
3383.8376079816780475
 20
170.0446348977916955
 30
0.0
 40
0.8661417569836517
 50
270.6450128783015998
 51
293.3150676371482177
  0
ARC
  5
18CF0
  8
0
 10
3383.84824485818217
 20
169.0998128558329938
 30
0.0
 40
0.0787401584495723
 50
90.6450128783015714
 51
140.215703192876191
  0
ARC
  5
18CF1
  8
0
 10
3383.8482448560439479
 20
169.0998128576125907
 30
0.0
 40
0.0787401556685241
 50
140.2157031928749973
 51
167.1428574619037875
  0
ARC
  5
18CF2
  8
0
 10
3383.8927586888821679
 20
169.0906496061398059
 30
0.0
 40
0.1241807511628603
 50
167.5912139711749944
 51
176.6585622580826112
  0
ARC
  5
18CF3
  8
0
 10
3383.818052716710099
 20
169.0950113365194056
 30
0.0
 40
0.049347556856832
 50
176.6585622580826112
 51
200.5392307588842016
  0
ARC
  5
18CF4
  8
0
 10
3383.8079113844910353
 20
169.0934778040135882
 30
0.0
 40
0.0393700787000046
 50
203.6289359186656043
 51
261.1273178876415955
  0
ARC
  5
18CF5
  8
0
 10
3383.9897794605858508
 20
169.4057766791702875
 30
0.0
 40
0.6692913377767203
 50
286.8416035687283738
 51
329.0920450931454866
  0
ARC
  5
18CF6
  8
0
 10
3384.530247867934122
 20
169.0822110857145049
 30
0.0
 40
0.0393700787212596
 50
329.092045093146794
 51
26.2825319611570301
  0
ARC
  5
18CF7
  8
0
 10
3384.5302478680209788
 20
169.0822110857565974
 30
0.0
 40
0.0393700786261062
 50
26.2825319611584796
 51
64.2831428932768034
  0
LINE
  5
18CF8
  8
0
 10
3384.5473314968489831
 20
169.1176815342606119
 30
0.0
 11
3384.5339448544182233
 21
169.1241289416149129
 31
0.0
  0
ARC
  5
18CF9
  8
0
 10
3384.4997775955757788
 20
169.0531880421467008
 30
0.0
 40
0.0787401599828348
 50
64.2831428932768034
 51
84.7059750113131287
  0
ARC
  5
18CFA
  8
0
 10
3384.499777596101012
 20
169.0531880478129096
 30
0.0
 40
0.0787401542922853
 50
84.7059750113131287
 51
115.110665904970304
  0
ARC
  5
18CFB
  8
0
 10
3384.4997775989008915
 20
169.0531880418402864
 30
0.0
 40
0.0787401608883268
 50
115.110665904970304
 51
139.0293533514403919
  0
ARC
  5
18CFC
  8
0
 10
3383.7863486751648452
 20
169.6727209380611043
 30
0.0
 40
0.8661417569836517
 50
296.3592985925876064
 51
319.0293533514404203
  0
ARC
  5
18CFD
  8
0
 10
3384.2058750901119311
 20
168.8260808602981058
 30
0.0
 40
0.0787401584495723
 50
116.3592985925868959
 51
165.9299889071658072
  0
ARC
  5
18CFE
  8
0
 10
3384.2058750874148245
 20
168.8260808609740877
 30
0.0
 40
0.0787401556685241
 50
165.9299889071641871
 51
192.8571431761909025
  0
ARC
  5
18CFF
  8
0
 10
3384.2499564508029835
 20
168.8371388849022026
 30
0.0
 40
0.1241807511628603
 50
193.3054996854613989
 51
202.3728479723727105
  0
ARC
  5
18D00
  8
0
 10
3384.1807562117442103
 20
168.8086549616440948
 30
0.0
 40
0.049347556856832
 50
202.3728479723712042
 51
226.2535164731762052
  0
ARC
  5
18D01
  8
0
 10
3384.172284561953802
 20
168.8028731374560039
 30
0.0
 40
0.0393700787000046
 50
229.3432216329447897
 51
286.8416036019391981
  0
ARC
  5
18D02
  8
0
 10
3384.2006406329060155
 20
169.1631543023354141
 30
0.0
 40
0.6692913377767203
 50
312.5558892830255786
 51
354.8063308074342785
  0
ARC
  5
18D03
  8
0
 10
3384.8279756915499092
 20
169.1061322293624016
 30
0.0
 40
0.0393700787212596
 50
354.8063308074375755
 51
51.9968176754513181
  0
ARC
  5
18D04
  8
0
 10
3384.8279756916090264
 20
169.1061322294374065
 30
0.0
 40
0.0393700786261062
 50
51.9968176754523199
 51
89.9974286075641743
  0
LINE
  5
18D05
  8
0
 10
3384.8279774585089399
 20
169.1455023080239073
 30
0.0
 11
3384.8131190852218424
 21
169.1455029748566972
 31
0.0
  0
ARC
  5
18D06
  8
0
 10
3384.8131155514220154
 20
169.0667628149531936
 30
0.0
 40
0.0787401599828348
 50
89.9974286075641743
 51
110.4202607256087987
  0
ARC
  5
18D07
  8
0
 10
3384.8131155494361337
 20
169.0667628202861863
 30
0.0
 40
0.0787401542922853
 50
110.4202607256087987
 51
140.8249516192576039
  0
ARC
  5
18D08
  8
0
 10
3384.8131155545502224
 20
169.0667628161195069
 30
0.0
 40
0.0787401608883268
 50
140.8249516192576039
 51
164.7436390657171899
  0
ARC
  5
18D09
  8
0
 10
3383.9015330552851992
 20
169.3153974592312068
 30
0.0
 40
0.8661417569836517
 50
322.0735843068752047
 51
344.7436390657172183
  0
ARC
  5
18D0A
  8
0
 10
3384.6468566570410985
 20
168.7346267964238109
 30
0.0
 40
0.0787401584495723
 50
142.0735843068738973
 51
191.644274621449398
  0
ARC
  5
18D0B
  8
0
 10
3384.6468566543171619
 20
168.7346267958625106
 30
0.0
 40
0.0787401556685241
 50
191.6442746214478063
 51
218.5714288904798082
  0
ARC
  5
18D0C
  8
0
 10
3384.6817746936158073
 20
168.7637159179346895
 30
0.0
 40
0.1241807511628603
 50
219.0197853997410107
 51
228.0871336866565002
  0
ARC
  5
18D0D
  8
0
 10
3384.6317861437000829
 20
168.7080279313724986
 30
0.0
 40
0.049347556856832
 50
228.0871336866565002
 51
251.9678021874649971
  0
ARC
  5
18D0E
  8
0
 10
3384.6266620904780211
 20
168.6991429766920874
 30
0.0
 40
0.0393700787000046
 50
255.0575073472348038
 51
312.5558893162167919
  0
ARC
  5
18D0F
  8
0
 10
3384.495889888669808
 20
169.0360483280311996
 30
0.0
 40
0.66929133777672
 50
338.270174997308402
 51
20.5206165217195391
  0
ARC
  5
18D10
  8
0
 10
3385.085840196485151
 20
169.2568636964232951
 30
0.0
 40
0.0393700787212595
 50
20.5206165217210597
 51
77.7111033897355412
  0
ARC
  5
18D11
  8
0
 10
3385.0858401965060693
 20
169.2568636965162909
 30
0.0
 40
0.0393700786261062
 50
77.7111033897355412
 51
115.7117143218486035
  0
LINE
  5
18D12
  8
0
 10
3385.0687597515211564
 20
169.2923356782787891
 30
0.0
 11
3385.0553725304339423
 21
169.2858894725158905
 31
0.0
  0
ARC
  5
18D13
  8
0
 10
3385.0895334215879302
 20
169.2149455065305972
 30
0.0
 40
0.0787401599828348
 50
115.7117143218486035
 51
136.1345464398887088
  0
ARC
  5
18D14
  8
0
 10
3385.0895334174851996
 20
169.2149455104739104
 30
0.0
 40
0.0787401542922853
 50
136.1345464398887088
 51
166.5392373335382104
  0
ARC
  5
18D15
  8
0
 10
3385.0895334239007752
 20
169.2149455089385128
 30
0.0
 40
0.0787401608883268
 50
166.5392373335382104
 51
190.4579247800041912
  0
ARC
  5
18D16
  8
0
 10
3384.1603474429111884
 20
169.0434367585689017
 30
0.0
 40
0.8661417569836514
 50
347.787870021167123
 51
10.4579247800042392
  0
ARC
  5
18D17
  8
0
 10
3385.0838477513539146
 20
168.8435642631710891
 30
0.0
 40
0.0787401584495723
 50
167.787870021165503
 51
217.3585603357433911
  0
ARC
  5
18D18
  8
0
 10
3385.0838477491438425
 20
168.8435642614834933
 30
0.0
 40
0.078740155668524
 50
217.3585603357421121
 51
244.2857146047597894
  0
ARC
  5
18D19
  8
0
 10
3385.1026865184280723
 20
168.8849230243187947
 30
0.0
 40
0.1241807511628603
 50
244.7340711140334122
 51
253.8014194009419953
  0
ARC
  5
18D1A
  8
0
 10
3385.0818105030361949
 20
168.8130606631594901
 30
0.0
 40
0.049347556856832
 50
253.8014194009419953
 51
277.6820879017327002
  0
ARC
  5
18D1B
  8
0
 10
3385.081048927962911
 20
168.8028323522279948
 30
0.0
 40
0.0393700787000046
 50
280.7717930615249884
 51
338.270175030505925
  0
ARC
  5
18D1C
  8
0
 10
3384.8170494917790165
 20
169.0496336533211945
 30
0.0
 40
0.6692913377767197
 50
3.9844607115912432
 51
46.2349022360045083
  0
ARC
  5
18D1D
  8
0
 10
3385.2527681550391208
 20
169.5045512712455036
 30
0.0
 40
0.0393700787212595
 50
46.2349022360056168
 51
103.4253891040261948
  0
ARC
  5
18D1E
  8
0
 10
3385.2527681550159286
 20
169.5045512713381015
 30
0.0
 40
0.0393700786261062
 50
103.4253891040266069
 51
141.4260000361219909
  0
LINE
  5
18D1F
  8
0
 10
3385.2219884897540396
 20
169.5290994952532913
 30
0.0
 11
3385.2127239241867755
 21
169.5174831670034052
 31
0.0
  0
ARC
  5
18D20
  8
0
 10
3385.2742832568460472
 20
169.4683867174703096
 30
0.0
 40
0.0787401599828347
 50
141.4260000361219909
 51
161.84883215416761
  0
ARC
  5
18D21
  8
0
 10
3385.2742832514381917
 20
169.4683867192431137
 30
0.0
 40
0.0787401542922853
 50
161.84883215416761
 51
192.2535230478254107
  0
ARC
  5
18D22
  8
0
 10
3385.2742832578837806
 20
169.4683867206429966
 30
0.0
 40
0.0787401608883268
 50
192.2535230478237906
 51
216.1722104942888052
  0
ARC
  5
18D23
  8
0
 10
3384.5115304744231253
 20
168.9107039882196943
 30
0.0
 40
0.866141756983651
 50
13.5021557354527708
 51
36.1722104942888478
  0
ARC
  5
18D24
  8
0
 10
3385.430296927478139
 20
169.1313168592201919
 30
0.0
 40
0.0787401584495722
 50
193.5021557354511117
 51
243.0728460500147889
  0
ARC
  5
18D25
  8
0
 10
3385.4302969262189436
 20
169.1313168567405967
 30
0.0
 40
0.078740155668524
 50
243.0728460500147889
 51
270.0000003190447728
  0
ARC
  5
18D26
  8
0
 10
3385.4293251761901047
 20
169.1767536501276084
 30
0.0
 40
0.1241807511628602
 50
270.4483568283279169
 51
279.5157051152139047
  0
ARC
  5
18D27
  8
0
 10
3385.4416964461970565
 20
169.1029501363327938
 30
0.0
 40
0.0493475568568319
 50
279.5157051152139047
 51
303.3963736160183089
  0
ARC
  5
18D28
  8
0
 10
3385.4454481885582027
 20
169.0934043115721011
 30
0.0
 40
0.0393700787000046
 50
306.4860787758095171
 51
3.9844607447946792
  0
ARC
  5
18D29
  8
0
 10
3385.1005098440750771
 20
169.2012195379184902
 30
0.0
 40
0.6692913377767196
 50
29.6987464258726916
 51
71.9491879502856904
  0
ARC
  5
18D2A
  8
0
 10
3385.295697437779836
 20
169.8001373919466914
 30
0.0
 40
0.0393700787212595
 50
71.9491879502861877
 51
129.1396748182982037
  0
ARC
  5
18D2B
  8
0
 10
3385.2956974377198094
 20
169.8001373920205879
 30
0.0
 40
0.0393700786261062
 50
129.1396748182993122
 51
167.1402857504131987
  0
LINE
  5
18D2C
  8
0
 10
3385.257314842373944
 20
169.8088997812778018
 30
0.0
 11
3385.2540078931588141
 21
169.7944140868158058
 31
0.0
  0
ARC
  5
18D2D
  8
0
 10
3385.3307730865140002
 20
169.7768893076934944
 30
0.0
 40
0.0787401599828347
 50
167.1402857504131987
 51
187.563117868456402
  0
ARC
  5
18D2E
  8
0
 10
3385.3307730808719498
 20
169.7768893069444971
 30
0.0
 40
0.0787401542922852
 50
187.5631178684579936
 51
217.9678087621068983
  0
ARC
  5
18D2F
  8
0
 10
3385.3307730860728952
 20
169.7768893110024919
 30
0.0
 40
0.0787401608883268
 50
217.9678087621068983
 51
241.8864962085843899
  0
ARC
  5
18D30
  8
0
 10
3384.8855260434529555
 20
168.9434885012117888
 30
0.0
 40
0.8661417569836508
 50
39.2164414497381273
 51
61.8864962085843402
  0
ARC
  5
18D31
  8
0
 10
3385.6175856771628787
 20
169.5408916538696076
 30
0.0
 40
0.0787401584495722
 50
219.2164414497368909
 51
268.787131764306821
  0
ARC
  5
18D32
  8
0
 10
3385.6175856771042163
 20
169.540891651089197
 30
0.0
 40
0.078740155668524
 50
268.787131764306821
 51
295.714286033337487
  0
ARC
  5
18D33
  8
0
 10
3385.596995874771892
 20
169.5814071608517111
 30
0.0
 40
0.1241807511628602
 50
296.1626425426093192
 51
305.229990829517817
  0
ARC
  5
18D34
  8
0
 10
3385.6401641484299034
 20
169.5202801854692893
 30
0.0
 40
0.0493475568568319
 50
305.2299908295169075
 51
329.1106593303164232
  0
ARC
  5
18D35
  8
0
 10
3385.6476861296368952
 20
169.513307514545204
 30
0.0
 40
0.0393700787000046
 50
332.2003644900955805
 51
29.6987464590852603
  0
ARC
  5
18D36
  8
0
 10
3385.2901281463718988
 20
169.460782538300009
 30
0.0
 40
0.6692913377767195
 50
55.4130321401674308
 51
97.6634736645802661
  0
ARC
  5
18D37
  8
0
 10
3385.2061253737711013
 20
170.0850776021962929
 30
0.0
 40
0.0393700787212595
 50
97.6634736645802661
 51
154.8539605325877915
  0
ARC
  5
18D38
  8
0
 10
3385.2061253736837898
 20
170.0850776022367086
 30
0.0
 40
0.0393700786261061
 50
154.8539605325892978
 51
192.8545714646986085
  0
LINE
  5
18D39
  8
0
 10
3385.1677419919938075
 20
170.0763186581800142
 30
0.0
 11
3385.1710476409812145
 21
170.0618326669494138
 31
0.0
  0
ARC
  5
18D3A
  8
0
 10
3385.2478144070241797
 20
170.0793505556704019
 30
0.0
 40
0.0787401599828347
 50
192.8545714646986085
 51
213.2774035827457055
  0
ARC
  5
18D3B
  8
0
 10
3385.2478144022670676
 20
170.0793505525479929
 30
0.0
 40
0.0787401542922852
 50
213.2774035827457055
 51
243.6820944764058083
  0
ARC
  5
18D3C
  8
0
 10
3385.2478144051920026
 20
170.0793505584603054
 30
0.0
 40
0.0787401608883267
 50
243.6820944764058083
 51
267.6007819228555036
  0
ARC
  5
18D3D
  8
0
 10
3385.2082597408020774
 20
169.1352969226713014
 30
0.0
 40
0.8661417569836505
 50
64.9307271640215617
 51
87.6007819228554752
  0
ARC
  5
18D3E
  8
0
 10
3385.6086191665858678
 20
169.9911673359337954
 30
0.0
 40
0.0787401584495722
 50
244.9307271640215902
 51
294.5014174785903265
  0
ARC
  5
18D3F
  8
0
 10
3385.6086191677391071
 20
169.9911673334032116
 30
0.0
 40
0.078740155668524
 50
294.5014174785903265
 51
321.4285717476269042
  0
ARC
  5
18D40
  8
0
 10
3385.5724893759738734
 20
170.0187369659427929
 30
0.0
 40
0.1241807511628602
 50
321.8769282568911763
 51
330.9442765438024026
  0
ARC
  5
18D41
  8
0
 10
3385.6379046472611662
 20
169.9823934761203077
 30
0.0
 40
0.0493475568568319
 50
330.9442765437897265
 51
354.8249450446015771
  0
ARC
  5
18D42
  8
0
 10
3385.6477070466858095
 20
169.979374982023387
 30
0.0
 40
0.0393700787000046
 50
357.9146502043819851
 51
55.4130321733686486
  0
ARC
  5
18D43
  8
0
 10
3385.3483481683829268
 20
169.7769130189086013
 30
0.0
 40
0.6692913377767191
 50
81.1273178544409177
 51
123.3777593788675944
  0
ARC
  5
18D44
  8
0
 10
3385.0017928088168446
 20
170.3029359987918099
 30
0.0
 40
0.0393700787212595
 50
123.3777593788685039
 51
180.5682462468757876
  0
ARC
  5
18D45
  8
0
 10
3385.0017928087208929
 20
170.3029359987909004
 30
0.0
 40
0.0393700786261061
 50
180.5682462468774077
 51
218.5688571789779928
  0
LINE
  5
18D46
  8
0
 10
3384.9710109401707996
 20
170.2783905377119993
 30
0.0
 11
3384.9802744630360394
 21
170.2667733779352091
 31
0.0
  0
ARC
  5
18D47
  8
0
 10
3385.0418382022721744
 20
170.3158643017953011
 30
0.0
 40
0.0787401599828347
 50
218.5688571789779928
 51
238.9916892970377091
  0
ARC
  5
18D48
  8
0
 10
3385.0418381993399635
 20
170.3158642969179084
 30
0.0
 40
0.0787401542922852
 50
238.9916892970377091
 51
269.3963801906750746
  0
ARC
  5
18D49
  8
0
 10
3385.0418381994099946
 20
170.3158643035135924
 30
0.0
 40
0.0787401608883267
 50
269.3963801906750746
 51
293.3150676371482177
  0
ARC
  5
18D4A
  8
0
 10
3385.4158101996381447
 20
169.4481392423525108
 30
0.0
 40
0.8661417569836503
 50
90.6450128783015714
 51
113.3150676371482035
  0
ARC
  5
18D4B
  8
0
 10
3385.4051733231340222
 20
170.3929612843112125
 30
0.0
 40
0.0787401584495722
 50
270.6450128783015998
 51
320.2157031928762194
  0
ARC
  5
18D4C
  8
0
 10
3385.4051733252717895
 20
170.3929612825315871
 30
0.0
 40
0.0787401556685239
 50
320.2157031928750257
 51
347.1428574619038159
  0
ARC
  5
18D4D
  8
0
 10
3385.3606594924340243
 20
170.4021245340044004
 30
0.0
 40
0.1241807511628601
 50
347.5912139711750228
 51
356.6585622580826112
  0
ARC
  5
18D4E
  8
0
 10
3385.4353654646060932
 20
170.3977628036248007
 30
0.0
 40
0.0493475568568319
 50
356.6585622580826112
 51
20.5392307588841589
  0
ARC
  5
18D4F
  8
0
 10
3385.4455067968251569
 20
170.3992963361305897
 30
0.0
 40
0.0393700787000046
 50
23.6289359186656682
 51
81.1273178876416807
  0
ARC
  5
18D50
  8
0
 10
3385.2636387207289772
 20
170.0869974609738904
 30
0.0
 40
0.6692913377767191
 50
106.8416035687284023
 51
149.0920450931454866
  0
ARC
  5
18D51
  8
0
 10
3384.7231703133811607
 20
170.4105630544297014
 30
0.0
 40
0.0393700787212595
 50
149.0920450931469077
 51
206.282531961156991
  0
ARC
  5
18D52
  8
0
 10
3384.7231703132961229
 20
170.4105630543876089
 30
0.0
 40
0.0393700786261061
 50
206.2825319611584973
 51
244.2831428932767039
  0
LINE
  5
18D53
  8
0
 10
3384.7060866844672091
 20
170.3750926058835944
 30
0.0
 11
3384.7194733268979689
 21
170.3686451985292933
 31
0.0
  0
ARC
  5
18D54
  8
0
 10
3384.7536405857399586
 20
170.4395860979975055
 30
0.0
 40
0.0787401599828347
 50
244.2831428932767039
 51
264.7059750113131145
  0
ARC
  5
18D55
  8
0
 10
3384.7536405852151802
 20
170.4395860923312114
 30
0.0
 40
0.0787401542922852
 50
264.7059750113131145
 51
295.1106659049702898
  0
ARC
  5
18D56
  8
0
 10
3384.753640582414846
 20
170.4395860983038915
 30
0.0
 40
0.0787401608883267
 50
295.1106659049702898
 51
319.0293533514404203
  0
ARC
  5
18D57
  8
0
 10
3385.4670695061508923
 20
169.820053202083102
 30
0.0
 40
0.8661417569836503
 50
116.3592985925876064
 51
139.0293533514403919
  0
ARC
  5
18D58
  8
0
 10
3385.0475430912038064
 20
170.6666932798461005
 30
0.0
 40
0.0787401584495722
 50
296.3592985925869243
 51
345.9299889071659209
  0
ARC
  5
18D59
  8
0
 10
3385.0475430939009129
 20
170.6666932791700049
 30
0.0
 40
0.0787401556685239
 50
345.9299889071642724
 51
12.8571431761909096
  0
ARC
  5
18D5A
  8
0
 10
3385.0034617305132087
 20
170.6556352552420037
 30
0.0
 40
0.1241807511628601
 50
13.3054996854613901
 51
22.3728479723726608
  0
ARC
  5
18D5B
  8
0
 10
3385.0726619695719819
 20
170.6841191785001115
 30
0.0
 40
0.0493475568568319
 50
22.3728479723711615
 51
46.2535164731761483
  0
ARC
  5
18D5C
  8
0
 10
3385.0811336193619354
 20
170.6899010026880887
 30
0.0
 40
0.0393700787000046
 50
49.343221632944811
 51
106.8416036019391981
  0
ARC
  5
18D5D
  8
0
 10
3385.0527775484101767
 20
170.3296198378087922
 30
0.0
 40
0.6692913377767189
 50
132.5558892830254933
 51
174.806330807434307
  0
ARC
  5
18D5E
  8
0
 10
3384.4254424897658282
 20
170.3866419107818047
 30
0.0
 40
0.0393700787212595
 50
174.8063308074374902
 51
231.9968176754512967
  0
ARC
  5
18D5F
  8
0
 10
3384.4254424897071658
 20
170.3866419107067998
 30
0.0
 40
0.0393700786261061
 50
231.9968176754524052
 51
269.9974286075641885
  0
LINE
  5
18D60
  8
0
 10
3384.4254407228067976
 20
170.347271832120299
 30
0.0
 11
3384.4402990960938951
 21
170.3472711652873954
 31
0.0
  0
ARC
  5
18D61
  8
0
 10
3384.4403026298941768
 20
170.4260113251910127
 30
0.0
 40
0.0787401599828346
 50
269.9974286075641885
 51
290.4202607256087845
  0
ARC
  5
18D62
  8
0
 10
3384.4403026318800585
 20
170.4260113198579916
 30
0.0
 40
0.0787401542922852
 50
290.4202607256087845
 51
320.8249516192577175
  0
ARC
  5
18D63
  8
0
 10
3384.4403026267659698
 20
170.4260113240246994
 30
0.0
 40
0.0787401608883267
 50
320.8249516192577175
 51
344.7436390657172183
  0
ARC
  5
18D64
  8
0
 10
3385.351885126030993
 20
170.1773766809129995
 30
0.0
 40
0.8661417569836499
 50
142.0735843068752047
 51
164.7436390657171899
  0
ARC
  5
18D65
  8
0
 10
3384.6065615242750937
 20
170.7581473437203954
 30
0.0
 40
0.0787401584495721
 50
322.073584306874011
 51
11.6442746214494708
  0
ARC
  5
18D66
  8
0
 10
3384.6065615269981208
 20
170.7581473442816957
 30
0.0
 40
0.0787401556685239
 50
11.6442746214478792
 51
38.5714288904798011
  0
ARC
  5
18D67
  8
0
 10
3384.5716434876999301
 20
170.7290582222094883
 30
0.0
 40
0.1241807511628601
 50
39.0197853997410107
 51
48.0871336866564931
  0
ARC
  5
18D68
  8
0
 10
3384.6216320376151998
 20
170.7847462087717076
 30
0.0
 40
0.0493475568568319
 50
48.0871336866564931
 51
71.967802187465054
  0
ARC
  5
18D69
  8
0
 10
3384.6267560908381711
 20
170.7936311634520905
 30
0.0
 40
0.0393700787000045
 50
75.0575073472348464
 51
132.5558893162167067
  0
ARC
  5
18D6A
  8
0
 10
3384.7575282926459295
 20
170.4567258121130067
 30
0.0
 40
0.6692913377767188
 50
158.270174997308402
 51
200.5206165217194894
  0
ARC
  5
18D6B
  8
0
 10
3384.1675779848310412
 20
170.2359104437209112
 30
0.0
 40
0.0393700787212595
 50
200.5206165217209957
 51
257.7111033897355128
  0
ARC
  5
18D6C
  8
0
 10
3384.1675779848101229
 20
170.2359104436278869
 30
0.0
 40
0.0393700786261061
 50
257.7111033897355128
 51
295.7117143218486035
  0
LINE
  5
18D6D
  8
0
 10
3384.1846584297950358
 20
170.2004384618653887
 30
0.0
 11
3384.1980456508808857
 21
170.2068846676282874
 31
0.0
  0
ARC
  5
18D6E
  8
0
 10
3384.1638847597278072
 20
170.2778286336136091
 30
0.0
 40
0.0787401599828346
 50
295.7117143218486035
 51
316.1345464398875151
  0
ARC
  5
18D6F
  8
0
 10
3384.1638847638309926
 20
170.2778286296702959
 30
0.0
 40
0.0787401542922852
 50
316.1345464398887088
 51
346.5392373335382104
  0
ARC
  5
18D70
  8
0
 10
3384.1638847574149622
 20
170.2778286312056935
 30
0.0
 40
0.0787401608883267
 50
346.5392373335366187
 51
10.4579247800042392
  0
ARC
  5
18D71
  8
0
 10
3385.0930707384050038
 20
170.4493373815753046
 30
0.0
 40
0.8661417569836496
 50
167.7878700211670946
 51
190.4579247800041912
  0
ARC
  5
18D72
  8
0
 10
3384.1695704299618228
 20
170.6492098769730887
 30
0.0
 40
0.0787401584495721
 50
347.7878700211638829
 51
37.3585603357434195
  0
ARC
  5
18D73
  8
0
 10
3384.1695704321728044
 20
170.649209878660713
 30
0.0
 40
0.0787401556685239
 50
37.3585603357421192
 51
64.2857146047598604
  0
ARC
  5
18D74
  8
0
 10
3384.1507316628881199
 20
170.6078511158254116
 30
0.0
 40
0.12418075116286
 50
64.7340711140334548
 51
73.8014194009419668
  0
ARC
  5
18D75
  8
0
 10
3384.1716076782799973
 20
170.6797134769846025
 30
0.0
 40
0.0493475568568319
 50
73.8014194009419668
 51
97.6820879017327002
  0
ARC
  5
18D76
  8
0
 10
3384.1723692533528265
 20
170.6899417879162115
 30
0.0
 40
0.0393700787000045
 50
100.7717930615250026
 51
158.2701750305058965
  0
POINT
  5
18D77
  8
DEFPOINTS
 10
3362.6266949174578258
 20
176.4393004558720861
 30
0.0
  0
ENDSEC
  0
EOF
