  0
SECTION
  2
HEADER
  9
$ACADVER
  1
AC1009
  9
$INSBASE
 10
3409.178436518241142
 20
151.7943751876250076
 30
0.0
  9
$EXTMIN
 10
3399.7562384624097831
 20
143.8729039664650031
 30
-0.0015258207003583
  9
$EXTMAX
 10
3418.5342307849778081
 20
154.3913409783793895
 30
0.0000000349246037
  9
$LIMMIN
 10
0.0
 20
0.0
  9
$LIMMAX
 10
11.6929133858000007
 20
8.2677165353999982
  9
$ORTHOMODE
 70
     0
  9
$REGENMODE
 70
     1
  9
$FILLMODE
 70
     1
  9
$QTEXTMODE
 70
     0
  9
$MIRRTEXT
 70
     0
  9
$DRAGMODE
 70
     2
  9
$LTSCALE
 40
0.6431102362
  9
$OSMODE
 70
  2039
  9
$ATTMODE
 70
     1
  9
$TEXTSIZE
 40
0.2
  9
$TRACEWID
 40
0.05
  9
$TEXTSTYLE
  7
STANDARD
  9
$CLAYER
  8
0
  9
$CELTYPE
  6
BYLAYER
  9
$CECOLOR
 62
   256
  9
$DIMSCALE
 40
1.0
  9
$DIMASZ
 40
0.1875
  9
$DIMEXO
 40
0.0625
  9
$DIMDLI
 40
0.4443307087
  9
$DIMRND
 40
0.0
  9
$DIMDLE
 40
0.0
  9
$DIMEXE
 40
0.125
  9
$DIMTP
 40
0.01
  9
$DIMTM
 40
0.01
  9
$DIMTXT
 40
2.0
  9
$DIMCEN
 40
0.1052362205
  9
$DIMTSZ
 40
0.0
  9
$DIMTOL
 70
     1
  9
$DIMLIM
 70
     0
  9
$DIMTIH
 70
     1
  9
$DIMTOH
 70
     1
  9
$DIMSE1
 70
     0
  9
$DIMSE2
 70
     0
  9
$DIMTAD
 70
     0
  9
$DIMZIN
 70
     0
  9
$DIMBLK
  1

  9
$DIMASO
 70
     1
  9
$DIMSHO
 70
     1
  9
$DIMPOST
  1
\X
  9
$DIMAPOST
  1

  9
$DIMALT
 70
     1
  9
$DIMALTD
 70
     2
  9
$DIMALTF
 40
25.3999999999999986
  9
$DIMLFAC
 40
1.0
  9
$DIMTOFL
 70
     0
  9
$DIMTVP
 40
0.0
  9
$DIMTIX
 70
     0
  9
$DIMSOXD
 70
     0
  9
$DIMSAH
 70
     0
  9
$DIMBLK1
  1

  9
$DIMBLK2
  1

  9
$DIMSTYLE
  2
STANDARD
  9
$DIMCLRD
 70
     0
  9
$DIMCLRE
 70
     0
  9
$DIMCLRT
 70
     0
  9
$DIMTFAC
 40
1.0
  9
$DIMGAP
 40
0.09
  9
$LUNITS
 70
     2
  9
$LUPREC
 70
     4
  9
$SKETCHINC
 40
0.1
  9
$FILLETRAD
 40
0.0
  9
$AUNITS
 70
     0
  9
$AUPREC
 70
     0
  9
$MENU
  1
.
  9
$ELEVATION
 40
0.0
  9
$PELEVATION
 40
0.0
  9
$THICKNESS
 40
0.0
  9
$LIMCHECK
 70
     0
  9
$BLIPMODE
 70
     0
  9
$CHAMFERA
 40
0.0
  9
$CHAMFERB
 40
0.0
  9
$SKPOLY
 70
     0
  9
$TDCREATE
 40
2458060.468368056230247
  9
$TDUPDATE
 40
2459167.4691435191780329
  9
$TDINDWG
 40
0.5807709491
  9
$TDUSRTIMER
 40
0.5807709491
  9
$USRTIMER
 70
     1
  9
$ANGBASE
 50
0.0
  9
$ANGDIR
 70
     0
  9
$PDMODE
 70
     0
  9
$PDSIZE
 40
0.3125
  9
$PLINEWID
 40
0.0
  9
$COORDS
 70
     1
  9
$SPLFRAME
 70
     0
  9
$SPLINETYPE
 70
     6
  9
$SPLINESEGS
 70
     8
  9
$ATTDIA
 70
     1
  9
$ATTREQ
 70
     1
  9
$HANDLING
 70
     1
  9
$HANDSEED
  5
18F54
  9
$SURFTAB1
 70
     6
  9
$SURFTAB2
 70
     6
  9
$SURFTYPE
 70
     6
  9
$SURFU
 70
     6
  9
$SURFV
 70
     6
  9
$UCSNAME
  2

  9
$UCSORG
 10
0.0
 20
0.0
 30
0.0
  9
$UCSXDIR
 10
1.0
 20
0.0
 30
0.0
  9
$UCSYDIR
 10
0.0
 20
1.0
 30
0.0
  9
$PUCSNAME
  2

  9
$PUCSORG
 10
0.0
 20
0.0
 30
0.0
  9
$PUCSXDIR
 10
1.0
 20
0.0
 30
0.0
  9
$PUCSYDIR
 10
0.0
 20
1.0
 30
0.0
  9
$USERI1
 70
     0
  9
$USERI2
 70
     0
  9
$USERI3
 70
     0
  9
$USERI4
 70
     0
  9
$USERI5
 70
     0
  9
$USERR1
 40
0.0
  9
$USERR2
 40
0.0
  9
$USERR3
 40
0.0
  9
$USERR4
 40
0.0
  9
$USERR5
 40
0.0
  9
$WORLDVIEW
 70
     1
  9
$SHADEDGE
 70
     3
  9
$SHADEDIF
 70
    70
  9
$TILEMODE
 70
     1
  9
$MAXACTVP
 70
    64
  9
$PLIMCHECK
 70
     0
  9
$PEXTMIN
 10
1.0000000000000000E+20
 20
1.0000000000000000E+20
 30
1.0000000000000000E+20
  9
$PEXTMAX
 10
-1.0000000000000000E+20
 20
-1.0000000000000000E+20
 30
-1.0000000000000000E+20
  9
$PLIMMIN
 10
0.0
 20
0.0
  9
$PLIMMAX
 10
12.0
 20
9.0
  9
$UNITMODE
 70
     0
  9
$VISRETAIN
 70
     1
  9
$PLINEGEN
 70
     0
  9
$PSLTSCALE
 70
     1
  0
ENDSEC
  0
SECTION
  2
TABLES
  0
TABLE
  2
VPORT
 70
     1
  0
VPORT
  2
*ACTIVE
 70
     0
 10
0.0
 20
0.0
 11
1.0
 21
1.0
 12
105.4521193893187956
 22
-46.1293891034655417
 13
0.0
 23
0.0
 14
1.0
 24
1.0
 15
0.0
 25
0.0
 16
0.0
 26
0.0
 36
96.5995694866707311
 17
3303.693115234375
 27
195.2615115758877096
 37
0.0
 40
10.6059690813617191
 41
2.6486111111111108
 42
50.0
 43
0.0
 44
0.0
 50
0.0
 51
0.0
 71
     0
 72
   100
 73
     1
 74
     1
 75
     0
 76
     0
 77
     0
 78
     0
  0
ENDTAB
  0
TABLE
  2
LTYPE
 70
     2
  0
LTYPE
  2
CONTINUOUS
 70
     0
  3
Solid line
 72
    65
 73
     0
 40
0.0
  0
LTYPE
  2
PHANTOM2
 70
     0
  3
___ _ _ ___ _ _ ___ _ _ ___ _ _
 72
    65
 73
     6
 40
1.25
 49
0.625
 49
-0.125
 49
0.125
 49
-0.125
 49
0.125
 49
-0.125
  0
ENDTAB
  0
TABLE
  2
LAYER
 70
     2
  0
LAYER
  2
0
 70
     0
 62
   255
  6
CONTINUOUS
  0
LAYER
  2
DEFPOINTS
 70
     0
 62
     7
  6
CONTINUOUS
  0
ENDTAB
  0
TABLE
  2
STYLE
 70
     1
  0
STYLE
  2
STANDARD
 70
     0
 40
0.0
 41
0.8
 50
0.0
 71
     0
 42
0.2
  3
txt
  4

  0
ENDTAB
  0
TABLE
  2
VIEW
 70
     0
  0
ENDTAB
  0
TABLE
  2
UCS
 70
     0
  0
ENDTAB
  0
TABLE
  2
APPID
 70
     9
  0
APPID
  2
ACAD
 70
     0
  0
APPID
  2
ACAD_MLEADERVER
 70
     0
  0
APPID
  2
ACAD_EXEMPT_FROM_CAD_STANDARDS
 70
     0
  0
APPID
  2
ACAD_NAV_VCDISPLAY
 70
     0
  0
APPID
  2
ACAECLAYERSTANDARD
 70
     0
  0
APPID
  2
ACCMTRANSPARENCY
 70
     0
  0
APPID
  2
ACAD_DSTYLE_DIMJAG
 70
     0
  0
APPID
  2
ACAD_DSTYLE_DIMTALN
 70
     0
  0
APPID
  2
ACDBATTR
 70
     0
  0
ENDTAB
  0
TABLE
  2
DIMSTYLE
 70
     1
  0
DIMSTYLE
  2
STANDARD
 70
     0
  3

  4

  5

  6

  7

 40
1.0
 41
0.1875
 42
0.0625
 43
0.38
 44
0.125
 45
0.0
 46
0.0
 47
0.01
 48
0.01
140
0.15625
141
0.09
142
0.0
143
25.3999999999999986
144
1.0
145
0.0
146
1.0
147
0.09
 71
     1
 72
     0
 73
     1
 74
     1
 75
     0
 76
     0
 77
     0
 78
     4
170
     0
171
     2
172
     0
173
     0
174
     0
175
     0
176
     0
177
     0
178
     0
  0
ENDTAB
  0
ENDSEC
  0
SECTION
  2
BLOCKS
  0
BLOCK
  8
0
  2
$MODEL_SPACE
 70
     0
 10
0.0
 20
0.0
 30
0.0
  3
$MODEL_SPACE
  1

  0
ENDBLK
  5
21
  8
0
  0
BLOCK
 67
     1
  8
0
  2
$PAPER_SPACE
 70
     0
 10
0.0
 20
0.0
 30
0.0
  3
$PAPER_SPACE
  1

  0
ENDBLK
  5
1D
 67
     1
  8
0
  0
BLOCK
  8
0
  2
_FILLED
 70
     0
 10
0.0
 20
0.0
 30
0.0
  3
_FILLED
  1

  0
SOLID
  5
9E2C
  8
0
  6
BYBLOCK
 62
     0
 10
0.0
 20
0.0
 30
0.0
 11
-1.0
 21
0.1666666667
 31
0.0
 12
-1.0
 22
-0.1666666667
 32
0.0
 13
-1.0
 23
-0.1666666667
 33
0.0
  0
ENDBLK
  5
9E2D
  8
0
  6
BYBLOCK
 62
     0
  0
BLOCK
  8
0
  2
A$C6B0F1CD5
 70
     2
 10
0.0
 20
0.0
 30
0.0
  3
A$C6B0F1CD5
  1

  0
ATTDEF
  5
B779
  8
DEFPOINTS
 10
0.0005209962714616
 20
0.000347009907216
 30
0.0
 40
0.001
  1
BATH FAUCET
  3

  2
PRODUCT
 70
     0
1001
ACDBATTR
1070
     0
1070
     1
  0
ATTDEF
  5
B77A
  8
DEFPOINTS
 10
0.0005209962714616
 20
0.0020136765738812
 30
0.0
 40
0.001
  1
SINGULIER
  3

  2
TRADENAME
 70
     0
1001
ACDBATTR
1070
     0
1070
     1
  0
ATTDEF
  5
B77B
  8
DEFPOINTS
 10
0.0005209962714616
 20
0.0036803432405463
 30
0.0
 40
0.001
  1
K-10873W
  3

  2
MODELNUMBER
 70
     0
1001
ACDBATTR
1070
     0
1070
     1
  0
ENDBLK
  5
B77F
  8
0
  0
ENDSEC
  0
SECTION
  2
ENTITIES
  0
ATTDEF
  5
176F5
  8
DEFPOINTS
 10
3409.179054987795098
 20
151.7984028778265042
 30
0.0
 40
0.001
  1
K-21920T-2FD
  3

  2
MODELNUMBER
 70
     0
1001
ACDBATTR
1070
     0
1070
     1
  0
ATTDEF
  5
176F6
  8
DEFPOINTS
 10
3409.179054987795098
 20
151.7967362111598106
 30
0.0
 40
0.001
  1
MALLECO
  3

  2
TRADENAME
 70
     0
1001
ACDBATTR
1070
     0
1070
     1
  0
ATTDEF
  5
176F7
  8
DEFPOINTS
 10
3409.179054987795098
 20
151.7950695444932023
 30
0.0
 40
0.001
  1
KITCHEN SINK 
  3

  2
PRODUCT
 70
     0
1001
ACDBATTR
1070
     0
1070
     1
  0
LINE
  5
18C55
  8
0
 10
3399.9264680142910038
 20
151.9518555026249942
 30
0.0
 11
3418.4304050221908255
 21
151.9518555026249942
 31
0.0
  0
LINE
  5
18C56
  8
0
 10
3418.4304050221908255
 20
151.9518555026249942
 30
0.0
 11
3418.4304050221908255
 21
151.7943751876250076
 31
0.0
  0
LINE
  5
18C57
  8
0
 10
3418.4304050221908255
 20
151.7943751876250076
 30
0.0
 11
3415.5144755802411964
 21
151.7943751876250076
 31
0.0
  0
LINE
  5
18C58
  8
0
 10
3404.8109013932407834
 20
151.7943751876250076
 30
0.0
 11
3399.9264680142910038
 21
151.7943751876250076
 31
0.0
  0
LINE
  5
18C59
  8
0
 10
3399.9264680142910038
 20
151.7943751876250076
 30
0.0
 11
3399.9264680142910038
 21
151.9518555026249942
 31
0.0
  0
LINE
  5
18C5A
  8
0
 10
3400.86347588829085
 20
151.7943751876250076
 30
0.0
 11
3400.8634758893908838
 21
145.0074542957250117
 31
0.0
  0
ARC
  5
18C5B
  8
0
 10
3401.5066919956320817
 20
145.0074542958292056
 30
0.0
 40
0.6432161062409066
 50
180.0000000092869925
 51
266.9385656567965839
  0
ARC
  5
18C5C
  8
0
 10
156246.5504063447006047
 20
3366522.2948630237951875
 30
0.0
 40
3369845.9880989519879222
 50
267.4003609176536997
 51
267.4004686238276918
  0
LINE
  5
18C5D
  8
0
 10
3407.8005494032909155
 20
144.0778397545250016
 30
0.0
 11
3412.5248048207909051
 21
144.0778397545250016
 31
0.0
  0
LINE
  5
18C5E
  8
0
 10
3412.5248048207909051
 20
144.0778397545250016
 30
0.0
 11
3414.876799713490982
 21
144.3314145796250045
 31
0.0
  0
ARC
  5
18C5F
  8
0
 10
3414.7919429912321903
 20
144.980611615003113
 30
0.0
 40
0.6547193704606094
 50
277.4469278535561898
 51
2.2601040947995399
  0
LINE
  5
18C60
  8
0
 10
3415.4461530536909777
 20
145.0064311470250118
 30
0.0
 11
3415.4461530536909777
 21
149.879217822024998
 31
0.0
  0
LINE
  5
18C61
  8
0
 10
3415.4461530536909777
 20
149.879217822024998
 30
0.0
 11
3415.4948242687910351
 21
151.7378965408250053
 31
0.0
  0
ARC
  5
18C62
  8
0
 10
3415.5932252076900113
 20
151.7353198215593864
 30
0.0
 40
0.0984346700023992
 50
90.7844327905679762
 51
178.5000000016248123
  0
ARC
  5
18C63
  8
0
 10
3404.6508774630910921
 20
151.9321704632249919
 30
0.0
 40
0.0196850393999917
 50
89.9999999999478888
 51
180.0000000000260059
  0
LINE
  5
18C64
  8
0
 10
3404.6311924236911182
 20
151.9321704632249919
 30
0.0
 11
3404.6311924236911182
 21
151.8534303057249986
 31
0.0
  0
ARC
  5
18C65
  8
0
 10
3404.6508774630910921
 20
151.8534303057249986
 30
0.0
 40
0.0196850394000094
 50
180.0000000000260059
 51
269.9999999998436806
  0
LINE
  5
18C66
  8
0
 10
3404.6508774630910921
 20
151.8337452663249962
 30
0.0
 11
3415.6744995103908877
 21
151.8337452662970861
 31
0.0
  0
ARC
  5
18C67
  8
0
 10
3415.6744995103908877
 20
151.8534303056970884
 30
0.0
 40
0.0196850393999526
 50
269.9999999998436806
 51
0.0000000812251581
  0
LINE
  5
18C68
  8
0
 10
3415.6941845497908616
 20
151.8534303057249986
 30
0.0
 11
3415.6941845496789938
 21
151.9321704632249919
 31
0.0
  0
ARC
  5
18C69
  8
0
 10
3415.6744950195438832
 20
151.9321704631971102
 30
0.0
 40
0.0196895301358069
 50
0.0000000812333003
 51
88.7762563600477534
  0
ARC
  5
18C6A
  8
0
 10
3404.7323619334488285
 20
151.7360423048586995
 30
0.0
 40
0.0977031676989684
 50
36.6583302677604408
 51
90.1176946753626567
  0
ARC
  5
18C6B
  8
0
 10
3404.7301353553962144
 20
151.7343851823740124
 30
0.0
 40
0.1004787225548339
 50
2.0026826179449331
 51
36.6583302677604408
  0
LINE
  5
18C6C
  8
0
 10
3404.8305527047341457
 20
151.7378965408163936
 30
0.0
 11
3404.9402834433631142
 21
147.5474486908966014
 31
0.0
  0
ARC
  5
18C6D
  8
0
 10
3404.9461952310921333
 20
147.5474469843954921
 30
0.0
 40
0.0059117879753763
 50
179.9834609451727943
 51
243.7389626132151079
  0
ARC
  5
18C6E
  8
0
 10
3404.8951465213622214
 20
147.4439806926114045
 30
0.0
 40
0.1094625778978823
 50
299.261037339240886
 51
63.7389626132158895
  0
ARC
  5
18C6F
  8
0
 10
3404.9515384187811833
 20
147.3433311988762
 30
0.0
 40
0.0059079845677096
 50
119.2610373392409002
 51
179.9859441794299073
  0
LINE
  5
18C70
  8
0
 10
3404.9456304343912052
 20
147.3433326482249868
 30
0.0
 11
3405.035599212094894
 21
144.6192095635761916
 31
0.0
  0
ARC
  5
18C71
  8
0
 10
3405.4287695866150898
 20
144.6627270244217129
 30
0.0
 40
0.3955713750999191
 50
186.3159873126361106
 51
195.8525090782156042
  0
ARC
  5
18C72
  8
0
 10
3405.0558593130767804
 20
144.5589654347465114
 30
0.0
 40
0.0087434983502501
 50
209.4093845822019091
 51
263.3535363663672797
  0
LINE
  5
18C73
  8
0
 10
3405.0548473171302248
 20
144.5502806994250022
 30
0.0
 11
3405.8643341850911384
 21
144.5502806994250022
 31
0.0
  0
ARC
  5
18C74
  8
0
 10
3405.8643341850911384
 20
144.6290208569249955
 30
0.0
 40
0.0787401574999979
 50
270.0
 51
350.0000000012992132
  0
LINE
  5
18C75
  8
0
 10
3405.9418781026702163
 20
144.6153477720677074
 30
0.0
 11
3406.0109560230689567
 21
145.0071081262155985
 31
0.0
  0
ARC
  5
18C76
  8
0
 10
3408.3623558272252012
 20
144.6513950053721942
 30
0.0
 40
2.3781532463915518
 50
165.8135333887751131
 51
171.3976813143364097
  0
ARC
  5
18C77
  8
0
 10
3406.4273673783909544
 20
145.1014618017250086
 30
0.0
 40
0.3937007873999934
 50
90.0
 51
160.2918823882270942
  0
LINE
  5
18C78
  8
0
 10
3406.4273673783909544
 20
145.4951625891249876
 30
0.0
 11
3413.898009594990981
 21
145.4951625891249876
 31
0.0
  0
ARC
  5
18C79
  8
0
 10
3413.898009594855921
 20
145.101461801187213
 30
0.0
 40
0.3937007879378034
 50
44.5789156262827717
 51
89.9999999804065567
  0
ARC
  5
18C7A
  8
0
 10
3413.8980095960919243
 20
145.1014618024053959
 30
0.0
 40
0.3937007862021415
 50
9.9999999314514625
 51
44.5789156262827717
  0
LINE
  5
18C7B
  8
0
 10
3414.2857291827931476
 20
145.1698272260115914
 30
0.0
 11
3414.3834988701100883
 21
144.6153477719406908
 31
0.0
  0
ARC
  5
18C7C
  8
0
 10
3414.4610427874458765
 20
144.6290208566612137
 30
0.0
 40
0.0787401572362336
 50
189.9999999314497927
 51
270.0000006872293739
  0
LINE
  5
18C7D
  8
0
 10
3414.4610427883908415
 20
144.5502806994250022
 30
0.0
 11
3415.2706402216908828
 21
144.5502807091355919
 31
0.0
  0
ARC
  5
18C7E
  8
0
 10
3415.2703335127721402
 20
144.5567134261679882
 30
0.0
 40
0.0064400247499246
 50
272.7297684782448073
 51
313.0615258697368972
  0
ARC
  5
18C7F
  8
0
 10
3415.2543554402491282
 20
144.5715682707034944
 30
0.0
 40
0.028244386112227
 50
316.1693500614325103
 51
345.4966338519972737
  0
ARC
  5
18C80
  8
0
 10
3415.1524750334251621
 20
144.6050695278038063
 30
0.0
 40
0.1354449548997124
 50
342.5684665936655051
 51
352.1965363731669072
  0
ARC
  5
18C81
  8
0
 10
3324.4079852530430799
 20
149.0352041856135088
 30
0.0
 40
90.9874932926687734
 50
357.1976000399135955
 51
358.9344519687400066
  0
ARC
  5
18C82
  8
0
 10
3415.3738410269270389
 20
147.3433326480135008
 30
0.0
 40
0.0059055121299803
 50
358.4999098013266803
 51
60.7530154473811734
  0
ARC
  5
18C83
  8
0
 10
3415.4302001266819389
 20
147.4439814867064058
 30
0.0
 40
0.1094484511973312
 50
116.2469845592161022
 51
240.7530154473803066
  0
ARC
  5
18C84
  8
0
 10
3415.379185818364931
 20
147.5474419969457074
 30
0.0
 40
0.0059055120285754
 50
296.2469845592161164
 51
358.4999986645361219
  0
LINE
  5
18C85
  8
0
 10
3415.3850893067187826
 20
147.5472874085249941
 30
0.0
 11
3415.4464078690680253
 21
149.8889467451608084
 31
0.0
  0
ARC
  5
18C86
  8
0
 10
3407.8319798252910005
 20
144.0384696758250129
 30
0.0
 40
0.0393700787000115
 50
0.0000000000162844
 51
89.9999999999739515
  0
LINE
  5
18C87
  8
0
 10
3407.8713499039909038
 20
144.0384696758250129
 30
0.0
 11
3407.8713499039909038
 21
143.9597295183249912
 31
0.0
  0
ARC
  5
18C88
  8
0
 10
3407.9500900614912098
 20
143.9597295183249912
 30
0.0
 40
0.0787401575000146
 50
180.0000000000194973
 51
269.9999999999739089
  0
LINE
  5
18C89
  8
0
 10
3407.9500900614912098
 20
143.8809893608249979
 30
0.0
 11
3412.3752757624911283
 21
143.8809893608226105
 31
0.0
  0
ARC
  5
18C8A
  8
0
 10
3412.3752757624911283
 20
143.9597406685118983
 30
0.0
 40
0.0787513076893156
 50
269.9999999999739089
 51
359.991887643874577
  0
LINE
  5
18C8B
  8
0
 10
3412.4540270693910315
 20
143.9597295183249912
 30
0.0
 11
3412.4540382179989138
 21
144.0384696750357136
 31
0.0
  0
ARC
  5
18C8C
  8
0
 10
3412.4934027892950326
 20
144.0384812959588032
 30
0.0
 40
0.0393645730108961
 50
91.0098781862866844
 51
180.0169144437776936
  0
LINE
  5
18C8D
  8
0
 10
3404.9435794927580901
 20
147.5421453667250091
 30
0.0
 11
3415.3817974807238897
 21
147.5421453667250091
 31
0.0
  0
LINE
  5
18C8E
  8
0
 10
3404.9486506590001227
 20
147.3484853356250142
 30
0.0
 11
3415.3767263144168282
 21
147.3484853356250142
 31
0.0
  0
LINE
  5
18C8F
  8
0
 10
3416.0878853370900288
 20
151.9518555025250066
 30
0.0
 11
3416.0878853370900288
 21
152.0109106206249976
 31
0.0
  0
LINE
  5
18C90
  8
0
 10
3416.028830218991061
 20
152.0109106206249976
 30
0.0
 11
3417.6823735260909416
 21
152.0109106206249976
 31
0.0
  0
LINE
  5
18C91
  8
0
 10
3417.6823735260909416
 20
152.0109106206249976
 30
0.0
 11
3417.6813896248640958
 21
152.0672782839347121
 31
0.0
  0
ARC
  5
18C92
  8
0
 10
3417.6617075836547883
 20
152.0669347326260947
 30
0.0
 40
0.0196850393359133
 50
1.000000004010116
 51
75.0000001810030454
  0
LINE
  5
18C93
  8
0
 10
3417.666802446678048
 20
152.0859490205282896
 30
0.0
 11
3417.3340199460990334
 21
152.175117821686996
 31
0.0
  0
ARC
  5
18C94
  8
0
 10
3417.3391148090117895
 20
152.1941321091753139
 30
0.0
 40
0.0196850389074817
 50
180.4999955008119912
 51
255.0000001810026049
  0
LINE
  5
18C95
  8
0
 10
3417.3194305196370806
 20
152.1939603285302098
 30
0.0
 11
3417.3157712678398639
 21
152.6132728257124995
 31
0.0
  0
LINE
  5
18C96
  8
0
 10
3417.4105983999911587
 20
152.6132728253749917
 30
0.0
 11
3416.3006053450908439
 21
152.6132728253749917
 31
0.0
  0
ARC
  5
18C97
  8
0
 10
3416.3006053451758817
 20
152.6329578648604013
 30
0.0
 40
0.0196850394853598
 50
180.0000003939987039
 51
269.9999997515645873
  0
LINE
  5
18C98
  8
0
 10
3416.28092030569087
 20
152.6329578647250003
 30
0.0
 11
3416.2879268676911124
 21
153.7709188028250082
 31
0.0
  0
LINE
  5
18C99
  8
0
 10
3416.2879268676911124
 20
153.7709188028250082
 30
0.0
 11
3416.2886777016910855
 21
153.7746085168249977
 31
0.0
  0
LINE
  5
18C9A
  8
0
 10
3416.2886777016910855
 20
153.7746085168249977
 30
0.0
 11
3416.2900345926909722
 21
153.9952501054249865
 31
0.0
  0
LINE
  5
18C9B
  8
0
 10
3416.2900345926909722
 20
153.9952501054249865
 30
0.0
 11
3416.2893611093909385
 21
153.998780879775012
 31
0.0
  0
LINE
  5
18C9C
  8
0
 10
3416.2893611093909385
 20
153.998780879775012
 30
0.0
 11
3416.290616850123115
 21
154.2077852557872006
 31
0.0
  0
ARC
  5
18C9D
  8
0
 10
3416.2945531959221626
 20
154.2077616054222915
 30
0.0
 40
0.0039364168465677
 50
89.991449207293158
 51
179.6557594642378035
  0
LINE
  5
18C9E
  8
0
 10
3416.2945537833911658
 20
154.2116980222249936
 30
0.0
 11
3417.4166498817908177
 21
154.2116980222249936
 31
0.0
  0
ARC
  5
18C9F
  8
0
 10
3417.4166499616899273
 20
154.2077610143244044
 30
0.0
 40
0.0039370079013928
 50
0.3527913368497191
 51
90.0011627748290692
  0
LINE
  5
18CA0
  8
0
 10
3417.4205868949588876
 20
154.2077852557872006
 30
0.0
 11
3417.4302830667420494
 21
152.6330790720338939
 31
0.0
  0
ARC
  5
18CA1
  8
0
 10
3417.4105984005209393
 20
152.6329578647562073
 30
0.0
 40
0.0196850393812156
 50
269.9999984568083278
 51
0.3527912342623554
  0
ARC
  5
18CA2
  8
0
 10
3416.2985494661838857
 20
154.2156350301418115
 30
0.0
 40
0.0039370079167895
 50
270.0000001006247885
 51
359.4999988728819744
  0
LINE
  5
18CA3
  8
0
 10
3416.3024863241907951
 20
154.2156006736250049
 30
0.0
 11
3416.3027958444367869
 21
154.2510681009185021
 31
0.0
  0
LINE
  5
18CA4
  8
0
 10
3416.2918245551909422
 20
154.2510681009250106
 30
0.0
 11
3417.4193839268918964
 21
154.2510681010249982
 31
0.0
  0
ARC
  5
18CA5
  8
0
 10
3417.4193839268909869
 20
154.2589421167434125
 30
0.0
 40
0.0078740157184249
 50
270.0000000050807216
 51
0.5000000283308386
  0
LINE
  5
18CA6
  8
0
 10
3417.427257642791119
 20
154.259010829624998
 30
0.0
 11
3417.4265537360602139
 21
154.3396705472250119
 31
0.0
  0
ARC
  5
18CA7
  8
0
 10
3417.4147431621581745
 20
154.3395674779021078
 30
0.0
 40
0.0118110236292386
 50
0.5000000283406089
 51
79.9999994905380021
  0
LINE
  5
18CA8
  8
0
 10
3417.4167941249911564
 20
154.3511990655250088
 30
0.0
 11
3417.3207882288329529
 21
154.3681274962048917
 31
0.0
  0
LINE
  5
18CA9
  8
0
 10
3417.3207882288329529
 20
154.3681274962048917
 30
0.0
 11
3417.2956180585870243
 21
154.3709116748250096
 31
0.0
  0
ARC
  5
18CAA
  8
0
 10
3416.8556018725907961
 20
144.7702469647244072
 30
0.0
 40
9.6107427975005741
 50
87.3758650144600608
 51
92.6241349855399392
  0
LINE
  5
18CAB
  8
0
 10
3416.4155856865950227
 20
154.3709116748250096
 30
0.0
 11
3416.3904155299910599
 21
154.3681274977249984
 31
0.0
  0
LINE
  5
18CAC
  8
0
 10
3416.3904155299910599
 20
154.3681274977249984
 30
0.0
 11
3416.2944096201690627
 21
154.3511990655387081
 31
0.0
  0
ARC
  5
18CAD
  8
0
 10
3416.2964605828960885
 20
154.3395674778930982
 30
0.0
 40
0.0118110236333359
 50
99.999999986776956
 51
179.4999999280530005
  0
LINE
  5
18CAE
  8
0
 10
3416.2846500089917754
 20
154.3396705472250119
 30
0.0
 11
3416.2839461021972056
 21
154.2590108296259928
 31
0.0
  0
ARC
  5
18CAF
  8
0
 10
3416.2918198196039157
 20
154.2589421167253079
 30
0.0
 40
0.0078740172242999
 50
179.499999928043195
 51
270.0344587978913751
  0
LINE
  5
18CB0
  8
0
 10
3416.2944096200908461
 20
154.3511990655250088
 30
0.0
 11
3417.4167941249911564
 21
154.3511990655250088
 31
0.0
  0
LINE
  5
18CB1
  8
0
 10
3417.4084079013891824
 20
154.2510681010240035
 30
0.0
 11
3417.4087174208912074
 21
154.2156006736911138
 31
0.0
  0
ARC
  5
18CB2
  8
0
 10
3417.412656881896055
 20
154.215635052841094
 30
0.0
 40
0.0039396110131869
 50
180.4999999209194073
 51
267.9261471410002855
  0
ARC
  5
18CB3
  8
0
 10
3416.2652987412971015
 20
145.9958398859054114
 30
0.0
 40
7.9993609460983413
 50
89.8228319338541468
 51
114.1509352098111947
  0
ARC
  5
18CB4
  8
0
 10
3412.9956450551107991
 20
153.2878437608102047
 30
0.0
 40
0.0078682357708433
 50
114.1509352097833982
 51
227.8267287410677966
  0
ARC
  5
18CB5
  8
0
 10
3413.6342984842990518
 20
153.9928410041686959
 30
0.0
 40
0.9591301953569358
 50
227.8267287410677966
 51
242.3032285711794032
  0
ARC
  5
18CB6
  8
0
 10
3413.1927478761099337
 20
153.1529948001326886
 30
0.0
 40
0.0103021695539481
 50
245.6628302368349921
 51
266.6878785392844975
  0
ARC
  5
18CB7
  8
0
 10
3413.1918089238611174
 20
153.1523383249360108
 30
0.0
 40
0.0096346197094739
 50
272.0446210141893744
 51
291.0374356430294256
  0
ARC
  5
18CB8
  8
0
 10
3416.2631545021481543
 20
146.0051377550389873
 30
0.0
 40
7.7695524840824612
 50
90.0087642191589907
 51
113.257254701337601
  0
LINE
  5
18CB9
  8
0
 10
3416.2619660365921845
 20
153.7746901482250053
 30
0.0
 11
3416.2886782037039666
 21
153.7746901482250053
 31
0.0
  0
LINE
  5
18CBA
  8
0
 10
3416.395432510190858
 20
152.6132728254250139
 30
0.0
 11
3416.391773225444922
 21
152.1939603285302098
 31
0.0
  0
ARC
  5
18CBB
  8
0
 10
3416.3720889355208783
 20
152.1941321107269971
 30
0.0
 40
0.0196850394703077
 50
285.000000194397785
 51
359.4999999969078885
  0
LINE
  5
18CBC
  8
0
 10
3416.377183798704209
 20
152.1751178227283958
 30
0.0
 11
3416.0443945889737734
 21
152.0859472215213088
 31
0.0
  0
LINE
  5
18CBD
  8
0
 10
3416.0298371585909081
 20
152.0672782839249919
 30
0.0
 11
3416.028830218991061
 21
152.0109106206249976
 31
0.0
  0
LINE
  5
18CBE
  8
0
 10
3416.3771837986910214
 20
152.1751178227250136
 30
0.0
 11
3417.3340199463909812
 21
152.1751178227250136
 31
0.0
  0
LINE
  5
18CBF
  8
0
 10
3416.0444013029468806
 20
152.0859490205249926
 30
0.0
 11
3417.6668024468699514
 21
152.0859490205249926
 31
0.0
  0
LINE
  5
18CC0
  8
0
 10
3417.3207882202118526
 20
154.3681274977249984
 30
0.0
 11
3416.3904155299910599
 21
154.3681274977249984
 31
0.0
  0
ARC
  5
18CC1
  8
0
 10
3416.0494629447712214
 20
152.0669849141380041
 30
0.0
 40
0.0196279787296022
 50
104.9442415008517031
 51
179.1435961507112893
  0
ENDSEC
  0
EOF
