  0
SECTION
  2
HEADER
  9
$ACADVER
  1
AC1009
  9
$INSBASE
 10
5093.796148878400345
 20
-19.3995224412857112
 30
0.0
  9
$EXTMIN
 10
5091.5724147807359259
 20
-26.4655452429771998
 30
-0.0000000000112498
  9
$EXTMAX
 10
5099.7434533857522183
 20
-19.3930777065667996
 30
0.0000000000002956
  9
$LIMMIN
 10
0.0
 20
0.0
  9
$LIMMAX
 10
11.6929133858000007
 20
8.2677165353999982
  9
$ORTHOMODE
 70
     0
  9
$REGENMODE
 70
     1
  9
$FILLMODE
 70
     1
  9
$QTEXTMODE
 70
     0
  9
$MIRRTEXT
 70
     0
  9
$DRAGMODE
 70
     2
  9
$LTSCALE
 40
0.6431102362
  9
$OSMODE
 70
  3839
  9
$ATTMODE
 70
     1
  9
$TEXTSIZE
 40
0.2
  9
$TRACEWID
 40
0.05
  9
$TEXTSTYLE
  7
STANDARD
  9
$CLAYER
  8
0
  9
$CELTYPE
  6
BYLAYER
  9
$CECOLOR
 62
   256
  9
$DIMSCALE
 40
1.0
  9
$DIMASZ
 40
0.1875
  9
$DIMEXO
 40
0.0625
  9
$DIMDLI
 40
0.4443307087
  9
$DIMRND
 40
0.0
  9
$DIMDLE
 40
0.0
  9
$DIMEXE
 40
0.125
  9
$DIMTP
 40
0.01
  9
$DIMTM
 40
0.01
  9
$DIMTXT
 40
2.0
  9
$DIMCEN
 40
0.1052362205
  9
$DIMTSZ
 40
0.0
  9
$DIMTOL
 70
     1
  9
$DIMLIM
 70
     0
  9
$DIMTIH
 70
     1
  9
$DIMTOH
 70
     1
  9
$DIMSE1
 70
     0
  9
$DIMSE2
 70
     0
  9
$DIMTAD
 70
     0
  9
$DIMZIN
 70
     0
  9
$DIMBLK
  1

  9
$DIMASO
 70
     1
  9
$DIMSHO
 70
     1
  9
$DIMPOST
  1
\X
  9
$DIMAPOST
  1

  9
$DIMALT
 70
     1
  9
$DIMALTD
 70
     2
  9
$DIMALTF
 40
25.3999999999999986
  9
$DIMLFAC
 40
1.0
  9
$DIMTOFL
 70
     0
  9
$DIMTVP
 40
0.0
  9
$DIMTIX
 70
     0
  9
$DIMSOXD
 70
     0
  9
$DIMSAH
 70
     0
  9
$DIMBLK1
  1

  9
$DIMBLK2
  1

  9
$DIMSTYLE
  2
STANDARD
  9
$DIMCLRD
 70
     0
  9
$DIMCLRE
 70
     0
  9
$DIMCLRT
 70
     0
  9
$DIMTFAC
 40
1.0
  9
$DIMGAP
 40
0.09
  9
$LUNITS
 70
     2
  9
$LUPREC
 70
     4
  9
$SKETCHINC
 40
0.1
  9
$FILLETRAD
 40
0.0
  9
$AUNITS
 70
     0
  9
$AUPREC
 70
     0
  9
$MENU
  1
.
  9
$ELEVATION
 40
0.0
  9
$PELEVATION
 40
0.0
  9
$THICKNESS
 40
0.0
  9
$LIMCHECK
 70
     0
  9
$BLIPMODE
 70
     0
  9
$CHAMFERA
 40
0.0
  9
$CHAMFERB
 40
0.0
  9
$SKPOLY
 70
     0
  9
$TDCREATE
 40
2458060.468368056230247
  9
$TDUPDATE
 40
2460437.4422337962314487
  9
$TDINDWG
 40
0.5752269676
  9
$TDUSRTIMER
 40
0.5752269676
  9
$USRTIMER
 70
     1
  9
$ANGBASE
 50
0.0
  9
$ANGDIR
 70
     0
  9
$PDMODE
 70
     0
  9
$PDSIZE
 40
0.3125
  9
$PLINEWID
 40
0.0
  9
$COORDS
 70
     1
  9
$SPLFRAME
 70
     0
  9
$SPLINETYPE
 70
     6
  9
$SPLINESEGS
 70
     8
  9
$ATTDIA
 70
     1
  9
$ATTREQ
 70
     1
  9
$HANDLING
 70
     1
  9
$HANDSEED
  5
20B49
  9
$SURFTAB1
 70
     6
  9
$SURFTAB2
 70
     6
  9
$SURFTYPE
 70
     6
  9
$SURFU
 70
     6
  9
$SURFV
 70
     6
  9
$UCSNAME
  2

  9
$UCSORG
 10
0.0
 20
0.0
 30
0.0
  9
$UCSXDIR
 10
1.0
 20
0.0
 30
0.0
  9
$UCSYDIR
 10
0.0
 20
1.0
 30
0.0
  9
$PUCSNAME
  2

  9
$PUCSORG
 10
0.0
 20
0.0
 30
0.0
  9
$PUCSXDIR
 10
1.0
 20
0.0
 30
0.0
  9
$PUCSYDIR
 10
0.0
 20
1.0
 30
0.0
  9
$USERI1
 70
     0
  9
$USERI2
 70
     0
  9
$USERI3
 70
     0
  9
$USERI4
 70
     0
  9
$USERI5
 70
     0
  9
$USERR1
 40
0.0
  9
$USERR2
 40
0.0
  9
$USERR3
 40
0.0
  9
$USERR4
 40
0.0
  9
$USERR5
 40
0.0
  9
$WORLDVIEW
 70
     1
  9
$SHADEDGE
 70
     3
  9
$SHADEDIF
 70
    70
  9
$TILEMODE
 70
     1
  9
$MAXACTVP
 70
    64
  9
$PLIMCHECK
 70
     0
  9
$PEXTMIN
 10
1.0000000000000000E+20
 20
1.0000000000000000E+20
 30
1.0000000000000000E+20
  9
$PEXTMAX
 10
-1.0000000000000000E+20
 20
-1.0000000000000000E+20
 30
-1.0000000000000000E+20
  9
$PLIMMIN
 10
0.0
 20
0.0
  9
$PLIMMAX
 10
12.0
 20
9.0
  9
$UNITMODE
 70
     0
  9
$VISRETAIN
 70
     1
  9
$PLINEGEN
 70
     0
  9
$PSLTSCALE
 70
     1
  0
ENDSEC
  0
SECTION
  2
TABLES
  0
TABLE
  2
VPORT
 70
     1
  0
VPORT
  2
*ACTIVE
 70
     0
 10
0.0
 20
0.0
 11
1.0
 21
1.0
 12
1303.3000239269940721
 22
-143.1099679078774898
 13
0.0
 23
0.0
 14
1.0
 24
1.0
 15
0.0
 25
0.0
 16
0.0
 26
0.0
 36
5.1040778033513332
 17
3792.35791015625
 27
120.1806564331053977
 37
0.0
 40
7.1195649894830524
 41
2.1211111111111101
 42
50.0
 43
0.0
 44
0.0
 50
0.0
 51
0.0
 71
     0
 72
   100
 73
     1
 74
     1
 75
     0
 76
     0
 77
     0
 78
     0
  0
ENDTAB
  0
TABLE
  2
LTYPE
 70
     2
  0
LTYPE
  2
CONTINUOUS
 70
     0
  3
Solid line
 72
    65
 73
     0
 40
0.0
  0
LTYPE
  2
PHANTOM2
 70
     0
  3
___ _ _ ___ _ _ ___ _ _ ___ _ _
 72
    65
 73
     6
 40
1.25
 49
0.625
 49
-0.125
 49
0.125
 49
-0.125
 49
0.125
 49
-0.125
  0
ENDTAB
  0
TABLE
  2
LAYER
 70
     2
  0
LAYER
  2
0
 70
     0
 62
   255
  6
CONTINUOUS
  0
LAYER
  2
DEFPOINTS
 70
     0
 62
     7
  6
CONTINUOUS
  0
ENDTAB
  0
TABLE
  2
STYLE
 70
     1
  0
STYLE
  2
STANDARD
 70
     0
 40
0.0
 41
0.8
 50
0.0
 71
     0
 42
0.2
  3
txt
  4

  0
ENDTAB
  0
TABLE
  2
VIEW
 70
     0
  0
ENDTAB
  0
TABLE
  2
UCS
 70
     0
  0
ENDTAB
  0
TABLE
  2
APPID
 70
     9
  0
APPID
  2
ACAD
 70
     0
  0
APPID
  2
ACAD_MLEADERVER
 70
     0
  0
APPID
  2
ACAD_EXEMPT_FROM_CAD_STANDARDS
 70
     0
  0
APPID
  2
ACAD_NAV_VCDISPLAY
 70
     0
  0
APPID
  2
ACAECLAYERSTANDARD
 70
     0
  0
APPID
  2
ACCMTRANSPARENCY
 70
     0
  0
APPID
  2
ACAD_DSTYLE_DIMJAG
 70
     0
  0
APPID
  2
ACAD_DSTYLE_DIMTALN
 70
     0
  0
APPID
  2
ACDBATTR
 70
     0
  0
ENDTAB
  0
TABLE
  2
DIMSTYLE
 70
     1
  0
DIMSTYLE
  2
STANDARD
 70
     0
  3

  4

  5

  6

  7

 40
1.0
 41
0.1875
 42
0.0625
 43
0.38
 44
0.125
 45
0.0
 46
0.0
 47
0.01
 48
0.01
140
0.15625
141
0.09
142
0.0
143
25.3999999999999986
144
1.0
145
0.0
146
1.0
147
0.09
 71
     1
 72
     0
 73
     1
 74
     1
 75
     0
 76
     0
 77
     0
 78
     4
170
     0
171
     2
172
     0
173
     0
174
     0
175
     0
176
     0
177
     0
178
     0
  0
ENDTAB
  0
ENDSEC
  0
SECTION
  2
BLOCKS
  0
BLOCK
  8
0
  2
$MODEL_SPACE
 70
     0
 10
0.0
 20
0.0
 30
0.0
  3
$MODEL_SPACE
  1

  0
ENDBLK
  5
21
  8
0
  0
BLOCK
 67
     1
  8
0
  2
$PAPER_SPACE
 70
     0
 10
0.0
 20
0.0
 30
0.0
  3
$PAPER_SPACE
  1

  0
ENDBLK
  5
1D
 67
     1
  8
0
  0
BLOCK
  8
0
  2
_FILLED
 70
     0
 10
0.0
 20
0.0
 30
0.0
  3
_FILLED
  1

  0
SOLID
  5
1CA7B
  8
0
  6
BYBLOCK
 62
     0
 10
0.0
 20
0.0
 30
0.0
 11
-1.0
 21
0.1666666667
 31
0.0
 12
-1.0
 22
-0.1666666667
 32
0.0
 13
-1.0
 23
-0.1666666667
 33
0.0
  0
ENDBLK
  5
1CA7C
  8
0
  6
BYBLOCK
 62
     0
  0
ENDSEC
  0
SECTION
  2
ENTITIES
  0
ATTDEF
  5
3930
  8
DEFPOINTS
 10
5093.7864313035133819
 20
-19.3956204157986996
 30
0.0
 40
0.001
  1
K-21969IN-4ND
  3

  2
MODELNUMBER
 70
     0
1001
ACDBATTR
1070
     0
1070
     1
  0
ATTDEF
  5
3931
  8
DEFPOINTS
 10
5093.7864313035133819
 20
-19.3972870824653683
 30
0.0
 40
0.001
  1
ALEO
  3

  2
TRADENAME
 70
     0
1001
ACDBATTR
1070
     0
1070
     1
  0
ATTDEF
  5
3932
  8
DEFPOINTS
 10
5093.7864313035133819
 20
-19.3989537491320299
 30
0.0
 40
0.001
  1
BATHROOM SINK FAUCET
  3

  2
PRODUCT
 70
     0
1001
ACDBATTR
1070
     0
1070
     1
  0
LINE
  5
204B9
  8
0
 10
5091.859141004400044
 20
-19.3995224412857112
 30
0.0
 11
5099.7331567523997364
 21
-19.3995224412857112
 31
0.0
  0
LINE
  5
204BA
  8
0
 10
5091.924198120534129
 20
-19.7294170091857097
 30
0.0
 11
5096.7828323972098588
 21
-19.7294170091857097
 31
0.0
  0
LINE
  5
204BB
  8
0
 10
5098.8094659908601898
 20
-19.7294170091857097
 30
0.0
 11
5099.668099636264742
 21
-19.7294170091857097
 31
0.0
  0
LINE
  5
204BC
  8
0
 10
5091.8848484299587653
 20
-19.69335966101238
 30
0.0
 11
5091.859141004400044
 21
-19.3995224412857112
 31
0.0
  0
ARC
  5
204BD
  8
0
 10
5091.924198120534129
 20
-19.6899170091856988
 30
0.0
 40
0.0395
 50
184.9999999827259103
 51
270.0
  0
LINE
  5
204BE
  8
0
 10
5099.7074493268410151
 20
-19.69335966101238
 30
0.0
 11
5099.7331567523997364
 21
-19.3995224412857112
 31
0.0
  0
ARC
  5
204BF
  8
0
 10
5099.668099636264742
 20
-19.6899170091856988
 30
0.0
 40
0.0395
 50
270.0
 51
355.000000017273976
  0
LINE
  5
204C0
  8
0
 10
5092.8109068330995797
 20
-19.7294170091857097
 30
0.0
 11
5092.9942655910999747
 21
-25.2586144474857086
 31
0.0
  0
ARC
  5
204C1
  8
0
 10
5105.537900893216829
 20
-24.8409621362891713
 30
0.0
 40
12.5505864422979503
 50
181.9070131620744917
 51
184.3247148172418122
  0
ARC
  5
204C2
  8
0
 10
5094.2866458967373546
 20
-25.7355703281236714
 30
0.0
 40
1.264658147509776
 50
182.3482551353687029
 51
200.2411402266978939
  0
ARC
  5
204C3
  8
0
 10
5093.50391950552239
 20
-25.9821725924537006
 30
0.0
 40
0.4466951592086391
 50
205.3050122420345929
 51
239.7595218412733971
  0
ARC
  5
204C4
  8
0
 10
5093.6130899080708332
 20
-25.7628298838990908
 30
0.0
 40
0.6913598061411351
 50
241.0983287529311099
 51
265.3932700267313862
  0
ARC
  5
204C5
  8
0
 10
5093.813115330139226
 20
-23.5817223196021217
 30
0.0
 40
2.8815880703529388
 50
264.9120584991434271
 51
269.6626472379085726
  0
LINE
  5
204C6
  8
0
 10
5094.7813909236992913
 20
-19.7294170091857097
 30
0.0
 11
5094.5980321656988963
 21
-25.2586144474857086
 31
0.0
  0
ARC
  5
204C7
  8
0
 10
5082.0543968635811325
 20
-24.8409621362891713
 30
0.0
 40
12.5505864422979503
 50
355.6752851827582163
 51
358.092986837925082
  0
ARC
  5
204C8
  8
0
 10
5093.3056518600624258
 20
-25.7355703281236714
 30
0.0
 40
1.264658147509776
 50
339.7588597733021061
 51
357.6517448646309276
  0
ARC
  5
204C9
  8
0
 10
5094.0883782512783
 20
-25.9821725924537006
 30
0.0
 40
0.4466951592086391
 50
300.2404781587266029
 51
334.6949877579650092
  0
ARC
  5
204CA
  8
0
 10
5093.9792078487289473
 20
-25.7628298838990908
 30
0.0
 40
0.6913598061411351
 50
274.6067299732685001
 51
298.9016712470689185
  0
ARC
  5
204CB
  8
0
 10
5093.7791824266605545
 20
-23.5817223196021217
 30
0.0
 40
2.8815880703529388
 50
270.3373527620914274
 51
275.0879415008565729
  0
LINE
  5
204CC
  8
0
 10
5096.8121456126173143
 20
-21.8253264729349894
 30
0.0
 11
5096.8121456126173143
 21
-20.5394492770537695
 31
0.0
  0
LINE
  5
204CD
  8
0
 10
5096.8202452051327782
 20
-20.5215696853857104
 30
0.0
 11
5096.8928337058951001
 21
-20.5215696853857104
 31
0.0
  0
ARC
  5
204CE
  8
0
 10
5096.8213464617119826
 20
-20.5273931198680586
 30
0.0
 40
0.0059266478911847
 50
100.7086179624393054
 51
156.9092437157744087
  0
ARC
  5
204CF
  8
0
 10
5096.8532008551710533
 20
-20.5424734716642305
 30
0.0
 40
0.0411664753689784
 50
154.9892313596589872
 51
175.7871103108682007
  0
ARC
  5
204D0
  8
0
 10
5097.0579870793080772
 20
-20.5249785105684701
 30
0.0
 40
0.2469312020301875
 50
185.3848053348177984
 51
200.9306886678170088
  0
ARC
  5
204D1
  8
0
 10
5097.1486236708860815
 20
-20.4790534720751012
 30
0.0
 40
0.3481520117212117
 50
202.6615379306346938
 51
228.1113601580281909
  0
ARC
  5
204D2
  8
0
 10
5097.4665831924048689
 20
-20.09936178397232
 30
0.0
 40
0.8432755730434202
 50
229.2536742861705079
 51
253.7353830926147964
  0
ARC
  5
204D3
  8
0
 10
5097.7749569019806586
 20
-19.1624736545735388
 30
0.0
 40
1.8293446326141769
 50
252.681888421468301
 51
266.9308994784049105
  0
ARC
  5
204D4
  8
0
 10
5097.8335078715181226
 20
-17.7903874377385698
 30
0.0
 40
3.2026327920493789
 50
267.199162645688773
 51
269.3318309399098212
  0
ARC
  5
204D5
  8
0
 10
5097.7981173823000063
 20
9.6359106296071033
 30
0.0
 40
31.4960629920928099
 50
268.24136846748479
 51
269.9964400003689775
  0
ARC
  5
204D6
  8
0
 10
5096.8321456126168414
 20
-21.8253264729349894
 30
0.0
 40
0.02
 50
180.0
 51
268.2413684674327214
  0
ARC
  5
204D7
  8
0
 10
5096.854387974573001
 20
-20.5317040711323315
 30
0.0
 40
0.0101912367547004
 50
96.0547381563005445
 51
161.7021159141256135
  0
ARC
  5
204D8
  8
0
 10
5096.8758758599260545
 20
-20.5359542664056605
 30
0.0
 40
0.0320419029629191
 50
166.555574869286005
 51
195.921498723404909
  0
ARC
  5
204D9
  8
0
 10
5097.0714534492453822
 20
-20.4760442567597387
 30
0.0
 40
0.2365845091127767
 50
196.8807926897401046
 51
221.2917356701161964
  0
ARC
  5
204DA
  8
0
 10
5097.3233097587517477
 20
-20.2303328495311199
 30
0.0
 40
0.588250848759866
 50
223.0860700573400948
 51
247.8632225428721938
  0
ARC
  5
204DB
  8
0
 10
5097.6810865955230838
 20
-19.4012578022818616
 30
0.0
 40
1.491150282601907
 50
247.1334236073707871
 51
262.34972526584761
  0
ARC
  5
204DC
  8
0
 10
5097.8796573312592955
 20
-17.5469392478311299
 30
0.0
 40
3.355772027346978
 50
263.2043843164677241
 51
268.5742432340048822
  0
LINE
  5
204DD
  8
0
 10
5096.8512669886004005
 20
-20.1475539373857089
 30
0.0
 11
5096.8512669886004005
 21
-20.2443991876857083
 31
0.0
  0
LINE
  5
204DE
  8
0
 10
5096.8512669886004005
 20
-20.5215696853857104
 30
0.0
 11
5096.8512669886004005
 21
-20.5220024860485317
 31
0.0
  0
LINE
  5
204DF
  8
0
 10
5096.8217509660998985
 20
-20.1475539373857089
 30
0.0
 11
5098.7705698637000751
 21
-20.1475539373857089
 31
0.0
  0
ARC
  5
204E0
  8
0
 10
5097.796148878400345
 20
-20.2443991876857083
 30
0.0
 40
0.9448818898000144
 50
180.0
 51
208.7600922518026039
  0
LINE
  5
204E1
  8
0
 10
5096.8217509660998985
 20
-19.7278400571857091
 30
0.0
 11
5096.8217509660998985
 21
-20.1475539373857089
 31
0.0
  0
LINE
  5
204E2
  8
0
 10
5096.9372269891600808
 20
-20.6381693920642597
 30
0.0
 11
5096.9186760183993101
 21
-20.6381693282857093
 31
0.0
  0
ARC
  5
204E3
  8
0
 10
5096.9177022336771188
 20
-20.6717417387217814
 30
0.0
 40
0.0335865300258077
 50
88.3385727995225096
 51
116.3936080924555938
  0
LINE
  5
204E4
  8
0
 10
5096.9186760183993101
 20
-20.6381693282857093
 30
0.0
 11
5096.9186760183993101
 21
-20.6573113000831086
 31
0.0
  0
LINE
  5
204E5
  8
0
 10
5098.7801752171817498
 20
-21.8253264729349894
 30
0.0
 11
5098.7801752171817498
 21
-20.5394492770537695
 31
0.0
  0
LINE
  5
204E6
  8
0
 10
5098.7720756246671954
 20
-20.5215696853857104
 30
0.0
 11
5098.6994871239039639
 21
-20.5215696853857104
 31
0.0
  0
ARC
  5
204E7
  8
0
 10
5098.770974368086172
 20
-20.5273931198680586
 30
0.0
 40
0.0059266478911847
 50
23.0907562842255416
 51
79.2913820375606804
  0
ARC
  5
204E8
  8
0
 10
5098.7391199746271013
 20
-20.5424734716642305
 30
0.0
 40
0.0411664753689784
 50
4.2128896891318348
 51
25.0107686403409595
  0
ARC
  5
204E9
  8
0
 10
5098.5343337504918964
 20
-20.5249785105684701
 30
0.0
 40
0.2469312020301875
 50
339.0693113321830197
 51
354.6151946651821731
  0
ARC
  5
204EA
  8
0
 10
5098.4436971589129826
 20
-20.4790534720751012
 30
0.0
 40
0.3481520117212117
 50
311.8886398419717239
 51
337.3384620693652778
  0
ARC
  5
204EB
  8
0
 10
5098.1257376373951047
 20
-20.09936178397232
 30
0.0
 40
0.8432755730434202
 50
286.2646169073352098
 51
310.7463257138294921
  0
ARC
  5
204EC
  8
0
 10
5097.8173639278165865
 20
-19.1624736545735388
 30
0.0
 40
1.8293446326141769
 50
273.0691005215950895
 51
287.3181115785317274
  0
ARC
  5
204ED
  8
0
 10
5097.758812958281851
 20
-17.7903874377385698
 30
0.0
 40
3.2026327920493789
 50
270.6681690600901788
 51
272.800837354311227
  0
ARC
  5
204EE
  8
0
 10
5097.7942034474999673
 20
9.6359106296071033
 30
0.0
 40
31.4960629920928099
 50
270.0035599996310225
 51
271.75863153251521
  0
ARC
  5
204EF
  8
0
 10
5098.7601752171831322
 20
-21.8253264729349894
 30
0.0
 40
0.02
 50
271.7586315325672786
 51
0.0
  0
ARC
  5
204F0
  8
0
 10
5098.7379328552251536
 20
-20.5317040711323315
 30
0.0
 40
0.0101912367547004
 50
18.2978840858743688
 51
83.9452618436994413
  0
ARC
  5
204F1
  8
0
 10
5098.7164449698730095
 20
-20.5359542664056605
 30
0.0
 40
0.0320419029629191
 50
344.0785012765945794
 51
13.4444251307139506
  0
ARC
  5
204F2
  8
0
 10
5098.5208673805536819
 20
-20.4760442567597387
 30
0.0
 40
0.2365845091127767
 50
318.7082643298837752
 51
343.1192073102595259
  0
ARC
  5
204F3
  8
0
 10
5098.2690110710491354
 20
-20.2303328495311199
 30
0.0
 40
0.588250848759866
 50
292.1367774571277778
 51
316.91392994265982
  0
ARC
  5
204F4
  8
0
 10
5097.9112342342777993
 20
-19.4012578022818616
 30
0.0
 40
1.491150282601907
 50
277.65027473415239
 51
292.8665763926293266
  0
ARC
  5
204F5
  8
0
 10
5097.7126634985397686
 20
-17.5469392478311299
 30
0.0
 40
3.355772027346978
 50
271.4257567659950041
 51
276.7956156835322759
  0
LINE
  5
204F6
  8
0
 10
5098.7410538411995731
 20
-20.1475539373857089
 30
0.0
 11
5098.7410538411995731
 21
-20.2443991876857083
 31
0.0
  0
LINE
  5
204F7
  8
0
 10
5098.7410538411995731
 20
-20.5215696853857104
 30
0.0
 11
5098.7410538411995731
 21
-20.5220024860485317
 31
0.0
  0
ARC
  5
204F8
  8
0
 10
5097.7961719513996286
 20
-20.2443991876857083
 30
0.0
 40
0.9448818898000144
 50
331.2399077481974814
 51
0.0
  0
LINE
  5
204F9
  8
0
 10
5098.7705698637000751
 20
-19.72784094868571
 30
0.0
 11
5098.7705698637000751
 21
-20.1475539373857089
 31
0.0
  0
LINE
  5
204FA
  8
0
 10
5098.6550938406398927
 20
-20.6381693920642597
 30
0.0
 11
5098.673644811399754
 21
-20.6381693282857093
 31
0.0
  0
ARC
  5
204FB
  8
0
 10
5098.6746185961228548
 20
-20.6717417387217814
 30
0.0
 40
0.0335865300258077
 50
63.6063919075443707
 51
91.6614272004774762
  0
LINE
  5
204FC
  8
0
 10
5098.673644811399754
 20
-20.6381693282857093
 30
0.0
 11
5098.673644811399754
 21
-20.6573113000831086
 31
0.0
  0
ARC
  5
204FD
  8
0
 10
5097.7961491940350243
 20
-44.2566497170183979
 30
0.0
 40
24.5481558418326884
 50
87.6342305772562469
 51
92.3657694227437673
  0
ENDSEC
  0
EOF
