  0
SECTION
  2
HEADER
  9
$ACADVER
  1
AC1009
  9
$INSBASE
 10
3363.8736746136678448
 20
225.6558403869155995
 30
0.0
  9
$EXTMIN
 10
3353.717424593170108
 20
216.9058403867846891
 30
0.0
  9
$EXTMAX
 10
3374.0299246136678448
 20
234.4058403869157132
 30
0.0
  9
$LIMMIN
 10
0.0
 20
0.0
  9
$LIMMAX
 10
11.6929133858000007
 20
8.2677165353999982
  9
$ORTHOMODE
 70
     0
  9
$REGENMODE
 70
     1
  9
$FILLMODE
 70
     1
  9
$QTEXTMODE
 70
     0
  9
$MIRRTEXT
 70
     0
  9
$DRAGMODE
 70
     2
  9
$LTSCALE
 40
0.6431102362
  9
$OSMODE
 70
    37
  9
$ATTMODE
 70
     1
  9
$TEXTSIZE
 40
0.2
  9
$TRACEWID
 40
0.05
  9
$TEXTSTYLE
  7
STANDARD
  9
$CLAYER
  8
0
  9
$CELTYPE
  6
BYLAYER
  9
$CECOLOR
 62
   256
  9
$DIMSCALE
 40
1.0
  9
$DIMASZ
 40
0.1875
  9
$DIMEXO
 40
0.0625
  9
$DIMDLI
 40
0.4443307087
  9
$DIMRND
 40
0.0
  9
$DIMDLE
 40
0.0
  9
$DIMEXE
 40
0.125
  9
$DIMTP
 40
0.01
  9
$DIMTM
 40
0.01
  9
$DIMTXT
 40
2.0
  9
$DIMCEN
 40
0.1052362205
  9
$DIMTSZ
 40
0.0
  9
$DIMTOL
 70
     1
  9
$DIMLIM
 70
     0
  9
$DIMTIH
 70
     1
  9
$DIMTOH
 70
     1
  9
$DIMSE1
 70
     0
  9
$DIMSE2
 70
     0
  9
$DIMTAD
 70
     0
  9
$DIMZIN
 70
     0
  9
$DIMBLK
  1

  9
$DIMASO
 70
     1
  9
$DIMSHO
 70
     1
  9
$DIMPOST
  1
\X
  9
$DIMAPOST
  1

  9
$DIMALT
 70
     1
  9
$DIMALTD
 70
     2
  9
$DIMALTF
 40
25.3999999999999986
  9
$DIMLFAC
 40
1.0
  9
$DIMTOFL
 70
     0
  9
$DIMTVP
 40
0.0
  9
$DIMTIX
 70
     0
  9
$DIMSOXD
 70
     0
  9
$DIMSAH
 70
     0
  9
$DIMBLK1
  1

  9
$DIMBLK2
  1

  9
$DIMSTYLE
  2
STANDARD
  9
$DIMCLRD
 70
     0
  9
$DIMCLRE
 70
     0
  9
$DIMCLRT
 70
     0
  9
$DIMTFAC
 40
1.0
  9
$DIMGAP
 40
0.09
  9
$LUNITS
 70
     2
  9
$LUPREC
 70
     4
  9
$SKETCHINC
 40
0.1
  9
$FILLETRAD
 40
0.0
  9
$AUNITS
 70
     0
  9
$AUPREC
 70
     0
  9
$MENU
  1
.
  9
$ELEVATION
 40
0.0
  9
$PELEVATION
 40
0.0
  9
$THICKNESS
 40
0.0
  9
$LIMCHECK
 70
     0
  9
$BLIPMODE
 70
     0
  9
$CHAMFERA
 40
0.0
  9
$CHAMFERB
 40
0.0
  9
$SKPOLY
 70
     0
  9
$TDCREATE
 40
2458060.468368056230247
  9
$TDUPDATE
 40
2459016.7614699080586433
  9
$TDINDWG
 40
0.4975070602
  9
$TDUSRTIMER
 40
0.4975070602
  9
$USRTIMER
 70
     1
  9
$ANGBASE
 50
0.0
  9
$ANGDIR
 70
     0
  9
$PDMODE
 70
     0
  9
$PDSIZE
 40
0.3125
  9
$PLINEWID
 40
0.0
  9
$COORDS
 70
     1
  9
$SPLFRAME
 70
     0
  9
$SPLINETYPE
 70
     6
  9
$SPLINESEGS
 70
     8
  9
$ATTDIA
 70
     1
  9
$ATTREQ
 70
     1
  9
$HANDLING
 70
     1
  9
$HANDSEED
  5
8F06
  9
$SURFTAB1
 70
     6
  9
$SURFTAB2
 70
     6
  9
$SURFTYPE
 70
     6
  9
$SURFU
 70
     6
  9
$SURFV
 70
     6
  9
$UCSNAME
  2

  9
$UCSORG
 10
0.0
 20
0.0
 30
0.0
  9
$UCSXDIR
 10
1.0
 20
0.0
 30
0.0
  9
$UCSYDIR
 10
0.0
 20
1.0
 30
0.0
  9
$PUCSNAME
  2

  9
$PUCSORG
 10
0.0
 20
0.0
 30
0.0
  9
$PUCSXDIR
 10
1.0
 20
0.0
 30
0.0
  9
$PUCSYDIR
 10
0.0
 20
1.0
 30
0.0
  9
$USERI1
 70
     0
  9
$USERI2
 70
     0
  9
$USERI3
 70
     0
  9
$USERI4
 70
     0
  9
$USERI5
 70
     0
  9
$USERR1
 40
0.0
  9
$USERR2
 40
0.0
  9
$USERR3
 40
0.0
  9
$USERR4
 40
0.0
  9
$USERR5
 40
0.0
  9
$WORLDVIEW
 70
     1
  9
$SHADEDGE
 70
     3
  9
$SHADEDIF
 70
    70
  9
$TILEMODE
 70
     1
  9
$MAXACTVP
 70
    64
  9
$PLIMCHECK
 70
     0
  9
$PEXTMIN
 10
1.0000000000000000E+20
 20
1.0000000000000000E+20
 30
1.0000000000000000E+20
  9
$PEXTMAX
 10
-1.0000000000000000E+20
 20
-1.0000000000000000E+20
 30
-1.0000000000000000E+20
  9
$PLIMMIN
 10
0.0
 20
0.0
  9
$PLIMMAX
 10
12.0
 20
9.0
  9
$UNITMODE
 70
     0
  9
$VISRETAIN
 70
     1
  9
$PLINEGEN
 70
     0
  9
$PSLTSCALE
 70
     1
  0
ENDSEC
  0
SECTION
  2
TABLES
  0
TABLE
  2
VPORT
 70
     1
  0
VPORT
  2
*ACTIVE
 70
     0
 10
0.0
 20
0.0
 11
1.0
 21
1.0
 12
59.4276364169610787
 22
31.6380650581836917
 13
0.0
 23
0.0
 14
1.0
 24
1.0
 15
0.0
 25
0.0
 16
0.0
 26
0.0
 36
96.5995694866707311
 17
3303.693115234375
 27
195.2615115758877096
 37
0.0
 40
28.2544798781871407
 41
2.6522948539638378
 42
50.0
 43
0.0
 44
0.0
 50
0.0
 51
0.0
 71
     0
 72
   100
 73
     1
 74
     1
 75
     0
 76
     0
 77
     0
 78
     0
  0
ENDTAB
  0
TABLE
  2
LTYPE
 70
     2
  0
LTYPE
  2
CONTINUOUS
 70
     0
  3
Solid line
 72
    65
 73
     0
 40
0.0
  0
LTYPE
  2
PHANTOM2
 70
     0
  3
___ _ _ ___ _ _ ___ _ _ ___ _ _
 72
    65
 73
     6
 40
1.25
 49
0.625
 49
-0.125
 49
0.125
 49
-0.125
 49
0.125
 49
-0.125
  0
ENDTAB
  0
TABLE
  2
LAYER
 70
     2
  0
LAYER
  2
0
 70
     0
 62
   255
  6
CONTINUOUS
  0
LAYER
  2
DEFPOINTS
 70
     0
 62
     7
  6
CONTINUOUS
  0
ENDTAB
  0
TABLE
  2
STYLE
 70
     1
  0
STYLE
  2
STANDARD
 70
     0
 40
0.0
 41
0.8
 50
0.0
 71
     0
 42
0.2
  3
txt
  4

  0
ENDTAB
  0
TABLE
  2
VIEW
 70
     0
  0
ENDTAB
  0
TABLE
  2
UCS
 70
     0
  0
ENDTAB
  0
TABLE
  2
APPID
 70
     9
  0
APPID
  2
ACAD
 70
     0
  0
APPID
  2
ACAD_MLEADERVER
 70
     0
  0
APPID
  2
ACAD_EXEMPT_FROM_CAD_STANDARDS
 70
     0
  0
APPID
  2
ACAD_NAV_VCDISPLAY
 70
     0
  0
APPID
  2
ACAECLAYERSTANDARD
 70
     0
  0
APPID
  2
ACCMTRANSPARENCY
 70
     0
  0
APPID
  2
ACAD_DSTYLE_DIMJAG
 70
     0
  0
APPID
  2
ACAD_DSTYLE_DIMTALN
 70
     0
  0
APPID
  2
ACDBATTR
 70
     0
  0
ENDTAB
  0
TABLE
  2
DIMSTYLE
 70
     1
  0
DIMSTYLE
  2
STANDARD
 70
     0
  3

  4

  5

  6

  7

 40
1.0
 41
0.1875
 42
0.0625
 43
0.38
 44
0.125
 45
0.0
 46
0.0
 47
0.01
 48
0.01
140
0.15625
141
0.09
142
0.0
143
25.3999999999999986
144
1.0
145
0.0
146
1.0
147
0.09
 71
     1
 72
     0
 73
     1
 74
     1
 75
     0
 76
     0
 77
     0
 78
     4
170
     0
171
     2
172
     0
173
     0
174
     0
175
     0
176
     0
177
     0
178
     0
  0
ENDTAB
  0
ENDSEC
  0
SECTION
  2
BLOCKS
  0
BLOCK
  8
0
  2
$MODEL_SPACE
 70
     0
 10
0.0
 20
0.0
 30
0.0
  3
$MODEL_SPACE
  1

  0
ENDBLK
  5
21
  8
0
  0
BLOCK
 67
     1
  8
0
  2
$PAPER_SPACE
 70
     0
 10
0.0
 20
0.0
 30
0.0
  3
$PAPER_SPACE
  1

  0
ENDBLK
  5
1D
 67
     1
  8
0
  0
BLOCK
  8
0
  2
_FILLED
 70
     0
 10
0.0
 20
0.0
 30
0.0
  3
_FILLED
  1

  0
SOLID
  5
893D
  8
0
  6
BYBLOCK
 62
     0
 10
0.0
 20
0.0
 30
0.0
 11
-1.0
 21
0.1666666667
 31
0.0
 12
-1.0
 22
-0.1666666667
 32
0.0
 13
-1.0
 23
-0.1666666667
 33
0.0
  0
ENDBLK
  5
893E
  8
0
  6
BYBLOCK
 62
     0
  0
ENDSEC
  0
SECTION
  2
ENTITIES
  0
CIRCLE
  5
898D
  8
0
 10
3363.8736185428178942
 20
227.025840387584708
 30
0.0
 40
0.755672970800002
  0
CIRCLE
  5
898E
  8
0
 10
3363.8736185428178942
 20
227.025840387584708
 30
0.0
 40
1.1424002921043419
  0
ARC
  5
898F
  8
0
 10
3363.8459549795488783
 20
209.4506165855202084
 30
0.0
 40
20.1212251337831702
 50
89.9210675262729353
 51
95.6611356196683289
  0
ARC
  5
8990
  8
0
 10
3362.5051741162737926
 20
220.7827627198084883
 30
0.0
 40
8.7147749219499708
 50
94.238357000229243
 51
119.5860737693545985
  0
ARC
  5
8991
  8
0
 10
3360.7391249611710009
 20
223.947850760162595
 30
0.0
 40
5.0904858228399741
 50
119.889047259135296
 51
142.7959528144803869
  0
ARC
  5
8992
  8
0
 10
3359.6952491291931437
 20
224.7695818269160952
 30
0.0
 40
3.7622601978708898
 50
143.1509930040824941
 51
181.5562363276796987
  0
ARC
  5
8993
  8
0
 10
3360.1509255998248591
 20
224.8297161889489075
 30
0.0
 40
4.2196717586911792
 50
182.2044335601279101
 51
202.2288404212181945
  0
ARC
  5
8994
  8
0
 10
3361.569347281797036
 20
225.4018971904517912
 30
0.0
 40
5.749140881226066
 50
202.159657833035908
 51
221.1777495820170998
  0
ARC
  5
8995
  8
0
 10
3362.9139596709160287
 20
226.5773162584924023
 30
0.0
 40
7.5350838256732988
 50
221.1732966111869985
 51
241.9454363385293902
  0
ARC
  5
8996
  8
0
 10
3363.8477874133509431
 20
228.7513734549559103
 30
0.0
 40
9.8948689985918836
 50
243.0942381271615034
 51
270.1498987546975741
  0
ARC
  5
8997
  8
0
 10
3363.8736185437210224
 20
222.4058403847866998
 30
0.0
 40
12.0000000021289708
 50
89.9997323251302959
 51
110.7400034289770048
  0
ARC
  5
8998
  8
0
 10
3363.1653627908121962
 20
224.2762344038102924
 30
0.0
 40
10.0000000026474591
 50
110.7400034307051016
 51
136.3854841294707967
  0
ARC
  5
8999
  8
0
 10
3363.1653627874511585
 20
227.0354463642023859
 30
0.0
 40
9.9999999963537753
 50
223.6145158610380008
 51
249.2599965762329077
  0
ARC
  5
899A
  8
0
 10
3363.8736185435491279
 20
228.9058403913084874
 30
0.0
 40
12.0000000045237503
 50
249.2599965762329077
 51
270.000267675703526
  0
ARC
  5
899B
  8
0
 10
3363.8736185427969758
 20
222.4058403870020015
 30
0.0
 40
11.2858835005827292
 50
89.9997153832679544
 51
110.7400034288396
  0
ARC
  5
899C
  8
0
 10
3363.1653627895898353
 20
224.2762344059742077
 30
0.0
 40
9.2858835010430454
 50
110.7400034288396
 51
136.3854841336062123
  0
ARC
  5
899D
  8
0
 10
3361.7173685426159864
 20
225.6558403868887979
 30
0.0
 40
7.2858835005817948
 50
136.3854841336062123
 51
169.1618776299841045
  0
ARC
  5
899E
  8
0
 10
3361.7173685430548176
 20
225.6558403868046128
 30
0.0
 40
7.2858835010295744
 50
169.1618776299841045
 51
223.6145158647042877
  0
ARC
  5
899F
  8
0
 10
3363.165362788695802
 20
227.0354463663680917
 30
0.0
 40
9.2858834995937816
 50
223.6145158647042877
 51
249.2599965722473883
  0
ARC
  5
89A0
  8
0
 10
3363.8736185443040085
 20
228.9058403928763994
 30
0.0
 40
11.2858835070309897
 50
249.259996574199306
 51
270.0002846090978892
  0
ARC
  5
89A2
  8
0
 10
3363.9012866365587797
 20
209.4506778955671109
 30
0.0
 40
20.1211636758557511
 50
84.3388599964398793
 51
90.0786263344602247
  0
ARC
  5
89A3
  8
0
 10
3365.2420629693619958
 20
220.7827627198084883
 30
0.0
 40
8.7147749219499708
 50
60.4139262306453375
 51
85.761642999770757
  0
ARC
  5
89A4
  8
0
 10
3367.0081121244647875
 20
223.947850760162595
 30
0.0
 40
5.0904858228399741
 50
37.2040471855195776
 51
60.1109527408646471
  0
ARC
  5
89A5
  8
0
 10
3368.0519879564430994
 20
224.7695818269160952
 30
0.0
 40
3.7622601978708898
 50
358.4437636723203013
 51
36.8490069959175202
  0
ARC
  5
89A6
  8
0
 10
3367.5963114858109293
 20
224.8297161889489075
 30
0.0
 40
4.2196717586911792
 50
337.7711595787818055
 51
357.7955664398721183
  0
ARC
  5
89A7
  8
0
 10
3366.1778898038392072
 20
225.4018971904517912
 30
0.0
 40
5.749140881226066
 50
318.8222504179829002
 51
337.840342166964092
  0
ARC
  5
89A8
  8
0
 10
3364.8332774147202144
 20
226.5773162584924023
 30
0.0
 40
7.5350838256732988
 50
298.0545636614705813
 51
318.8267033888129731
  0
ARC
  5
89A9
  8
0
 10
3363.8994515016438527
 20
228.7513684673101864
 30
0.0
 40
9.8948637230192116
 50
269.8507398307967264
 51
296.9057654958895114
  0
ARC
  5
89AA
  8
0
 10
3363.8736185419161302
 20
222.4058403847865861
 30
0.0
 40
12.0000000021290703
 50
69.2599965710229952
 51
89.999732316506055
  0
ARC
  5
89AB
  8
0
 10
3364.581874294824047
 20
224.2762344038102924
 30
0.0
 40
10.0000000026474591
 50
43.614515870529253
 51
69.25999656929487
  0
ARC
  5
89AC
  8
0
 10
3364.5818742981859941
 20
227.0354463642023859
 30
0.0
 40
9.9999999963537753
 50
290.7400034237671207
 51
316.3854841389619992
  0
ARC
  5
89AD
  8
0
 10
3363.8736185420880247
 20
228.9058403913088
 30
0.0
 40
12.0000000045240505
 50
270.0002676826601942
 51
290.7400034237671207
  0
ARC
  5
89AE
  8
0
 10
3363.8736185428388126
 20
222.4058403870018878
 30
0.0
 40
11.2858835005828304
 50
69.2599965711604142
 51
89.999715383476385
  0
ARC
  5
89AF
  8
0
 10
3364.5818742960459531
 20
224.2762344059742077
 30
0.0
 40
9.2858835010430454
 50
43.6145158663937806
 51
69.2599965711604142
  0
ARC
  5
89B0
  8
0
 10
3366.0298685430211663
 20
225.6558403868887979
 30
0.0
 40
7.2858835005817948
 50
10.8381223700158191
 51
43.6145158663937806
  0
ARC
  5
89B1
  8
0
 10
3366.0298685425809708
 20
225.6558403868046128
 30
0.0
 40
7.2858835010295744
 50
316.3854841352957123
 51
10.8381223700158191
  0
ARC
  5
89B2
  8
0
 10
3364.5818742969399864
 20
227.0354463663680917
 30
0.0
 40
9.2858834995937816
 50
290.740003427752697
 51
316.3854841352957123
  0
ARC
  5
89B3
  8
0
 10
3363.8736185413317799
 20
228.905840392876911
 30
0.0
 40
11.2858835070314392
 50
270.0002846241837915
 51
290.740003425800694
  0
ARC
  5
89B4
  8
0
 10
3363.8765429747900271
 20
217.8166571710721087
 30
0.0
 40
1.3221562603271759
 50
81.7956555723348657
 51
90.1243011837202062
  0
ARC
  5
89B5
  8
0
 10
3363.952132329548931
 20
218.3203901636277067
 30
0.0
 40
0.8127971495906546
 50
72.288897738408977
 51
82.0022701136259258
  0
ARC
  5
89B6
  8
0
 10
3364.199399571063168
 20
219.0946628013419115
 30
0.0
 40
0.0000000000884319
 50
70.752319573091043
 51
72.4516918224499022
  0
ARC
  5
89B7
  8
0
 10
3364.1121460923181985
 20
218.8076285213977883
 30
0.0
 40
0.3000030790994886
 50
54.9703807439815435
 51
73.0916312913280706
  0
ARC
  5
89B8
  8
0
 10
3364.2493552965252093
 20
218.9987609457880069
 30
0.0
 40
0.0647891917237206
 50
7.3059518006264073
 51
57.3096924622074795
  0
ARC
  5
89B9
  8
0
 10
3363.8707043075660295
 20
217.8166105126981904
 30
0.0
 40
1.3222031436424071
 50
89.8712862886770978
 51
98.2044979865181062
  0
ARC
  5
89BA
  8
0
 10
3363.7951079501158347
 20
218.3203898519630002
 30
0.0
 40
0.8127971495906546
 50
97.9979573296202346
 51
107.7113297048424982
  0
ARC
  5
89BB
  8
0
 10
3363.5478376350251892
 20
219.0946615081107893
 30
0.0
 40
0.0000000000884319
 50
107.5485356208055947
 51
109.2479078701414039
  0
ARC
  5
89BC
  8
0
 10
3363.6350922531901233
 20
218.8076275745333135
 30
0.0
 40
0.3000030790994885
 50
106.9085961519248968
 51
125.0298466992637998
  0
ARC
  5
89BD
  8
0
 10
3363.4978822902589854
 20
218.9987594542517968
 30
0.0
 40
0.0647891917237206
 50
122.6905349810368051
 51
172.694275642625314
  0
ARC
  5
89BE
  8
0
 10
3363.8770009395511806
 20
220.3662067705118091
 30
0.0
 40
1.4828324516022839
 50
269.8714722847299186
 51
277.258775140081184
  0
ARC
  5
89BF
  8
0
 10
3363.958716501877916
 20
219.7505437691199006
 30
0.0
 40
0.8617849869707525
 50
277.0412962685178968
 51
286.1458273337904075
  0
ARC
  5
89C0
  8
0
 10
3364.119562171502821
 20
219.2109006699903944
 30
0.0
 40
0.2987314931555631
 50
285.2950135009144788
 51
303.3628436482352981
  0
ARC
  5
89C1
  8
0
 10
3364.2534463841489014
 20
219.0137656858942989
 30
0.0
 40
0.0605512607768871
 50
300.135930677610304
 51
353.5847014209257964
  0
ARC
  5
89C2
  8
0
 10
3363.8700153324848543
 20
220.362641897542602
 30
0.0
 40
1.47926837374925
 50
262.7322687310892775
 51
270.1417329759173072
  0
ARC
  5
89C3
  8
0
 10
3363.788421068075877
 20
219.750125930564792
 30
0.0
 40
0.861358209281467
 50
253.8528349195333931
 51
262.961876294975923
  0
ARC
  5
89C4
  8
0
 10
3363.5488726478170065
 20
218.9227478314494988
 30
0.0
 40
0.0000000000901324
 50
250.7667613217587075
 51
252.4340520406445876
  0
ARC
  5
89C5
  8
0
 10
3363.6409937901798912
 20
219.2477243047769946
 30
0.0
 40
0.3377810135963954
 50
238.1783299788278896
 51
254.1735477526223974
  0
ARC
  5
89C6
  8
0
 10
3363.4978822902589854
 20
219.015240615117591
 30
0.0
 40
0.0647891917237206
 50
187.3057243573730091
 51
237.3094650189632091
  0
POINT
  5
89C7
  8
DEFPOINTS
 10
3363.8736185428178942
 20
231.4683403867846891
 30
0.0
  0
ARC
  5
89C8
  8
0
 10
3366.0295328298088862
 20
225.6556247728613869
 30
0.0
 40
8.0003917867639256
 50
0.001544145354486
 51
43.613975364191127
  0
ARC
  5
89C9
  8
0
 10
3366.0295328298088862
 20
225.6560560037302992
 30
0.0
 40
8.0003917867639256
 50
316.3860246358088943
 51
359.9984558546454991
  0
ARC
  5
89CA
  8
0
 10
3361.7162235134837829
 20
225.6563798224306936
 30
0.0
 40
7.99879890772712
 50
136.3826239662799082
 51
180.0025482683568043
  0
ARC
  5
89CB
  8
0
 10
3361.7165994731990395
 20
225.6554514066642128
 30
0.0
 40
7.9991748800299174
 50
179.9958981745704136
 51
223.6162985389217113
  0
ATTDEF
  5
89CC
  8
DEFPOINTS
 10
3363.8576203821921808
 20
225.6573751471318872
 30
0.0
 40
0.001
  1
K-2196X-8
  3

  2
MODELNUMBER
 70
     0
1001
ACDBATTR
1070
     0
1070
     1
  0
ATTDEF
  5
89CD
  8
DEFPOINTS
 10
3363.8576203821921808
 20
225.6557084804653073
 30
0.0
 40
0.001
  1
PENNINGTON
  3

  2
TRADENAME
 70
     0
1001
ACDBATTR
1070
     0
1070
     1
  0
ATTDEF
  5
89CE
  8
DEFPOINTS
 10
3363.8576203821921808
 20
225.6540418137986137
 30
0.0
 40
0.001
  1
BATHROOM SINK
  3

  2
PRODUCT
 70
     0
1001
ACDBATTR
1070
     0
1070
     1
  0
CIRCLE
  5
8BA8
  8
0
 10
3359.8736185428178942
 20
231.4683403866847016
 30
0.0
 40
0.6875
  0
CIRCLE
  5
8BA9
  8
0
 10
3363.8736185428178942
 20
231.4683403866847016
 30
0.0
 40
0.6875
  0
CIRCLE
  5
8BAA
  8
0
 10
3367.8736185428178942
 20
231.4683403866847016
 30
0.0
 40
0.6875
  0
ENDSEC
  0
EOF
