  0
SECTION
  2
HEADER
  9
$ACADVER
  1
AC1009
  9
$INSBASE
 10
290.0412603267989766
 20
55.8119656596515199
 30
0.0
  9
$EXTMIN
 10
283.7853032200910093
 20
55.8062749607959674
 30
-0.0015258207003583
  9
$EXTMAX
 10
296.2857258020175095
 20
60.5371518128712296
 30
0.0000000349246037
  9
$LIMMIN
 10
0.0
 20
0.0
  9
$LIMMAX
 10
11.6929133858000007
 20
8.2677165353999982
  9
$ORTHOMODE
 70
     0
  9
$REGENMODE
 70
     1
  9
$FILLMODE
 70
     1
  9
$QTEXTMODE
 70
     0
  9
$MIRRTEXT
 70
     0
  9
$DRAGMODE
 70
     2
  9
$LTSCALE
 40
0.6431102362
  9
$OSMODE
 70
  4095
  9
$ATTMODE
 70
     1
  9
$TEXTSIZE
 40
0.2
  9
$TRACEWID
 40
0.05
  9
$TEXTSTYLE
  7
STANDARD
  9
$CLAYER
  8
0
  9
$CELTYPE
  6
BYLAYER
  9
$CECOLOR
 62
   256
  9
$DIMSCALE
 40
1.0
  9
$DIMASZ
 40
0.1875
  9
$DIMEXO
 40
0.0625
  9
$DIMDLI
 40
0.4443307087
  9
$DIMRND
 40
0.0
  9
$DIMDLE
 40
0.0
  9
$DIMEXE
 40
0.125
  9
$DIMTP
 40
0.01
  9
$DIMTM
 40
0.01
  9
$DIMTXT
 40
1.0
  9
$DIMCEN
 40
0.1052362205
  9
$DIMTSZ
 40
0.0
  9
$DIMTOL
 70
     1
  9
$DIMLIM
 70
     0
  9
$DIMTIH
 70
     1
  9
$DIMTOH
 70
     1
  9
$DIMSE1
 70
     0
  9
$DIMSE2
 70
     0
  9
$DIMTAD
 70
     0
  9
$DIMZIN
 70
     0
  9
$DIMBLK
  1

  9
$DIMASO
 70
     1
  9
$DIMSHO
 70
     1
  9
$DIMPOST
  1
\X
  9
$DIMAPOST
  1

  9
$DIMALT
 70
     1
  9
$DIMALTD
 70
     2
  9
$DIMALTF
 40
25.3999999999999986
  9
$DIMLFAC
 40
1.0
  9
$DIMTOFL
 70
     0
  9
$DIMTVP
 40
0.0
  9
$DIMTIX
 70
     0
  9
$DIMSOXD
 70
     0
  9
$DIMSAH
 70
     0
  9
$DIMBLK1
  1

  9
$DIMBLK2
  1

  9
$DIMSTYLE
  2
STANDARD
  9
$DIMCLRD
 70
     0
  9
$DIMCLRE
 70
     0
  9
$DIMCLRT
 70
     0
  9
$DIMTFAC
 40
1.0
  9
$DIMGAP
 40
0.09
  9
$LUNITS
 70
     2
  9
$LUPREC
 70
     4
  9
$SKETCHINC
 40
0.1
  9
$FILLETRAD
 40
0.0
  9
$AUNITS
 70
     0
  9
$AUPREC
 70
     0
  9
$MENU
  1
.
  9
$ELEVATION
 40
0.0
  9
$PELEVATION
 40
0.0
  9
$THICKNESS
 40
0.0
  9
$LIMCHECK
 70
     0
  9
$BLIPMODE
 70
     0
  9
$CHAMFERA
 40
0.0
  9
$CHAMFERB
 40
0.0
  9
$SKPOLY
 70
     0
  9
$TDCREATE
 40
2458172.4620254631154239
  9
$TDUPDATE
 40
2460003.6515856478363276
  9
$TDINDWG
 40
0.1016726042
  9
$TDUSRTIMER
 40
0.1016726042
  9
$USRTIMER
 70
     1
  9
$ANGBASE
 50
0.0
  9
$ANGDIR
 70
     0
  9
$PDMODE
 70
     0
  9
$PDSIZE
 40
0.3125
  9
$PLINEWID
 40
0.0
  9
$COORDS
 70
     1
  9
$SPLFRAME
 70
     0
  9
$SPLINETYPE
 70
     6
  9
$SPLINESEGS
 70
     8
  9
$ATTDIA
 70
     1
  9
$ATTREQ
 70
     1
  9
$HANDLING
 70
     1
  9
$HANDSEED
  5
A0E0
  9
$SURFTAB1
 70
     6
  9
$SURFTAB2
 70
     6
  9
$SURFTYPE
 70
     6
  9
$SURFU
 70
     6
  9
$SURFV
 70
     6
  9
$UCSNAME
  2

  9
$UCSORG
 10
0.0
 20
0.0
 30
0.0
  9
$UCSXDIR
 10
1.0
 20
0.0
 30
0.0
  9
$UCSYDIR
 10
0.0
 20
1.0
 30
0.0
  9
$PUCSNAME
  2

  9
$PUCSORG
 10
0.0
 20
0.0
 30
0.0
  9
$PUCSXDIR
 10
1.0
 20
0.0
 30
0.0
  9
$PUCSYDIR
 10
0.0
 20
1.0
 30
0.0
  9
$USERI1
 70
     0
  9
$USERI2
 70
     0
  9
$USERI3
 70
     0
  9
$USERI4
 70
     0
  9
$USERI5
 70
     0
  9
$USERR1
 40
0.0
  9
$USERR2
 40
0.0
  9
$USERR3
 40
0.0
  9
$USERR4
 40
0.0
  9
$USERR5
 40
0.0
  9
$WORLDVIEW
 70
     1
  9
$SHADEDGE
 70
     3
  9
$SHADEDIF
 70
    70
  9
$TILEMODE
 70
     1
  9
$MAXACTVP
 70
    64
  9
$PLIMCHECK
 70
     0
  9
$PEXTMIN
 10
1.0000000000000000E+20
 20
1.0000000000000000E+20
 30
1.0000000000000000E+20
  9
$PEXTMAX
 10
-1.0000000000000000E+20
 20
-1.0000000000000000E+20
 30
-1.0000000000000000E+20
  9
$PLIMMIN
 10
0.0
 20
0.0
  9
$PLIMMAX
 10
12.0
 20
9.0
  9
$UNITMODE
 70
     0
  9
$VISRETAIN
 70
     1
  9
$PLINEGEN
 70
     0
  9
$PSLTSCALE
 70
     1
  0
ENDSEC
  0
SECTION
  2
TABLES
  0
TABLE
  2
VPORT
 70
     1
  0
VPORT
  2
*ACTIVE
 70
     0
 10
0.0
 20
0.0
 11
1.0
 21
1.0
 12
186.939658798163606
 22
62.7314669714086008
 13
0.0
 23
0.0
 14
1.0
 24
1.0
 15
0.0
 25
0.0
 16
0.0
 26
0.0
 36
24.7332413121020203
 17
103.0958557128905966
 27
-4.5597535845750086
 37
0.0
 40
4.9659416728022361
 41
2.5251322751322749
 42
50.0
 43
0.0
 44
0.0
 50
0.0
 51
0.0
 71
     0
 72
   100
 73
     1
 74
     1
 75
     0
 76
     0
 77
     0
 78
     0
  0
ENDTAB
  0
TABLE
  2
LTYPE
 70
     2
  0
LTYPE
  2
CONTINUOUS
 70
     0
  3
Solid line
 72
    65
 73
     0
 40
0.0
  0
LTYPE
  2
PHANTOM2
 70
     0
  3
___ _ _ ___ _ _ ___ _ _ ___ _ _
 72
    65
 73
     6
 40
1.25
 49
0.625
 49
-0.125
 49
0.125
 49
-0.125
 49
0.125
 49
-0.125
  0
ENDTAB
  0
TABLE
  2
LAYER
 70
     2
  0
LAYER
  2
0
 70
     0
 62
   255
  6
CONTINUOUS
  0
LAYER
  2
DEFPOINTS
 70
     0
 62
     7
  6
CONTINUOUS
  0
ENDTAB
  0
TABLE
  2
STYLE
 70
     1
  0
STYLE
  2
STANDARD
 70
     0
 40
0.0
 41
0.8
 50
0.0
 71
     0
 42
0.2
  3
txt
  4

  0
ENDTAB
  0
TABLE
  2
VIEW
 70
     0
  0
ENDTAB
  0
TABLE
  2
UCS
 70
     0
  0
ENDTAB
  0
TABLE
  2
APPID
 70
     9
  0
APPID
  2
ACAD
 70
     0
  0
APPID
  2
ACAD_MLEADERVER
 70
     0
  0
APPID
  2
ACAD_EXEMPT_FROM_CAD_STANDARDS
 70
     0
  0
APPID
  2
ACAD_DSTYLE_DIMJAG
 70
     0
  0
APPID
  2
ACAD_DSTYLE_DIMTALN
 70
     0
  0
APPID
  2
ACAD_NAV_VCDISPLAY
 70
     0
  0
APPID
  2
ACAECLAYERSTANDARD
 70
     0
  0
APPID
  2
ACCMTRANSPARENCY
 70
     0
  0
APPID
  2
ACDBATTR
 70
     0
  0
ENDTAB
  0
TABLE
  2
DIMSTYLE
 70
     1
  0
DIMSTYLE
  2
STANDARD
 70
     0
  3

  4

  5

  6

  7

 40
1.0
 41
0.1875
 42
0.0625
 43
0.38
 44
0.125
 45
0.0
 46
0.0
 47
0.01
 48
0.01
140
0.15625
141
0.09
142
0.0
143
25.3999999999999986
144
1.0
145
0.0
146
1.0
147
0.09
 71
     1
 72
     0
 73
     1
 74
     1
 75
     0
 76
     0
 77
     0
 78
     4
170
     0
171
     2
172
     0
173
     0
174
     0
175
     0
176
     0
177
     0
178
     0
  0
ENDTAB
  0
ENDSEC
  0
SECTION
  2
BLOCKS
  0
BLOCK
  8
0
  2
$MODEL_SPACE
 70
     0
 10
0.0
 20
0.0
 30
0.0
  3
$MODEL_SPACE
  1

  0
ENDBLK
  5
21
  8
0
  0
BLOCK
 67
     1
  8
0
  2
$PAPER_SPACE
 70
     0
 10
0.0
 20
0.0
 30
0.0
  3
$PAPER_SPACE
  1

  0
ENDBLK
  5
1D
 67
     1
  8
0
  0
BLOCK
  8
0
  2
_FILLED
 70
     0
 10
0.0
 20
0.0
 30
0.0
  3
_FILLED
  1

  0
SOLID
  5
87CF
  8
0
  6
BYBLOCK
 62
     0
 10
0.0
 20
0.0
 30
0.0
 11
-1.0
 21
0.1666666667
 31
0.0
 12
-1.0
 22
-0.1666666667
 32
0.0
 13
-1.0
 23
-0.1666666667
 33
0.0
  0
ENDBLK
  5
87D0
  8
0
  6
BYBLOCK
 62
     0
  0
ENDSEC
  0
SECTION
  2
ENTITIES
  0
ATTDEF
  5
383D
  8
DEFPOINTS
 10
290.0420313087257114
 20
55.810044609200169
 30
0.0
 40
0.001
  1
K-22085X-4
  3

  2
MODELNUMBER
 70
     0
1001
ACDBATTR
1070
     0
1070
     1
  0
ATTDEF
  5
383E
  8
DEFPOINTS
 10
290.0420313087257114
 20
55.8083779425335109
 30
0.0
 40
0.001
  1
HONESTY
  3

  2
TRADENAME
 70
     0
1001
ACDBATTR
1070
     0
1070
     1
  0
ATTDEF
  5
383F
  8
DEFPOINTS
 10
290.0420313087257114
 20
55.8067112758668387
 30
0.0
 40
0.001
  1
BATHROOM SINK FAUCET
  3

  2
PRODUCT
 70
     0
1001
ACDBATTR
1070
     0
1070
     1
  0
LINE
  5
9D04
  8
0
 10
289.0502991512989865
 20
55.8119656596515199
 30
0.0
 11
291.03218102889889
 21
55.8119656596515199
 31
0.0
  0
LINE
  5
9D06
  8
0
 10
287.0196067834990004
 20
55.8119656596515199
 30
0.0
 11
285.0314178070989897
 21
55.8119656596515199
 31
0.0
  0
LINE
  5
9D09
  8
0
 10
287.0196067834990004
 20
55.9497459745515187
 30
0.0
 11
287.0196067834990004
 21
55.8119656596515199
 31
0.0
  0
LINE
  5
9D0D
  8
0
 10
285.0314178070989897
 20
55.9497459745515187
 30
0.0
 11
285.0314178070989897
 21
55.8119656596515199
 31
0.0
  0
LINE
  5
9D0E
  8
0
 10
285.494016232298975
 20
57.251004858851509
 30
0.0
 11
285.494016232298975
 21
56.015733376151509
 31
0.0
  0
LINE
  5
9D0F
  8
0
 10
285.6200004842988847
 20
56.015733376151509
 30
0.0
 11
285.6200004842988847
 21
55.9694459745515189
 31
0.0
  0
LINE
  5
9D10
  8
0
 10
286.4310241062989917
 20
56.015733376151509
 30
0.0
 11
286.4310241062989917
 21
55.9694459745515189
 31
0.0
  0
LINE
  5
9D13
  8
0
 10
286.5570083582990151
 20
57.7676869194515206
 30
0.0
 11
286.5570083582990151
 21
56.015733376151509
 31
0.0
  0
LINE
  5
9D14
  8
0
 10
285.0511178070989899
 20
55.9694459745515189
 30
0.0
 11
286.9999067834990001
 21
55.9694459745515189
 31
0.0
  0
LINE
  5
9D15
  8
0
 10
289.0699991512989868
 20
55.9694459745515189
 30
0.0
 11
291.0124810288988897
 21
55.9694459745515189
 31
0.0
  0
LINE
  5
9D18
  8
0
 10
289.2471495449989902
 20
60.5166751084515226
 30
0.0
 11
289.2471495449989902
 21
55.9694459745515189
 31
0.0
  0
LINE
  5
9D1A
  8
0
 10
289.0502991512989865
 20
55.9497459745515187
 30
0.0
 11
289.0502991512989865
 21
55.8119656596515199
 31
0.0
  0
LINE
  5
9D1B
  8
0
 10
291.03218102889889
 20
55.9497459745515187
 30
0.0
 11
291.03218102889889
 21
55.8119656596515199
 31
0.0
  0
LINE
  5
9D1F
  8
0
 10
283.8011028464990204
 20
57.7676869194515206
 30
0.0
 11
283.8011028464990204
 21
57.707013446706938
 31
0.0
  0
LINE
  5
9D22
  8
0
 10
286.5373083582990148
 20
57.7873869194515208
 30
0.0
 11
283.8208028464990207
 21
57.7873869194515208
 31
0.0
  0
LINE
  5
9D23
  8
0
 10
290.8353306351988863
 20
60.5166751084515226
 30
0.0
 11
290.8353306351988863
 21
55.9694459745515189
 31
0.0
  0
LINE
  5
9D24
  8
0
 10
289.2852673974990125
 20
59.5413173940662688
 30
0.0
 11
289.2852673974990125
 21
55.9694459471966184
 31
0.0
  0
LINE
  5
9D25
  8
0
 10
290.7972532560988839
 20
59.5413173940662617
 30
0.0
 11
290.7972532560988839
 21
55.9694459745515189
 31
0.0
  0
LINE
  5
9D26
  8
0
 10
289.0962165344989785
 20
55.9497459745515187
 30
0.0
 11
289.0962165344989785
 21
55.8119656596515199
 31
0.0
  0
LINE
  5
9D27
  8
0
 10
290.9863041189989872
 20
55.9497459745515187
 30
0.0
 11
290.9863041189989872
 21
55.8119656596515199
 31
0.0
  0
ARC
  5
9D28
  8
0
 10
285.0511178070989899
 20
55.9497459745515187
 30
0.0
 40
0.0197
 50
90.0
 51
180.0
  0
ARC
  5
9D29
  8
0
 10
286.9999067834990001
 20
55.9497459745515187
 30
0.0
 40
0.0197
 50
0.0000000000004071
 51
90.0
  0
LINE
  5
9D2B
  8
0
 10
286.5570083582990151
 20
56.015733376151509
 30
0.0
 11
285.494016232298975
 21
56.015733376151509
 31
0.0
  0
ARC
  5
9D2C
  8
0
 10
286.5373083582990148
 20
57.7676869194515206
 30
0.0
 40
0.0197
 50
359.9999999999988063
 51
90.0
  0
ARC
  5
9D2D
  8
0
 10
283.8208028464990207
 20
57.7676869194515206
 30
0.0
 40
0.0197
 50
90.0
 51
180.0
  0
ARC
  5
9D2E
  8
0
 10
285.1748994495043235
 20
57.249299631584627
 30
0.0
 40
0.3191213387745102
 50
0.3061618844873885
 51
89.2233480001849273
  0
LINE
  5
9D2F
  8
0
 10
285.1792250497172745
 20
57.5683916528638235
 30
0.0
 11
283.8190858783671047
 21
57.687388411154501
 31
0.0
  0
ARC
  5
9D30
  8
0
 10
283.8208028464990207
 20
57.707013446706938
 30
0.0
 40
0.0197
 50
180.0000000000011937
 51
265.0000000008371899
  0
LINE
  5
9D5F
  8
0
 10
293.062913870098896
 20
55.8119656596515199
 30
0.0
 11
295.0511028464990204
 21
55.8119656596515199
 31
0.0
  0
LINE
  5
9D60
  8
0
 10
293.062913870098896
 20
55.9497459745515187
 30
0.0
 11
293.062913870098896
 21
55.8119656596515199
 31
0.0
  0
LINE
  5
9D61
  8
0
 10
295.0511028464990204
 20
55.9497459745515187
 30
0.0
 11
295.0511028464990204
 21
55.8119656596515199
 31
0.0
  0
LINE
  5
9D62
  8
0
 10
294.5885044212989783
 20
57.251004858851509
 30
0.0
 11
294.5885044212989783
 21
56.015733376151509
 31
0.0
  0
LINE
  5
9D63
  8
0
 10
294.4625201692990117
 20
56.015733376151509
 30
0.0
 11
294.4625201692990117
 21
55.9694459745515189
 31
0.0
  0
LINE
  5
9D64
  8
0
 10
293.6514965472990184
 20
56.015733376151509
 30
0.0
 11
293.6514965472990184
 21
55.9694459745515189
 31
0.0
  0
LINE
  5
9D65
  8
0
 10
293.5255122952988813
 20
57.7676869194515206
 30
0.0
 11
293.5255122952988813
 21
56.015733376151509
 31
0.0
  0
LINE
  5
9D66
  8
0
 10
295.0314028464990201
 20
55.9694459745515189
 30
0.0
 11
293.0826138700988963
 21
55.9694459745515189
 31
0.0
  0
LINE
  5
9D67
  8
0
 10
296.281417807098876
 20
57.7676869194515206
 30
0.0
 11
296.281417807098876
 21
57.707013446706938
 31
0.0
  0
LINE
  5
9D68
  8
0
 10
293.5452122952988816
 20
57.7873869194515208
 30
0.0
 11
296.2617178070989894
 21
57.7873869194515208
 31
0.0
  0
ARC
  5
9D69
  8
0
 10
295.0314028464990201
 20
55.9497459745515187
 30
0.0
 40
0.0197
 50
0.0
 51
90.0
  0
ARC
  5
9D6A
  8
0
 10
293.0826138700988963
 20
55.9497459745515187
 30
0.0
 40
0.0197
 50
90.0
 51
179.9999999999996021
  0
LINE
  5
9D6B
  8
0
 10
293.5255122952988813
 20
56.015733376151509
 30
0.0
 11
294.5885044212989783
 21
56.015733376151509
 31
0.0
  0
ARC
  5
9D6C
  8
0
 10
293.5452122952988816
 20
57.7676869194515206
 30
0.0
 40
0.0197
 50
90.0
 51
180.0000000000011937
  0
ARC
  5
9D6D
  8
0
 10
296.2617178070989894
 20
57.7676869194515206
 30
0.0
 40
0.0197
 50
0.0
 51
90.0
  0
ARC
  5
9D6E
  8
0
 10
294.9076212040935729
 20
57.249299631584627
 30
0.0
 40
0.3191213387745102
 50
90.7766519998150869
 51
179.693838115512591
  0
LINE
  5
9D6F
  8
0
 10
294.9032956038806219
 20
57.5683916528638235
 30
0.0
 11
296.2634347752307917
 21
57.687388411154501
 31
0.0
  0
ARC
  5
9D70
  8
0
 10
296.2617178070989894
 20
57.707013446706938
 30
0.0
 40
0.0197
 50
274.9999999991628101
 51
359.9999999999988063
  0
LINE
  5
9D72
  8
0
 10
290.815630635198886
 20
60.53637510845153
 30
0.0
 11
289.2668495449989905
 21
60.53637510845153
 31
0.0
  0
ARC
  5
9D73
  8
0
 10
289.4083872741222763
 20
60.5166751084515226
 30
0.0
 40
0.0197
 50
90.0
 51
179.9999412347742123
  0
LINE
  5
9D75
  8
0
 10
290.2059488250159234
 20
59.7445288804400718
 30
0.0
 11
290.1562451401961766
 21
59.7445288804400718
 31
0.0
  0
LINE
  5
9D76
  8
0
 10
290.6900183984254795
 20
60.0230491112719591
 30
0.0
 11
289.3925022551724169
 21
60.0230491112719591
 31
0.0
  0
ARC
  5
9D77
  8
0
 10
289.2668495449989905
 20
60.5166751084515226
 30
0.0
 40
0.0197
 50
89.9999999999967457
 51
180.0000000000023874
  0
ARC
  5
9D78
  8
0
 10
290.815630635198886
 20
60.5166751084515226
 30
0.0
 40
0.0197
 50
0.0
 51
90.0000000000032543
  0
ARC
  5
9D79
  8
0
 10
289.0699991512989868
 20
55.9497459745515187
 30
0.0
 40
0.0197
 50
90.0
 51
179.9999999999996021
  0
ARC
  5
9D7A
  8
0
 10
289.1159165344989788
 20
55.9497459745515187
 30
0.0
 40
0.0197
 50
90.0
 51
180.0
  0
ARC
  5
9D7B
  8
0
 10
291.0124810288988897
 20
55.9497459745515187
 30
0.0
 40
0.0197
 50
0.0000000000004071
 51
90.0
  0
ARC
  5
9D7C
  8
0
 10
290.9666041189989869
 20
55.9497459745515187
 30
0.0
 40
0.0197
 50
0.0000000000012213
 51
89.9999999999934914
  0
LINE
  5
9D7D
  8
0
 10
289.388687274122276
 20
60.5166751286567575
 30
0.0
 11
289.3886867796990146
 21
60.0346150250186525
 31
0.0
  0
LINE
  5
9D7E
  8
0
 10
289.3886867796990146
 20
60.0346150250186525
 30
0.0
 11
289.2932969841155
 21
59.7286531493473802
 31
0.0
  0
LINE
  5
9D7F
  8
0
 10
289.2932969841155
 20
59.7286531493473802
 30
0.0
 11
289.2852673974990125
 21
59.541317394066283
 31
0.0
  0
ARC
  5
9D80
  8
0
 10
290.0395354285889766
 20
55.758206999451879
 30
0.0
 40
4.2221950781984328
 50
89.9897565396470895
 51
91.9141596701711165
  0
ARC
  5
9D81
  8
0
 10
289.9916989628537749
 20
57.1895441352052529
 30
0.0
 40
2.790058798495731
 50
91.9141596701711165
 51
93.9570957537202958
  0
ARC
  5
9D82
  8
0
 10
289.893039891067815
 20
58.6157815233773576
 30
0.0
 40
1.3604131431441391
 50
93.9570957537202958
 51
96.7944632364938258
  0
ARC
  5
9D83
  8
0
 10
289.7850302630375836
 20
59.5223225766722521
 30
0.0
 40
0.4474603727029468
 50
96.7944632364938258
 51
102.3196329924927994
  0
ARC
  5
9D84
  8
0
 10
289.7058128697611892
 20
59.8850491494451731
 30
0.0
 40
0.076184246358832
 50
102.3196329924927994
 51
114.8791427777390055
  0
ARC
  5
9D85
  8
0
 10
289.6774256169560999
 20
59.9462706381229467
 30
0.0
 40
0.0087016063885388
 50
114.9014380869179064
 51
159.209753564860705
  0
LINE
  5
9D86
  8
0
 10
289.6692906059795973
 20
59.9493592543426814
 30
0.0
 11
289.6692906049796079
 21
59.9088403258426823
 31
0.0
  0
ARC
  5
9D87
  8
0
 10
290.0981695053836233
 20
53.4147742126509399
 30
0.0
 40
6.429916694433464
 50
90.5069108537508669
 51
92.1497069062819492
  0
ARC
  5
9D88
  8
0
 10
289.9406158607367843
 20
58.0654676730265678
 30
0.0
 40
1.7766677316227451
 50
92.6982008293053923
 51
95.8359936602253413
  0
ARC
  5
9D89
  8
0
 10
289.8167056551558858
 20
59.2777655088229594
 30
0.0
 40
0.5580538544148375
 50
95.8359936602253413
 51
101.0590613335511989
  0
ARC
  5
9D8A
  8
0
 10
289.7291426706657944
 20
59.7257719353983987
 30
0.0
 40
0.1015705201016332
 50
101.0590613335511989
 51
110.2521229506083955
  0
ARC
  5
9D8B
  8
0
 10
289.7031932639260958
 20
59.7961028550232072
 30
0.0
 40
0.0266051283170251
 50
110.2521229506083955
 51
125.4757117710930032
  0
ARC
  5
9D8C
  8
0
 10
289.6904565005958148
 20
59.8139751593857909
 30
0.0
 40
0.0046587299027035
 50
125.4757117710901042
 51
149.612653976642008
  0
ARC
  5
9D8D
  8
0
 10
289.6890558332074193
 20
59.8147965102935402
 30
0.0
 40
0.0030350038030874
 50
149.6126539766430881
 51
219.1583963727127013
  0
ARC
  5
9D8E
  8
0
 10
289.6932013142055098
 20
59.8181724727007804
 30
0.0
 40
0.0083812300311238
 50
219.1583963727127013
 51
240.524813348313387
  0
ARC
  5
9D8F
  8
0
 10
289.7109807283267742
 20
59.8496292593990873
 30
0.0
 40
0.0445148292965956
 50
240.524813348313387
 51
257.0880020862848028
  0
ARC
  5
9D90
  8
0
 10
289.8238433898005155
 20
60.3658353905695577
 30
0.0
 40
0.5729129130147684
 50
257.6220095570845956
 51
265.6310385998712036
  0
ARC
  5
9D91
  8
0
 10
290.0395358818988143
 20
56.1003857366875067
 30
0.0
 40
3.7418050279747601
 50
89.9884483785552476
 51
91.7415737609385502
  0
ARC
  5
9D92
  8
0
 10
290.0071544763588918
 20
57.1653687334993492
 30
0.0
 40
2.6763298574883478
 50
91.7415737609385502
 51
93.5150554826301459
  0
ARC
  5
9D93
  8
0
 10
289.9293608538254716
 20
58.4318218228358006
 30
0.0
 40
1.4074897276072349
 50
93.5150554826268774
 51
96.4858636303201536
  0
ARC
  5
9D94
  8
0
 10
289.8158891195499791
 20
59.4299398619138515
 30
0.0
 40
0.4029423397690554
 50
96.4858636303201536
 51
101.7852258290393053
  0
ARC
  5
9D95
  8
0
 10
289.753466558436287
 20
59.7291251881417296
 30
0.0
 40
0.0973144032742398
 50
101.7852258290393053
 51
109.5642143258036043
  0
ARC
  5
9D96
  8
0
 10
289.730446872487903
 20
59.7938999704809433
 30
0.0
 40
0.0285708336240447
 50
109.5642143258038033
 51
122.2557530956949989
  0
ARC
  5
9D97
  8
0
 10
289.7186171770222813
 20
59.8126447321672003
 30
0.0
 40
0.0064053698236578
 50
122.2557530956920004
 51
145.8871187885607981
  0
ARC
  5
9D98
  8
0
 10
289.7154614035176223
 20
59.8147823863189032
 30
0.0
 40
0.0025937465887106
 50
145.8871187885490031
 51
219.4039800630195884
  0
ARC
  5
9D99
  8
0
 10
289.7206493002826164
 20
59.81904437632911
 30
0.0
 40
0.0093078237174763
 50
219.403980063020299
 51
244.1267746120888091
  0
ARC
  5
9D9A
  8
0
 10
289.7409288671975105
 20
59.8608582134459795
 30
0.0
 40
0.0557799423338525
 50
244.1267746120888091
 51
253.6835581290771984
  0
ARC
  5
9D9B
  8
0
 10
289.7630218718805963
 20
59.9363299937367202
 30
0.0
 40
0.1344189306041844
 50
253.6835581290802963
 51
259.4237415642069209
  0
ARC
  5
9D9C
  8
0
 10
289.8380971561375077
 20
60.3384126108392991
 30
0.0
 40
0.5434503832851747
 50
259.4237415642069209
 51
262.0729683216191006
  0
ARC
  5
9D9D
  8
0
 10
290.0482711576727866
 20
59.9275060350999524
 30
0.0
 40
0.3794399399400133
 50
182.8196772634958904
 51
197.3167175860133113
  0
ARC
  5
9D9E
  8
0
 10
290.0402656553280281
 20
54.9222047745228892
 30
0.0
 40
5.062651675379513
 50
89.9997212967603986
 51
90.3118472179735363
  0
ARC
  5
9D9F
  8
0
 10
290.0204585658244127
 20
70.573877678348822
 30
0.0
 40
10.5920116688220496
 50
269.9580907321466725
 51
270.1072765315802826
  0
LINE
  5
9DA0
  8
0
 10
290.0127109896795901
 20
59.9847814629426779
 30
0.0
 11
290.0127109896795901
 21
59.981868843027442
 31
0.0
  0
LINE
  5
9DA1
  8
0
 10
289.9940102017690151
 20
59.9815708862375487
 30
0.0
 11
289.9940102022795827
 21
59.9846234847426771
 31
0.0
  0
ARC
  5
9DA2
  8
0
 10
289.9068606337560823
 20
58.046176503783343
 30
0.0
 40
1.935353686147177
 50
92.9387550231608088
 51
93.9071592812896228
  0
ARC
  5
9DA3
  8
0
 10
290.0347575433364113
 20
55.5548065481400286
 30
0.0
 40
4.4300043381147853
 50
90.5270160957154673
 51
92.9387550231608088
  0
ARC
  5
9DA4
  8
0
 10
384.5065602832879108
 20
1191.9980550008499449
 30
0.0
 40
1135.9778465107590364
 50
265.216429492892189
 51
265.2177351484490941
  0
ARC
  5
9DA5
  8
0
 10
290.0222059170868079
 20
56.3772850697944605
 30
0.0
 40
3.6043960999012432
 50
90.4482059936358951
 51
93.5219869202836946
  0
LINE
  5
9DA6
  8
0
 10
289.7855993845795979
 20
59.9739308388426906
 30
0.0
 11
289.7604272985796001
 21
59.9760371847426867
 31
0.0
  0
LINE
  5
9DA7
  8
0
 10
289.7604272985796001
 20
59.9760371847426867
 30
0.0
 11
289.7214529090795736
 21
59.9727758918426801
 31
0.0
  0
LINE
  5
9DA8
  8
0
 10
289.7214529090795736
 20
59.9727758918426801
 30
0.0
 11
289.7466249950796282
 21
59.9706695459426768
 31
0.0
  0
LINE
  5
9DA9
  8
0
 10
289.7466249950796282
 20
59.9706695459426768
 30
0.0
 11
289.7855993846300748
 21
59.9739308389104124
 31
0.0
  0
LINE
  5
9DAA
  8
0
 10
289.7466249950796282
 20
59.9748822377381074
 30
0.0
 11
289.7466249950796282
 21
59.9706695459426768
 31
0.0
  0
LINE
  5
9DAB
  8
0
 10
289.7353599421796275
 20
59.9693991611426895
 30
0.0
 11
289.7095644262795986
 21
59.9715576743426908
 31
0.0
  0
ARC
  5
9DAC
  8
0
 10
289.6343734422043781
 20
59.9317785881137013
 30
0.0
 40
0.0264841733075543
 50
108.2104430225695069
 51
125.9062460163968069
  0
ARC
  5
9DAD
  8
0
 10
289.6898004800764852
 20
59.7632997954439205
 30
0.0
 40
0.2038461199216317
 50
99.2851668816329749
 51
108.2104430225695069
  0
ARC
  5
9DAE
  8
0
 10
289.8081326549743153
 20
59.0395133845318085
 30
0.0
 40
0.9372418331877111
 50
96.0368691760352249
 51
99.2851668816329322
  0
LINE
  5
9DAF
  8
0
 10
289.6188415164796197
 20
59.9532301782426913
 30
0.0
 11
289.6553218848795836
 21
59.9532301782426913
 31
0.0
  0
ARC
  5
9DB0
  8
0
 10
289.6745029317833087
 20
59.9229794086245633
 30
0.0
 40
0.0358192912103322
 50
105.3203987974076057
 51
122.3774789070290012
  0
ARC
  5
9DB1
  8
0
 10
289.772469143756382
 20
59.5354383084721519
 30
0.0
 40
0.4355446182565112
 50
94.8876313831825087
 51
104.2797959166686041
  0
LINE
  5
9DB2
  8
0
 10
289.6169535826796277
 20
59.9516653366426908
 30
0.0
 11
289.6525522880796188
 21
59.9516653366426908
 31
0.0
  0
LINE
  5
9DB3
  8
0
 10
289.6169535826796277
 20
59.9470531720426791
 30
0.0
 11
289.6525522880796188
 21
59.9470531720426791
 31
0.0
  0
ARC
  5
9DB4
  8
0
 10
289.6547813871706012
 20
59.9493592543753522
 30
0.0
 40
0.0032073195167709
 50
134.0275177020525064
 51
225.972483977363396
  0
ARC
  5
9DB5
  8
0
 10
289.6194726954885823
 20
59.9493592543426885
 30
0.0
 40
0.0034152518089794
 50
137.5279450101147916
 51
222.4720549899288926
  0
ARC
  5
9DB6
  8
0
 10
289.6816977574318912
 20
59.9912944611867687
 30
0.0
 40
0.0528572441343424
 50
240.0660026925596924
 51
256.4243248574618974
  0
LINE
  5
9DB7
  8
0
 10
289.6189562784795726
 20
59.9454469076426832
 30
0.0
 11
289.6553218848795836
 21
59.9454883305426875
 31
0.0
  0
ARC
  5
9DB8
  8
0
 10
289.6860760518425764
 20
60.0978239239919318
 30
0.0
 40
0.1665047119087037
 50
246.2272337132270081
 51
264.2141476126324733
  0
ARC
  5
9DB9
  8
0
 10
290.0410451344700959
 20
55.758206999451879
 30
0.0
 40
4.2221950781984328
 50
88.0858403298288977
 51
90.0102434603529247
  0
ARC
  5
9DBA
  8
0
 10
290.0888816002054114
 20
57.1895441352052529
 30
0.0
 40
2.790058798495731
 50
86.0429042462797184
 51
88.0858403298288977
  0
ARC
  5
9DBB
  8
0
 10
290.1875406719914281
 20
58.6157815233773576
 30
0.0
 40
1.3604131431441391
 50
83.2055367635061742
 51
86.0429042462797184
  0
ARC
  5
9DBC
  8
0
 10
290.2955503000216027
 20
59.5223225766722521
 30
0.0
 40
0.4474603727029468
 50
77.680367007507158
 51
83.2055367635061742
  0
ARC
  5
9DBD
  8
0
 10
290.3747676932979971
 20
59.8850491494451731
 30
0.0
 40
0.076184246358832
 50
65.1208572222609519
 51
77.680367007507158
  0
ARC
  5
9DBE
  8
0
 10
290.4031549461030863
 20
59.9462706381229467
 30
0.0
 40
0.0087016063885388
 50
20.7902464351392986
 51
65.098561913082122
  0
LINE
  5
9DBF
  8
0
 10
290.4112899570795889
 20
59.9493592543426814
 30
0.0
 11
290.4112899580795784
 21
59.9088403258426823
 31
0.0
  0
ARC
  5
9DC0
  8
0
 10
289.876198498840381
 20
48.9104233115145277
 30
0.0
 40
10.9352621230382905
 50
88.1794606820406699
 51
89.1349993243047436
  0
ARC
  5
9DC1
  8
0
 10
290.139964702322402
 20
58.0654676730265678
 30
0.0
 40
1.7766677316227451
 50
84.1640063397746445
 51
87.3017991706946077
  0
ARC
  5
9DC2
  8
0
 10
290.2638749079033005
 20
59.2777655088229594
 30
0.0
 40
0.5580538544148375
 50
78.9409386664487727
 51
84.1640063397746445
  0
ARC
  5
9DC3
  8
0
 10
290.3514378923932782
 20
59.7257719353983987
 30
0.0
 40
0.1015705201016332
 50
69.7478770493916045
 51
78.9409386664487727
  0
ARC
  5
9DC4
  8
0
 10
290.3773872991330904
 20
59.7961028550232072
 30
0.0
 40
0.0266051283170251
 50
54.5242882289069968
 51
69.7478770493916045
  0
ARC
  5
9DC5
  8
0
 10
290.3901240624634283
 20
59.8139751593857909
 30
0.0
 40
0.0046587299027035
 50
30.3873460233579706
 51
54.5242882289098887
  0
ARC
  5
9DC6
  8
0
 10
290.3915247298518238
 20
59.8147965102935402
 30
0.0
 40
0.0030350038030874
 50
320.8416036272868723
 51
30.3873460233569084
  0
ARC
  5
9DC7
  8
0
 10
290.3873792488536196
 20
59.8181724727007804
 30
0.0
 40
0.0083812300311238
 50
299.4751866516867267
 51
320.8416036272873271
  0
ARC
  5
9DC8
  8
0
 10
290.3471557761325244
 20
59.9100339376903079
 30
0.0
 40
0.1086231288335983
 50
278.6367700362322921
 51
294.0961262875399029
  0
ARC
  5
9DC9
  8
0
 10
290.0410446811604857
 20
56.1003857366875067
 30
0.0
 40
3.7418050279747601
 50
88.2584262390614356
 51
90.0115516214447666
  0
ARC
  5
9DCA
  8
0
 10
290.0734260867001808
 20
57.1653687334993492
 30
0.0
 40
2.6763298574883478
 50
86.4849445173698825
 51
88.2584262390614356
  0
ARC
  5
9DCB
  8
0
 10
290.1512197092337146
 20
58.4318218228358006
 30
0.0
 40
1.4074897276072349
 50
83.5141363696798038
 51
86.4849445173731368
  0
ARC
  5
9DCC
  8
0
 10
290.2646914435090935
 20
59.4299398619138515
 30
0.0
 40
0.4029423397690554
 50
78.2147741709607232
 51
83.5141363696798038
  0
ARC
  5
9DCD
  8
0
 10
290.3271140046227856
 20
59.7291251881417296
 30
0.0
 40
0.0973144032742398
 50
70.4357856741963531
 51
78.2147741709607232
  0
ARC
  5
9DCE
  8
0
 10
290.3501336905712265
 20
59.7938999704809433
 30
0.0
 40
0.0285708336240447
 50
57.7442469043049584
 51
70.4357856741962394
  0
ARC
  5
9DCF
  8
0
 10
290.3619633860369049
 20
59.8126447321672003
 30
0.0
 40
0.0064053698236578
 50
34.112881211439209
 51
57.7442469043079427
  0
ARC
  5
9DD0
  8
0
 10
290.3651191595416208
 20
59.8147823863189032
 30
0.0
 40
0.0025937465887106
 50
357.3544505741725743
 51
34.1128812114509472
  0
ARC
  5
9DD1
  8
0
 10
290.0323094053863997
 20
59.9275060350999524
 30
0.0
 40
0.3794399399400133
 50
342.6832824139867171
 51
357.1803227365036264
  0
ARC
  5
9DD2
  8
0
 10
290.040314907731215
 20
54.9222047745228892
 30
0.0
 40
5.062651675379513
 50
89.6881527820264637
 51
90.0002787032395872
  0
ARC
  5
9DD3
  8
0
 10
290.0601219972347735
 20
70.573877678348822
 30
0.0
 40
10.5920116688220496
 50
269.8927234684197174
 51
270.0419092678533275
  0
LINE
  5
9DD4
  8
0
 10
290.0678695733795962
 20
59.9847814629426779
 30
0.0
 11
290.0678695733795962
 21
59.981868843027442
 31
0.0
  0
ARC
  5
9DD5
  8
0
 10
290.0435248015184015
 20
59.9202380576827025
 30
0.0
 40
0.340943247521846
 50
334.9364289919192856
 51
341.9614517673394971
  0
ARC
  5
9E08
  8
0
 10
289.6174384750963782
 20
60.0659653102305811
 30
0.0
 40
0.1169659748689074
 50
247.0609035818700079
 51
256.7568617144033283
  0
ARC
  5
9E09
  8
0
 10
289.5781847346274276
 20
59.9732153031313118
 30
0.0
 40
0.0162514279666377
 50
218.1647003019267004
 51
247.0609035818696952
  0
ARC
  5
9E0A
  8
0
 10
289.5676583856994171
 20
59.964942379449333
 30
0.0
 40
0.002863176101623
 50
154.424096325811405
 51
218.1647003019226929
  0
ARC
  5
9E0B
  8
0
 10
289.5733140249532767
 20
59.96223557510028
 30
0.0
 40
0.0091331876768925
 50
137.4617582531330129
 51
154.4240963258077102
  0
ARC
  5
9E0C
  8
0
 10
289.5741077250526132
 20
59.9615073077971914
 30
0.0
 40
0.0102103752708429
 50
114.5750278162380056
 51
137.4617582531332971
  0
ARC
  5
9E0D
  8
0
 10
289.9365989502014145
 20
59.1688452201748234
 30
0.0
 40
0.8818255847891519
 50
114.102290139846005
 51
114.5750278162380056
  0
ARC
  5
9E0E
  8
0
 10
289.6353914651028276
 20
59.8011574656276821
 30
0.0
 40
0.1824055413846817
 50
100.3743985075599028
 51
108.8391214037119994
  0
ARC
  5
9E0F
  8
0
 10
289.7022664872362157
 20
59.467164871481458
 30
0.0
 40
0.5230112387862434
 50
98.1550704765879658
 51
100.9918864290947056
  0
ARC
  5
9E10
  8
0
 10
289.6564874838239234
 20
59.8065128928995478
 30
0.0
 40
0.1806229415956117
 50
95.1007975955487268
 51
99.0500797278778435
  0
ARC
  5
9E11
  8
0
 10
289.8498600125820985
 20
58.3314369034440006
 30
0.0
 40
1.668182343110431
 50
93.2193023031763062
 51
97.2122102008707856
  0
ARC
  5
9E12
  8
0
 10
289.9767219478281959
 20
56.5716824944818981
 30
0.0
 40
3.4323968699243732
 50
90.9175363678692889
 51
93.683991944569712
  0
ARC
  5
9E13
  8
0
 10
290.0399194965377205
 20
54.5291587166862612
 30
0.0
 40
5.4757555977276171
 50
89.9859701707990354
 51
91.236485556228601
  0
ARC
  5
9E14
  8
0
 10
289.7236417335421947
 20
60.3763323681827586
 30
0.0
 40
0.4503968027425938
 50
256.1786891974495006
 51
263.0710820142572857
  0
ARC
  5
9E15
  8
0
 10
289.6292437612669914
 20
59.9926288149599571
 30
0.0
 40
0.0552520268369956
 50
240.2357302755158912
 51
256.1786891974495006
  0
ARC
  5
9E16
  8
0
 10
289.605793197274977
 20
59.9516225467866377
 30
0.0
 40
0.0080138750839454
 50
216.0865895739329972
 51
240.2357302755154933
  0
ARC
  5
9E17
  8
0
 10
289.6031523347978123
 20
59.949697743374827
 30
0.0
 40
0.004745997669232
 50
176.3041016469817919
 51
216.0865895739339919
  0
ARC
  5
9E18
  8
0
 10
289.6010428631738023
 20
59.9498340051434724
 30
0.0
 40
0.0026321296974626
 50
129.3841451692759961
 51
176.3041016469863109
  0
ARC
  5
9E19
  8
0
 10
289.6087346894594816
 20
59.9435679204219412
 30
0.0
 40
0.0125117636099501
 50
119.5201078618966051
 51
138.4392163268960019
  0
ARC
  5
9E1A
  8
0
 10
289.6435023543855891
 20
59.8718415869317013
 30
0.0
 40
0.0921982898952324
 50
99.1612207807313553
 51
116.3569720853303977
  0
ARC
  5
9E1B
  8
0
 10
288.9439726541946243
 20
64.20946812095751
 30
0.0
 40
4.3014728118298402
 50
279.1612207807314121
 51
279.6686604976205217
  0
ARC
  5
9E1C
  8
0
 10
289.8724475625737114
 20
58.3070272669369984
 30
0.0
 40
1.674790889573966
 50
93.2891457423991142
 51
97.0667353871645844
  0
ARC
  5
9E1D
  8
0
 10
290.8171840126776146
 20
27.2948799347724815
 30
0.0
 40
32.700747715404539
 50
91.3596665470082314
 51
91.823967200982807
  0
ARC
  5
9E1E
  8
0
 10
289.6450223160641144
 20
60.0268728138637826
 30
0.0
 40
0.0928701347962769
 50
235.5624218272490111
 51
242.2738492401745134
  0
ARC
  5
9E1F
  8
0
 10
289.5967070372748253
 20
59.9564093114854586
 30
0.0
 40
0.0074331911951466
 50
215.3390979069808111
 51
235.5624218272492101
  0
ARC
  5
9E20
  8
0
 10
289.5938882270110071
 20
59.9544105933529607
 30
0.0
 40
0.0039776788631037
 50
194.0604796370776057
 51
215.339097906969414
  0
ARC
  5
9E21
  8
0
 10
289.5969489500581062
 20
59.9551771498671116
 30
0.0
 40
0.0071329339178445
 50
179.9331992152567068
 51
194.060479637073712
  0
ARC
  5
9E22
  8
0
 10
289.5931602527613791
 20
59.9551815670871804
 30
0.0
 40
0.0033442340462296
 50
131.9700176295831966
 51
179.933199215250994
  0
ARC
  5
9E23
  8
0
 10
289.6042375374976814
 20
59.9454392551586608
 30
0.0
 40
0.0180775238086453
 50
116.6872720175427958
 51
137.4323220096507043
  0
ARC
  5
9E24
  8
0
 10
289.623120766509885
 20
59.9098099795504524
 30
0.0
 40
0.058398578126027
 50
108.1318602585557045
 51
117.5406604052547976
  0
ARC
  5
9E25
  8
0
 10
289.7766728389651121
 20
59.2687997217162206
 30
0.0
 40
0.7173663671840157
 50
93.7615436942683971
 51
103.8501837346897929
  0
ARC
  5
9E26
  8
0
 10
290.0155479676574828
 20
56.6349519824077277
 30
0.0
 40
3.3618507683745742
 50
91.2428420029204972
 51
94.8791044290626928
  0
ARC
  5
9E27
  8
0
 10
290.1516062347917
 20
50.3635661282406915
 30
0.0
 40
9.6347123469447489
 50
90.6562202183467463
 51
91.2428420029172571
  0
ARC
  5
9E28
  8
0
 10
289.8378660917070988
 20
60.3838595971734406
 30
0.0
 40
0.4889484449797027
 50
237.2821298660207958
 51
240.0534490540044033
  0
ARC
  5
9E29
  8
0
 10
289.6025283211390047
 20
59.9681208266187795
 30
0.0
 40
0.0109462940860922
 50
209.4583285586300008
 51
222.8695553440146
  0
ARC
  5
9E2A
  8
0
 10
289.5966294224683111
 20
59.9647890516102322
 30
0.0
 40
0.0041715077253205
 50
183.1310455578745859
 51
209.4583285586354862
  0
ARC
  5
9E2B
  8
0
 10
289.5973356410382848
 20
59.964827682837047
 30
0.0
 40
0.0048787820994861
 50
157.0870843081368093
 51
183.1310455578721985
  0
ARC
  5
9E2C
  8
0
 10
289.5996057752353749
 20
59.9638681375018194
 30
0.0
 40
0.0073433787242951
 50
130.638518343912807
 51
157.0870843081337966
  0
ARC
  5
9E2D
  8
0
 10
289.6148993766173021
 20
59.9460490445256582
 30
0.0
 40
0.0308255915187175
 50
109.5740995099242951
 51
130.638518343912807
  0
ARC
  5
9E2E
  8
0
 10
289.7022253124854956
 20
59.7004580720198419
 30
0.0
 40
0.2914800464041437
 50
106.1964334699546981
 51
109.5740995099242951
  0
ARC
  5
9E2F
  8
0
 10
289.6987143165958969
 20
59.7125458075836377
 30
0.0
 40
0.2788927336171521
 50
94.8877260756486578
 51
106.1964334699546981
  0
ARC
  5
9E30
  8
0
 10
289.4082835352837151
 20
60.0346674924124102
 30
0.0
 40
0.0195968258213989
 50
180.1534005477726055
 51
216.3609777143323072
  0
ARC
  5
9E31
  8
0
 10
289.7710540138219812
 20
59.8895646373266217
 30
0.0
 40
0.0858627167954935
 50
233.5428495620824094
 51
246.6358390975335908
  0
ARC
  5
9E32
  8
0
 10
289.980218182978092
 20
60.3737452159372623
 30
0.0
 40
0.61329089424006
 50
246.6358390975335908
 51
249.2017783597609935
  0
ARC
  5
9E33
  8
0
 10
289.8352925800813864
 20
59.9921901989979602
 30
0.0
 40
0.205139376631089
 50
249.2017783597609082
 51
254.4211635646103105
  0
ARC
  5
9E34
  8
0
 10
291.2780656799776011
 20
65.1670017107033175
 30
0.0
 40
5.5773147646338144
 50
254.4211635646103105
 51
254.7870788033204121
  0
ARC
  5
9E35
  8
0
 10
290.1562791016784217
 20
61.2557757657811308
 30
0.0
 40
1.509828381984385
 50
256.9181494295842754
 51
265.6309728309503839
  0
ARC
  5
9E36
  8
0
 10
290.1942783948455826
 20
61.6392858239592982
 30
0.0
 40
1.89513862381451
 50
265.3687589989432922
 51
268.8500623384582013
  0
ARC
  5
9E37
  8
0
 10
290.3305307112300966
 20
59.7874996603933724
 30
0.0
 40
0.0247676163226824
 50
290.1445236809115045
 51
331.8282330378298184
  0
ARC
  5
9E38
  8
0
 10
290.2627848365651744
 20
59.9523513550925529
 30
0.0
 40
0.2029806731325221
 50
274.8071233341275956
 51
292.0723776603849728
  0
ARC
  5
9E39
  8
0
 10
289.9274551051939284
 20
63.9397413832881227
 30
0.0
 40
4.2044460629234921
 50
273.7979333595945945
 51
274.8071233341275956
  0
ARC
  5
9E3A
  8
0
 10
290.5062653269620228
 20
61.1979376443582623
 30
0.0
 40
1.578210219268257
 50
240.5505061631224919
 51
241.1290522137661867
  0
ARC
  5
9E3B
  8
0
 10
289.8549093227517233
 20
60.0444004341397601
 30
0.0
 40
0.2539023182356712
 50
244.160309911147209
 51
251.1966106667593976
  0
ARC
  5
9E3C
  8
0
 10
290.053601676049027
 20
60.6898390149081735
 30
0.0
 40
0.9291510380884114
 50
252.4269567657192113
 51
262.2602316812572099
  0
ARC
  5
9E3D
  8
0
 10
290.3098837287437277
 20
62.5754839516916519
 30
0.0
 40
2.8321322040883721
 50
262.2602316812572099
 51
264.5574016890407734
  0
ARC
  5
9E3E
  8
0
 10
290.1627912070251796
 20
61.0316594690659215
 30
0.0
 40
1.2813162114251251
 50
264.5574016890407734
 51
272.8505832640100266
  0
ARC
  5
9E3F
  8
0
 10
290.2212409104266726
 20
60.0815033094617021
 30
0.0
 40
0.3296167442848344
 50
270.9164688500811735
 51
289.7218826629189152
  0
ARC
  5
9E40
  8
0
 10
290.3228486333065916
 20
59.7916324333687328
 30
0.0
 40
0.0225658275384097
 50
295.2420121973913183
 51
334.9551140256174904
  0
ARC
  5
9E41
  8
0
 10
289.807550925465307
 20
59.9506407011066003
 30
0.0
 40
0.1449637181460406
 50
240.2369051939211886
 51
248.0049216966806114
  0
ARC
  5
9E42
  8
0
 10
289.9391063636865056
 20
60.2763323824747204
 30
0.0
 40
0.4962213225305709
 50
248.0049216966773997
 51
259.9296684949605947
  0
ARC
  5
9E43
  8
0
 10
290.1452797111239761
 20
61.2060286006452117
 30
0.0
 40
1.448209887436019
 50
258.3297949124349202
 51
263.404483065372176
  0
ARC
  5
9E44
  8
0
 10
290.0835349592134094
 20
60.4936617796527898
 30
0.0
 40
0.7337517509778009
 50
261.8046094828434889
 51
266.6971117353199929
  0
ARC
  5
9E45
  8
0
 10
290.1649268730870972
 20
61.1269592445063097
 30
0.0
 40
1.3714175407064531
 50
264.8263684375634739
 51
273.3791233564360255
  0
ARC
  5
9E46
  8
0
 10
290.2219204901161902
 20
60.1617068973400109
 30
0.0
 40
0.4044840548388276
 50
273.3791233564360255
 51
281.4313621697742178
  0
ARC
  5
9E47
  8
0
 10
290.2706457074341984
 20
59.9207375697334186
 30
0.0
 40
0.158637835323757
 50
281.4313621697742178
 51
293.9621202343191158
  0
ARC
  5
9E48
  8
0
 10
290.3260888934357808
 20
59.7959882379925816
 30
0.0
 40
0.0221228447776775
 50
293.9621202343225264
 51
321.0459841217096937
  0
ARC
  5
9E49
  8
0
 10
290.037827778574183
 20
58.9927496800377327
 30
0.0
 40
0.865465131031193
 50
75.4536243138413312
 51
77.3750308826787432
  0
ARC
  5
9E4A
  8
0
 10
290.0919757106801171
 20
59.201427261542598
 30
0.0
 40
0.6498767928167658
 50
73.7424643453083206
 51
75.4536243138413312
  0
ARC
  5
9E4B
  8
0
 10
290.1697544145175129
 20
59.4681433252644212
 30
0.0
 40
0.3720513342679113
 50
63.7593122235475818
 51
73.7424643453083206
  0
ARC
  5
9E4C
  8
0
 10
290.3120665035025922
 20
59.7568419722245565
 30
0.0
 40
0.0501823556012292
 50
41.1209441683598627
 51
63.7593122235475818
  0
ARC
  5
9E4D
  8
0
 10
290.337251211401508
 20
59.7788282104313424
 30
0.0
 40
0.0167508707038983
 50
1.7650549181494171
 51
41.1209441683601824
  0
ARC
  5
9E4E
  8
0
 10
290.008050201016772
 20
58.8904785017592616
 30
0.0
 40
0.9694476438529763
 50
76.953223862345979
 51
77.8106409879375036
  0
ARC
  5
9E4F
  8
0
 10
290.0723755174424809
 20
59.1680679291420404
 30
0.0
 40
0.6845026728007511
 50
71.3881574978400266
 51
76.953223862345979
  0
ARC
  5
9E50
  8
0
 10
290.2287663310574999
 20
59.6324562913412493
 30
0.0
 40
0.1944877367740122
 50
58.6261606105632325
 51
71.3881574978400266
  0
ARC
  5
9E51
  8
0
 10
290.3104220758036149
 20
59.7663673261160611
 30
0.0
 40
0.0376444204213903
 50
36.3583766194657301
 51
58.6261606105632325
  0
ARC
  5
9E52
  8
0
 10
290.3298706929248283
 20
59.7806842864446608
 30
0.0
 40
0.0134943881030709
 50
5.9353218407468811
 51
36.3583766194670375
  0
ARC
  5
9E53
  8
0
 10
289.7446024219603942
 20
59.8276938448813382
 30
0.0
 40
0.0052773183588715
 50
203.104603994092912
 51
237.1683161850550903
  0
LINE
  5
9E54
  8
0
 10
289.7417412026990178
 20
59.8232594888515194
 30
0.0
 11
289.7424546589990086
 21
59.8231289211515218
 31
0.0
  0
LINE
  5
9E55
  8
0
 10
289.7424546589990086
 20
59.8231289211515218
 30
0.0
 11
289.7601256475990112
 21
59.8263957440515171
 31
0.0
  0
LINE
  5
9E56
  8
0
 10
289.7601256475990112
 20
59.8263957440515171
 30
0.0
 11
289.7923111838990167
 21
59.8232043418515218
 31
0.0
  0
LINE
  5
9E57
  8
0
 10
289.7923111838990167
 20
59.8232043418515218
 30
0.0
 11
289.8118778909666275
 21
59.8265120580662284
 31
0.0
  0
LINE
  5
9E58
  8
0
 10
289.8118778909666275
 20
59.8265120580662284
 30
0.0
 11
289.8440299897488899
 21
59.8233939560015315
 31
0.0
  0
LINE
  5
9E59
  8
0
 10
289.8440299897488899
 20
59.8233939560015315
 30
0.0
 11
289.8629378285988878
 21
59.8265932040515196
 31
0.0
  0
LINE
  5
9E5A
  8
0
 10
289.8629378285988878
 20
59.8265932040515196
 30
0.0
 11
289.8951233647990193
 21
59.8234018018515101
 31
0.0
  0
LINE
  5
9E5B
  8
0
 10
289.8951233647990193
 20
59.8234018018515101
 30
0.0
 11
289.9146900718756115
 21
59.8267095181643498
 31
0.0
  0
LINE
  5
9E5C
  8
0
 10
289.9146900718756115
 20
59.8267095181643498
 30
0.0
 11
289.9465294552990144
 21
59.8235005318515221
 31
0.0
  0
LINE
  5
9E5D
  8
0
 10
289.9465294552990144
 20
59.8235005318515221
 30
0.0
 11
289.9657500094988904
 21
59.8267906640515221
 31
0.0
  0
LINE
  5
9E5E
  8
0
 10
289.9657500094988904
 20
59.8267906640515221
 30
0.0
 11
289.9979355457990096
 21
59.8235992619515216
 31
0.0
  0
LINE
  5
9E5F
  8
0
 10
289.9979355457990096
 20
59.8235992619515216
 30
0.0
 11
290.0166864792989827
 21
59.8270650394515187
 31
0.0
  0
LINE
  5
9E60
  8
0
 10
290.0166864792989827
 20
59.8270650394515187
 30
0.0
 11
290.0499170147988934
 21
59.8238036678515215
 31
0.0
  0
ARC
  5
9E61
  8
0
 10
289.7639248305820274
 20
59.8438579739623506
 30
0.0
 40
0.0178707376679869
 50
240.6535539517637119
 51
257.7256831702662794
  0
ARC
  5
9E62
  8
0
 10
289.7545087667829193
 20
59.8333876624384615
 30
0.0
 40
0.0089686271430604
 50
308.776271663656928
 51
333.1042045028261782
  0
ARC
  5
9E63
  8
0
 10
289.7615210426466774
 20
59.8237659825202925
 30
0.0
 40
0.0086076465312001
 50
171.2116360321523132
 51
224.0392656790604917
  0
ARC
  5
9E64
  8
0
 10
289.7600727350057923
 20
59.8223654486659413
 30
0.0
 40
0.0065929281638027
 50
224.0392656790633055
 51
240.7461382598044963
  0
ARC
  5
9E65
  8
0
 10
289.7576203541261179
 20
59.8179870997433412
 30
0.0
 40
0.001574550809824
 50
240.746138259808788
 51
265.6099116016209791
  0
LINE
  5
9E66
  8
0
 10
289.7574998276990073
 20
59.8164171686515118
 30
0.0
 11
289.7897659880496803
 21
59.8133284426600085
 31
0.0
  0
ARC
  5
9E67
  8
0
 10
289.79877193617682
 20
59.8201280665860367
 30
0.0
 40
0.0112845906972091
 50
161.9343348626725003
 51
217.0533438393912036
  0
LINE
  5
9E68
  8
0
 10
289.789765988049794
 20
59.8133284426598806
 30
0.0
 11
289.8084171218989127
 21
59.8165638790515217
 31
0.0
  0
LINE
  5
9E69
  8
0
 10
289.8084171218989127
 20
59.8165638790515217
 30
0.0
 11
289.8418140863989834
 21
59.8133956762515169
 31
0.0
  0
LINE
  5
9E6A
  8
0
 10
289.8418140863989834
 20
59.8133956762515169
 30
0.0
 11
289.8601634069664783
 21
59.81662921306512
 31
0.0
  0
LINE
  5
9E6B
  8
0
 10
289.8601634069664783
 20
59.81662921306512
 30
0.0
 11
289.8920027902989887
 21
59.8134202268515196
 31
0.0
  0
LINE
  5
9E6C
  8
0
 10
289.8920027902989887
 20
59.8134202268515196
 30
0.0
 11
289.9112233444989783
 21
59.8167103589515321
 31
0.0
  0
LINE
  5
9E6D
  8
0
 10
289.9112233444989783
 20
59.8167103589515321
 30
0.0
 11
289.9434088807989838
 21
59.8135189568515173
 31
0.0
  0
LINE
  5
9E6E
  8
0
 10
289.9434088807989838
 20
59.8135189568515173
 30
0.0
 11
289.962975587866481
 21
59.8168266730652292
 31
0.0
  0
LINE
  5
9E6F
  8
0
 10
289.962975587866481
 20
59.8168266730652292
 30
0.0
 11
289.9963076738121117
 21
59.8136976471026003
 31
0.0
  0
LINE
  5
9E70
  8
0
 10
289.9963076738121117
 20
59.8136976471026003
 30
0.0
 11
290.0143818970989855
 21
59.8169277972515232
 31
0.0
  0
LINE
  5
9E71
  8
0
 10
290.0143818970989855
 20
59.8169277972515232
 30
0.0
 11
290.0468128853448775
 21
59.8138204962343991
 31
0.0
  0
ARC
  5
9E72
  8
0
 10
289.8035876685444805
 20
59.8294208732603323
 30
0.0
 40
0.0128765045225258
 50
166.1520502409522919
 51
208.8671899503736995
  0
ARC
  5
9E73
  8
0
 10
289.7961787155596767
 20
59.8109437364522876
 30
0.0
 40
0.0073456002894291
 50
160.6467152912991878
 51
241.8302510715589051
  0
ARC
  5
9E74
  8
0
 10
289.7934195710151926
 20
59.8086826836967518
 30
0.0
 40
0.0042736378593469
 50
260.4557876632928242
 51
280.8766047132646122
  0
LINE
  5
9E75
  8
0
 10
289.7942259828424199
 20
59.8044858181380619
 30
0.0
 11
289.8052905890990019
 21
59.8065313238515088
 31
0.0
  0
LINE
  5
9E76
  8
0
 10
289.8087573164755781
 20
59.8165304830642413
 30
0.0
 11
289.8083527374989217
 21
59.812102070451509
 31
0.0
  0
ARC
  5
9E77
  8
0
 10
289.8004391632400143
 20
59.8128250531667902
 30
0.0
 40
0.0079465314168713
 50
307.6262879560782721
 51
354.7799589724494922
  0
LINE
  5
9E78
  8
0
 10
289.7923111838990167
 20
59.8232043418515218
 30
0.0
 11
289.8084171218989127
 21
59.8165638790515217
 31
0.0
  0
ARC
  5
9E79
  8
0
 10
289.7989301103090725
 20
59.8254622775801721
 30
0.0
 40
0.0129902680117619
 50
316.8055513433429269
 51
4.6352894798109521
  0
ARC
  5
9E7A
  8
0
 10
289.8043528882843134
 20
59.8338852089333173
 30
0.0
 40
0.0105351326094528
 50
315.5839761769739766
 51
4.1437769274797986
  0
LINE
  5
9E7B
  8
0
 10
289.7959519929257795
 20
59.8329747085528894
 30
0.0
 11
289.8118778909665139
 21
59.8265120580647292
 31
0.0
  0
LINE
  5
9E7C
  8
0
 10
289.8254124516246861
 20
59.835467812036697
 30
0.0
 11
289.8471505642489774
 21
59.8333755311015167
 31
0.0
  0
LINE
  5
9E7D
  8
0
 10
289.8471505642489774
 20
59.8333755311015167
 30
0.0
 11
289.8660643612989816
 21
59.8366257592515112
 31
0.0
  0
LINE
  5
9E7E
  8
0
 10
289.8660643612989816
 20
59.8366257592515112
 30
0.0
 11
289.867569625959618
 21
59.8380560656844196
 31
0.0
  0
ARC
  5
9E7F
  8
0
 10
289.8683921895075741
 20
59.85014509900153
 30
0.0
 40
0.0137182845664118
 50
244.3040796404706896
 51
260.230321047507914
  0
ARC
  5
9E80
  8
0
 10
289.8513504555471059
 20
59.837615660052883
 30
0.0
 40
0.0059680633743508
 50
187.7753754660919867
 51
225.2731545864374993
  0
ARC
  5
9E81
  8
0
 10
289.8538753780015895
 20
59.8300772950244522
 30
0.0
 40
0.0118995247947027
 50
161.6901014421632112
 51
214.1698139892448864
  0
ARC
  5
9E82
  8
0
 10
289.856913925510014
 20
59.8339739374534929
 30
0.0
 40
0.0095269425303127
 50
309.2201514574924204
 51
16.1617355836957302
  0
LINE
  5
9E83
  8
0
 10
289.8440299897488899
 20
59.8233939560015315
 30
0.0
 11
289.8601634069664783
 21
59.81662921306512
 31
0.0
  0
ARC
  5
9E84
  8
0
 10
289.8521115307506761
 20
59.8242394734060028
 30
0.0
 40
0.0110792045315531
 50
316.615106813518878
 51
12.2657219299545996
  0
LINE
  5
9E85
  8
0
 10
289.8471505642489774
 20
59.8333755311015167
 30
0.0
 11
289.8629378285990015
 21
59.8265932040514627
 31
0.0
  0
ARC
  5
9E86
  8
0
 10
289.8514842098127247
 20
59.8204211713050569
 30
0.0
 40
0.0124755938442043
 50
164.1201492717387964
 51
213.9137871588864073
  0
ARC
  5
9E87
  8
0
 10
289.8358857665526784
 20
59.7974911227871573
 30
0.0
 40
0.0040537708155109
 50
218.4122506939976915
 51
276.6005275835610746
  0
ARC
  5
9E88
  8
0
 10
289.8388325227624023
 20
59.7998277190172374
 30
0.0
 40
0.0078144960250725
 50
181.8585402654065035
 51
218.4122506940007042
  0
ARC
  5
9E89
  8
0
 10
289.8481869695410182
 20
59.8001312617290068
 30
0.0
 40
0.0171738663410804
 50
167.1921450070014998
 51
181.8585402654053098
  0
LINE
  5
9E8A
  8
0
 10
289.8052905890990019
 20
59.8065313238515088
 30
0.0
 11
289.8374761253990073
 21
59.8033399217515225
 31
0.0
  0
LINE
  5
9E8B
  8
0
 10
289.8374761253990073
 20
59.8033399217515225
 30
0.0
 11
289.8570428324665045
 21
59.8066476379651277
 31
0.0
  0
ARC
  5
9E8C
  8
0
 10
289.8471466572535178
 20
59.8152200991752565
 30
0.0
 40
0.0130927985948527
 50
319.0995854346704164
 51
6.1784315878738996
  0
ARC
  5
9E8D
  8
0
 10
289.8496979650859089
 20
59.80990976855513
 30
0.0
 40
0.0138757433082649
 50
163.2519340250576079
 51
208.2602408715665092
  0
LINE
  5
9E8E
  8
0
 10
289.8363517324988834
 20
59.7934642215515169
 30
0.0
 11
289.8535761050990232
 21
59.7966484788515231
 31
0.0
  0
ARC
  5
9E8F
  8
0
 10
289.8489212127311134
 20
59.8028341769173366
 30
0.0
 40
0.0077415039570898
 50
306.9623750530381017
 51
355.4438718755009745
  0
ARC
  5
9E90
  8
0
 10
290.3120665563424723
 20
59.7628440653322599
 30
0.0
 40
0.4571272714084502
 50
174.5012761438919995
 51
175.0586418010092018
  0
LINE
  5
9E91
  8
0
 10
289.8374761253990073
 20
59.8033399217515225
 30
0.0
 11
289.8535761050990232
 21
59.7966484788515231
 31
0.0
  0
ARC
  5
9E92
  8
0
 10
289.9358842392172733
 20
59.7873889488143888
 30
0.0
 40
0.0571000069808213
 50
173.1447029302568126
 51
178.2745894692170054
  0
ARC
  5
9E93
  8
0
 10
289.8839814175565834
 20
59.7889524279484306
 30
0.0
 40
0.0051736421616284
 50
178.2745894692133106
 51
242.1398343657023133
  0
ARC
  5
9E94
  8
0
 10
289.886190468855375
 20
59.7931316232762526
 30
0.0
 40
0.0099007534601637
 50
242.1398343657023133
 51
253.8464223273851985
  0
ARC
  5
9E95
  8
0
 10
289.8840503442867771
 20
59.7911670991750483
 30
0.0
 40
0.0075703145554807
 50
265.3448556319593195
 51
282.404242680250718
  0
LINE
  5
9E96
  8
0
 10
289.8856765057504958
 20
59.7837735032053814
 30
0.0
 11
289.9018616210989876
 21
59.7867656337515214
 31
0.0
  0
LINE
  5
9E97
  8
0
 10
289.9018616210989876
 20
59.7867656337515214
 30
0.0
 11
289.9346225358733022
 21
59.7836799075773584
 31
0.0
  0
ARC
  5
9E98
  8
0
 10
289.9395505089108269
 20
59.7812123854386286
 30
0.0
 40
0.0071940397791193
 50
158.5232103564759996
 51
219.7189948977271001
  0
ARC
  5
9E99
  8
0
 10
289.938032858556312
 20
59.7799515576766609
 30
0.0
 40
0.0052209839654639
 50
219.7189948977232063
 51
281.653692412552914
  0
LINE
  5
9E9A
  8
0
 10
289.939087475398992
 20
59.7748381970515226
 30
0.0
 11
289.9501471370990089
 21
59.7768827887515215
 31
0.0
  0
LINE
  5
9E9B
  8
0
 10
289.9501471370990089
 20
59.7768827887515215
 30
0.0
 11
289.9826295056989807
 21
59.7737854062515197
 31
0.0
  0
LINE
  5
9E9C
  8
0
 10
289.9826295056989807
 20
59.7737854062515197
 30
0.0
 11
289.9977470665988903
 21
59.7672705750515192
 31
0.0
  0
ARC
  5
9E9D
  8
0
 10
289.9989231420698843
 20
59.7733105551735093
 30
0.0
 40
0.006153414774519
 50
258.9815161833083152
 51
339.5953657151790139
  0
ARC
  5
9E9E
  8
0
 10
289.9186822706943758
 20
59.7834208947429815
 30
0.0
 40
0.0868769821628775
 50
351.8902470199212758
 51
355.5404310234001173
  0
LINE
  5
9E9F
  8
0
 10
289.8535761050990232
 20
59.7966484788515231
 30
0.0
 11
289.8860743567490204
 21
59.7935479608015115
 31
0.0
  0
LINE
  5
9EA0
  8
0
 10
289.8860743567490204
 20
59.7935479608015115
 30
0.0
 11
289.9018616210989876
 21
59.7867656337515214
 31
0.0
  0
ARC
  5
9EA1
  8
0
 10
289.8936299696870265
 20
59.7952081389074408
 30
0.0
 40
0.0117913518426047
 50
314.2755024413534102
 51
7.9788586693308519
  0
ARC
  5
9EA2
  8
0
 10
289.8964728146892185
 20
59.8002920450971729
 30
0.0
 40
0.0123939743634415
 50
162.5688122697050062
 51
212.9660630574130948
  0
LINE
  5
9EA3
  8
0
 10
289.8570428324665045
 20
59.8066476379651277
 30
0.0
 11
289.8894575943990048
 21
59.8035443276515224
 31
0.0
  0
ARC
  5
9EA4
  8
0
 10
289.8997338971386171
 20
59.8105578632129493
 30
0.0
 40
0.012441546490317
 50
164.65501376263731
 51
214.3133803327247904
  0
ARC
  5
9EA5
  8
0
 10
289.9026380247314023
 20
59.8204623274048615
 30
0.0
 40
0.012219438246673
 50
164.0430967004679133
 51
214.5868602230152078
  0
ARC
  5
9EA6
  8
0
 10
289.908570705771524
 20
59.830161015598307
 30
0.0
 40
0.0150505132705727
 50
165.4142923313557958
 51
206.6860758457744964
  0
LINE
  5
9EA7
  8
0
 10
289.8411309883190938
 20
59.8134604783460091
 30
0.0
 11
289.8570428324665045
 21
59.8066476379651277
 31
0.0
  0
LINE
  5
9EA8
  8
0
 10
289.8863370200497229
 20
59.7935627525600069
 30
0.0
 11
289.9053071736291827
 21
59.7968448692966277
 31
0.0
  0
LINE
  5
9EA9
  8
0
 10
289.9053071736291827
 20
59.7968448692966277
 30
0.0
 11
289.8894575943990048
 21
59.8035443276515224
 31
0.0
  0
LINE
  5
9EAA
  8
0
 10
289.8894575943990048
 20
59.8035443276515224
 30
0.0
 11
289.9076331493989755
 21
59.8069044293515191
 31
0.0
  0
LINE
  5
9EAB
  8
0
 10
289.9076331493989755
 20
59.8069044293515191
 30
0.0
 11
289.8926050288773126
 21
59.8135233167238383
 31
0.0
  0
LINE
  5
9EAC
  8
0
 10
289.9112233444989783
 20
59.8167103589515321
 30
0.0
 11
289.8951233647990193
 21
59.8234018018515101
 31
0.0
  0
LINE
  5
9EAD
  8
0
 10
289.9146900718756115
 20
59.8267095181643427
 30
0.0
 11
289.8988193178989832
 21
59.8334890528515189
 31
0.0
  0
LINE
  5
9EAE
  8
0
 10
289.8988193178989832
 20
59.8334890528515189
 30
0.0
 11
289.9178106463667177
 21
59.8366910931663227
 31
0.0
  0
ARC
  5
9EAF
  8
0
 10
289.9063084686770821
 20
59.8465561945918125
 30
0.0
 40
0.0151532279642214
 50
319.381216380688727
 51
335.5423425635407284
  0
ARC
  5
9EB0
  8
0
 10
289.9025374603692171
 20
59.8359780328526867
 30
0.0
 40
0.0152836949378996
 50
322.6680749368150032
 51
2.8425281270531149
  0
ARC
  5
9EB1
  8
0
 10
289.9029075152557198
 20
59.8383052697062396
 30
0.0
 40
0.0063077538021955
 50
169.8367833087077088
 51
229.7792934461323
  0
LINE
  5
9EB2
  8
0
 10
289.8660486955989768
 20
59.8366272886515205
 30
0.0
 11
289.8988492801250914
 21
59.8334874611272909
 31
0.0
  0
ARC
  5
9EB3
  8
0
 10
289.9043806652434228
 20
59.8246832688374397
 30
0.0
 40
0.0105066432052983
 50
310.6375504554396798
 51
11.1193938726818899
  0
ARC
  5
9EB4
  8
0
 10
289.903193313189206
 20
59.8140901587180807
 30
0.0
 40
0.0084467065829824
 50
301.710615023284106
 51
18.0715110942565502
  0
LINE
  5
9EB5
  8
0
 10
289.9053285671989784
 20
59.7967671870515218
 30
0.0
 11
289.9372177840988911
 21
59.793631899051519
 31
0.0
  0
LINE
  5
9EB6
  8
0
 10
289.9372177840988911
 20
59.793631899051519
 30
0.0
 11
289.9567346575989859
 21
59.7968659170515195
 31
0.0
  0
LINE
  5
9EB7
  8
0
 10
289.9567346575989859
 20
59.7968659170515195
 30
0.0
 11
289.9404264788490195
 21
59.8039974364015166
 31
0.0
  0
LINE
  5
9EB8
  8
0
 10
289.9404264788490195
 20
59.8039974364015166
 30
0.0
 11
289.9076331493989755
 21
59.8069044293515191
 31
0.0
  0
LINE
  5
9EB9
  8
0
 10
289.9346225367190755
 20
59.7836799074976994
 30
0.0
 11
289.9536001826921847
 21
59.7868297539576332
 31
0.0
  0
ARC
  5
9EBA
  8
0
 10
289.9435844549249737
 20
59.7847338327115025
 30
0.0
 40
0.0102326774882341
 50
309.8922271189786102
 51
11.8193297325949604
  0
ARC
  5
9EBB
  8
0
 10
289.9410967959295249
 20
59.7900716750391013
 30
0.0
 40
0.0090978423592558
 50
154.036294887460798
 51
224.6326454091957885
  0
ARC
  5
9EBC
  8
0
 10
289.9375969342510757
 20
59.7973351105650295
 30
0.0
 40
0.0191433141884927
 50
326.7170426036609001
 51
358.5883994498772154
  0
ARC
  5
9EBD
  8
0
 10
289.9501515771178219
 20
59.8103095602946127
 30
0.0
 40
0.0115939831111237
 50
161.7409800000012012
 51
212.9857891718220912
  0
ARC
  5
9EBE
  8
0
 10
289.9562707903843943
 20
59.8201162675369602
 30
0.0
 40
0.0144552145077511
 50
164.7264605233627037
 51
207.154829686911313
  0
ARC
  5
9EBF
  8
0
 10
289.9573722751196101
 20
59.8306423946084891
 30
0.0
 40
0.0124346760359975
 50
164.233087512978301
 51
214.4623104386151056
  0
LINE
  5
9EC0
  8
0
 10
289.9657500094988904
 20
59.8267906640515221
 30
0.0
 11
289.9499627451988886
 21
59.8335729911015193
 31
0.0
  0
LINE
  5
9EC1
  8
0
 10
289.9499627451988886
 20
59.8335729911015193
 30
0.0
 11
289.9178023502972792
 21
59.8367359684935067
 31
0.0
  0
ARC
  5
9EC2
  8
0
 10
289.958317041796704
 20
59.8392962072507828
 30
0.0
 40
0.0102428492073652
 50
169.9901214412076058
 51
213.8698489823894988
  0
ARC
  5
9EC3
  8
0
 10
289.961855457518709
 20
59.8439117332405033
 30
0.0
 40
0.0102425600678353
 50
315.9468633033584979
 51
346.8304734490802161
  0
LINE
  5
9EC4
  8
0
 10
289.9692167368665991
 20
59.8367898231663204
 30
0.0
 11
289.9577290287346045
 21
59.841296388674877
 31
0.0
  0
LINE
  5
9EC5
  8
0
 10
289.9499627451988886
 20
59.8335729911015193
 30
0.0
 11
289.9692167368665991
 21
59.8367898231663204
 31
0.0
  0
ARC
  5
9EC6
  8
0
 10
289.9580842562780276
 20
59.8350489352080501
 30
0.0
 40
0.0112677777285306
 50
312.8690611321716233
 51
8.8878829403346931
  0
LINE
  5
9EC7
  8
0
 10
289.9860286265496825
 20
59.7837786375600118
 30
0.0
 11
289.9536001826921847
 21
59.7868297539576332
 31
0.0
  0
LINE
  5
9EC8
  8
0
 10
289.9860286265496825
 20
59.7837786375600118
 30
0.0
 11
290.0051283832087847
 21
59.7869700362934609
 31
0.0
  0
LINE
  5
9EC9
  8
0
 10
289.9860286265496825
 20
59.7837786375600118
 30
0.0
 11
290.0052962284963769
 21
59.7766657231231875
 31
0.0
  0
LINE
  5
9ECA
  8
0
 10
290.0052962284963769
 20
59.7766657231231875
 30
0.0
 11
290.0349561503990117
 21
59.773864295951519
 31
0.0
  0
LINE
  5
9ECB
  8
0
 10
289.9567344388756283
 20
59.7968635229643368
 30
0.0
 11
289.9897912088990211
 21
59.7937287161515201
 31
0.0
  0
LINE
  5
9ECC
  8
0
 10
289.9897912088990211
 20
59.7937287161515201
 30
0.0
 11
290.0081405293664716
 21
59.7969622529652369
 31
0.0
  0
LINE
  5
9ECD
  8
0
 10
290.0081405293664716
 20
59.7969622529652369
 30
0.0
 11
290.0399799127990264
 21
59.7937532667515228
 31
0.0
  0
LINE
  5
9ECE
  8
0
 10
289.9598550133666208
 20
59.8068450979663311
 30
0.0
 11
289.9916943967990051
 21
59.8036361117515227
 31
0.0
  0
LINE
  5
9ECF
  8
0
 10
289.9916943967990051
 20
59.8036361117515227
 30
0.0
 11
290.0112613225990117
 21
59.8069462221515167
 31
0.0
  0
LINE
  5
9ED0
  8
0
 10
290.0112613225990117
 20
59.8069462221515167
 30
0.0
 11
290.0412603267989766
 21
59.8039995897037286
 31
0.0
  0
LINE
  5
9ED1
  8
0
 10
289.9598550133667914
 20
59.8068450979663098
 30
0.0
 11
289.9434088807989838
 21
59.8135189568515173
 31
0.0
  0
ARC
  5
9ED2
  8
0
 10
289.9483151372530756
 20
59.8159333618441806
 30
0.0
 40
0.0146876416460383
 50
321.7855594860266137
 51
3.486915883211549
  0
ARC
  5
9ED3
  8
0
 10
289.9473886523597912
 20
59.8052639142174485
 30
0.0
 40
0.0125662364613688
 50
318.0494455543056915
 51
7.2285712398508881
  0
ARC
  5
9ED4
  8
0
 10
289.954963361516775
 20
59.824427543296153
 30
0.0
 40
0.0110424686730589
 50
316.5190084682158727
 51
12.3570385394312297
  0
LINE
  5
9ED5
  8
0
 10
289.9692167368665991
 20
59.8367898231663204
 30
0.0
 11
290.0013688356989974
 21
59.8336717211015312
 31
0.0
  0
LINE
  5
9ED6
  8
0
 10
290.0013688356989974
 20
59.8336717211015312
 30
0.0
 11
290.0206228273755755
 21
59.8368885532643375
 31
0.0
  0
ARC
  5
9ED7
  8
0
 10
290.0142091362246788
 20
59.8434926664415201
 30
0.0
 40
0.0092059624719986
 50
314.1619477384447237
 51
351.6489719129343143
  0
ARC
  5
9ED8
  8
0
 10
290.0095341344367057
 20
59.8395952312977499
 30
0.0
 40
0.0100876199631589
 50
166.3310564781600931
 51
215.9589817414232868
  0
ARC
  5
9ED9
  8
0
 10
290.0107463935972874
 20
59.8303771412964807
 30
0.0
 40
0.0144933595045121
 50
165.0332747396969069
 51
207.882128094043594
  0
ARC
  5
9EDA
  8
0
 10
290.0094129851161142
 20
59.8356799949913594
 30
0.0
 40
0.0112748027291634
 50
310.1739645881424963
 51
6.1534187554446049
  0
LINE
  5
9EDB
  8
0
 10
290.0166864792989827
 20
59.8270650394515187
 30
0.0
 11
290.0013688356989974
 21
59.8336717211015312
 31
0.0
  0
ARC
  5
9EDC
  8
0
 10
290.0020168810927998
 20
59.8205916186549587
 30
0.0
 40
0.0089510832606036
 50
157.5165206637676079
 51
230.370318850186294
  0
ARC
  5
9EDD
  8
0
 10
290.0041867127135902
 20
59.8103014881660329
 30
0.0
 40
0.0141592796306087
 50
163.8712767491796001
 51
208.0825125176259007
  0
ARC
  5
9EDE
  8
0
 10
289.9956708828526075
 20
59.800512092495552
 30
0.0
 40
0.0089769014935799
 50
156.6771155453139102
 51
229.0820100115903983
  0
ARC
  5
9EDF
  8
0
 10
289.9949408099101902
 20
59.7905389132312379
 30
0.0
 40
0.0111860779276178
 50
160.6712499190803101
 51
217.1818866227501132
  0
ARC
  5
9EE0
  8
0
 10
289.9924702331487083
 20
59.7804565930081182
 30
0.0
 40
0.0118888455908564
 50
161.4784609311467989
 51
214.1339740345661937
  0
ARC
  5
9EE1
  8
0
 10
289.9920157322629848
 20
59.7816029228594203
 30
0.0
 40
0.0141685398485576
 50
339.606718370642227
 51
22.2596799101053584
  0
ARC
  5
9EE2
  8
0
 10
289.9949776779934041
 20
59.7954800716291501
 30
0.0
 40
0.0132460378145411
 50
320.0245786451322942
 51
6.4246349305346282
  0
ARC
  5
9EE3
  8
0
 10
289.9982773224493826
 20
59.8055250322925218
 30
0.0
 40
0.0130615481662143
 50
319.0369981662827854
 51
6.2465576941922594
  0
ARC
  5
9EE4
  8
0
 10
290.0010541116059812
 20
59.8156159269303274
 30
0.0
 40
0.013392194364053
 50
319.6564164086082087
 51
5.6215854319452552
  0
LINE
  5
9EE5
  8
0
 10
290.0143818970989855
 20
59.8169277972515232
 30
0.0
 11
289.9979355457990096
 21
59.8235992619515216
 31
0.0
  0
LINE
  5
9EE6
  8
0
 10
290.0349561503990117
 20
59.773864295951519
 30
0.0
 11
290.0498387434989809
 21
59.7670986736515104
 31
0.0
  0
LINE
  5
9EE7
  8
0
 10
290.0498387434989809
 20
59.7670986736515104
 30
0.0
 11
290.0820242797989863
 21
59.7639072715515169
 31
0.0
  0
LINE
  5
9EE8
  8
0
 10
290.0820242797989863
 20
59.7639072715515169
 30
0.0
 11
290.101244833998976
 21
59.7671974036515223
 31
0.0
  0
LINE
  5
9EE9
  8
0
 10
290.101244833998976
 20
59.7671974036515223
 30
0.0
 11
290.1340326883558873
 21
59.7641090839371785
 31
0.0
  0
LINE
  5
9EEA
  8
0
 10
290.1340326883558873
 20
59.7641090839371785
 30
0.0
 11
290.152650924499028
 21
59.7672961337515218
 31
0.0
  0
LINE
  5
9EEB
  8
0
 10
290.152650924499028
 20
59.7672961337515218
 30
0.0
 11
290.1854387787342944
 21
59.7642078139392225
 31
0.0
  0
LINE
  5
9EEC
  8
0
 10
290.1854387787342944
 20
59.7642078139392225
 30
0.0
 11
290.2040570149990231
 21
59.7673948637515124
 31
0.0
  0
LINE
  5
9EED
  8
0
 10
290.2040570149990231
 20
59.7673948637515124
 30
0.0
 11
290.2377352537121737
 21
59.7642834218026024
 31
0.0
  0
LINE
  5
9EEE
  8
0
 10
290.2377352537121737
 20
59.7642834218026024
 30
0.0
 11
290.2554631054989045
 21
59.7674935937515173
 31
0.0
  0
LINE
  5
9EEF
  8
0
 10
290.2554631054989045
 20
59.7674935937515173
 30
0.0
 11
290.2871752437171153
 21
59.7644328002153884
 31
0.0
  0
ARC
  5
9EF0
  8
0
 10
290.2860348488358113
 20
59.7719913008106971
 30
0.0
 40
0.0076453371965312
 50
278.6180822265367283
 51
9.08091202321026
  0
ARC
  5
9EF1
  8
0
 10
290.0843794719099265
 20
59.7677823305724019
 30
0.0
 40
0.0591794516925115
 50
173.2414149382821051
 51
178.6750285936923888
  0
ARC
  5
9EF2
  8
0
 10
290.0308417734402155
 20
59.7699076991696785
 30
0.0
 40
0.0056766255501977
 50
187.6630258236621955
 51
255.612156264635388
  0
ARC
  5
9EF3
  8
0
 10
290.0322092978275919
 20
59.7721863629587915
 30
0.0
 40
0.0082585280345892
 50
250.3429815869384072
 51
286.8306688150303785
  0
LINE
  5
9EF4
  8
0
 10
290.0346005065688928
 20
59.7642815918644885
 30
0.0
 11
290.0498387434989809
 21
59.7670986736515104
 31
0.0
  0
LINE
  5
9EF5
  8
0
 10
290.0051283832087847
 20
59.7869700362934609
 30
0.0
 11
290.0371561706489842
 21
59.7838657113515168
 31
0.0
  0
LINE
  5
9EF6
  8
0
 10
290.0371561706489842
 20
59.7838657113515168
 30
0.0
 11
290.0560798924989854
 21
59.7870618238515235
 31
0.0
  0
LINE
  5
9EF7
  8
0
 10
290.0560798924989854
 20
59.7870618238515235
 30
0.0
 11
290.0897581313121236
 21
59.7839503819025992
 31
0.0
  0
LINE
  5
9EF8
  8
0
 10
290.0897581313121236
 20
59.7839503819025992
 30
0.0
 11
290.1069969936183952
 21
59.7873400767962977
 31
0.0
  0
LINE
  5
9EF9
  8
0
 10
290.1069969936183952
 20
59.7873400767962977
 30
0.0
 11
290.1396715192989859
 21
59.7839691516515188
 31
0.0
  0
LINE
  5
9EFA
  8
0
 10
290.1396715192989859
 20
59.7839691516515188
 30
0.0
 11
290.1592382263665968
 21
59.787276867866332
 31
0.0
  0
LINE
  5
9EFB
  8
0
 10
290.1592382263665968
 20
59.787276867866332
 30
0.0
 11
290.1922949962989833
 21
59.7841420610515186
 31
0.0
  0
LINE
  5
9EFC
  8
0
 10
290.1922949962989833
 20
59.7841420610515186
 30
0.0
 11
290.2106443168311216
 21
59.7873755979686123
 31
0.0
  0
LINE
  5
9EFD
  8
0
 10
290.2106443168311216
 20
59.7873755979686123
 30
0.0
 11
290.2437010867989784
 21
59.7842407910515234
 31
0.0
  0
LINE
  5
9EFE
  8
0
 10
290.2437010867989784
 20
59.7842407910515234
 30
0.0
 11
290.2620504073290135
 21
59.787474327959103
 31
0.0
  0
LINE
  5
9EFF
  8
0
 10
290.2620504073290135
 20
59.787474327959103
 30
0.0
 11
290.2951071772989735
 21
59.7843395211515229
 31
0.0
  0
LINE
  5
9F00
  8
0
 10
290.2951071772989735
 20
59.7843395211515229
 30
0.0
 11
290.3134564978200842
 21
59.7875730579602589
 31
0.0
  0
LINE
  5
9F01
  8
0
 10
290.3134564978200842
 20
59.7875730579602589
 30
0.0
 11
290.3427618077599845
 21
59.7846739817440422
 31
0.0
  0
LINE
  5
9F02
  8
0
 10
290.0349561503990117
 20
59.773864295951519
 30
0.0
 11
290.0533054708665759
 21
59.77709783276633
 31
0.0
  0
LINE
  5
9F03
  8
0
 10
290.0533054708665759
 20
59.77709783276633
 30
0.0
 11
290.0857371596376879
 21
59.7739928797904625
 31
0.0
  0
LINE
  5
9F04
  8
0
 10
290.0857371596376879
 20
59.7739928797904625
 30
0.0
 11
290.1047117800990236
 21
59.7771989569515227
 31
0.0
  0
LINE
  5
9F05
  8
0
 10
290.1047117800990236
 20
59.7771989569515227
 30
0.0
 11
290.1377683313990019
 21
59.7740617560515233
 31
0.0
  0
LINE
  5
9F06
  8
0
 10
290.1377683313990019
 20
59.7740617560515233
 30
0.0
 11
290.156117870598905
 21
59.7772976870515222
 31
0.0
  0
LINE
  5
9F07
  8
0
 10
290.156117870598905
 20
59.7772976870515222
 30
0.0
 11
290.1894497377122093
 21
59.774166266902597
 31
0.0
  0
LINE
  5
9F08
  8
0
 10
290.1894497377122093
 20
59.774166266902597
 30
0.0
 11
290.2075285879989792
 21
59.7774470623515199
 31
0.0
  0
LINE
  5
9F09
  8
0
 10
290.2075285879989792
 20
59.7774470623515199
 30
0.0
 11
290.2408558282122044
 21
59.7742649969026019
 31
0.0
  0
LINE
  5
9F0A
  8
0
 10
290.2408558282122044
 20
59.7742649969026019
 30
0.0
 11
290.2589346784989743
 21
59.7775457923515177
 31
0.0
  0
LINE
  5
9F0B
  8
0
 10
290.2589346784989743
 20
59.7775457923515177
 30
0.0
 11
290.2922619187120858
 21
59.7743637269025925
 31
0.0
  0
LINE
  5
9F0C
  8
0
 10
290.2922619187120858
 20
59.7743637269025925
 30
0.0
 11
290.3097410317989784
 21
59.7776870659515325
 31
0.0
  0
LINE
  5
9F0D
  8
0
 10
290.3097410317989784
 20
59.7776870659515325
 30
0.0
 11
290.3314077985990025
 21
59.7755234085515212
 31
0.0
  0
ARC
  5
9F0E
  8
0
 10
290.331081222865123
 20
59.7772672620905112
 30
0.0
 40
0.0017741693480151
 50
280.6070601837467962
 51
326.200208478300226
  0
ARC
  5
9F0F
  8
0
 10
290.3169419057501273
 20
59.7867660128620315
 30
0.0
 40
0.0188078560343347
 50
326.1157134922628984
 51
355.7517747109185962
  0
LINE
  5
9F10
  8
0
 10
290.0820242797989863
 20
59.7639072715515169
 30
0.0
 11
290.092630486299015
 21
59.7596011940515197
 31
0.0
  0
ARC
  5
9F11
  8
0
 10
290.0930992900871956
 20
59.7653537717588677
 30
0.0
 40
0.0057716485748023
 50
265.3410014978895788
 51
345.2897296246142105
  0
ARC
  5
9F12
  8
0
 10
290.0843579832630894
 20
59.7666590849731705
 30
0.0
 40
0.0145893271804298
 50
349.0514422002765969
 51
0.5691074387013142
  0
LINE
  5
9F13
  8
0
 10
290.1340326883558873
 20
59.7641090839371785
 30
0.0
 11
290.1473242916990216
 21
59.757895184551522
 31
0.0
  0
ARC
  5
9F14
  8
0
 10
290.1490081358700763
 20
59.7631752821377731
 30
0.0
 40
0.0055923277148106
 50
276.9923679326258252
 51
348.4154595637863281
  0
ARC
  5
9F15
  8
0
 10
290.1278835745781066
 20
59.7675055921504423
 30
0.0
 40
0.0271561556352741
 50
348.415459563786726
 51
359.0839944790077993
  0
LINE
  5
9F16
  8
0
 10
290.1473263015989801
 20
59.7578974048515192
 30
0.0
 11
290.1496889297990265
 21
59.7576245480515311
 31
0.0
  0
LINE
  5
9F17
  8
0
 10
290.1854387787342944
 20
59.7642078139392225
 30
0.0
 11
290.2002850013989814
 21
59.7576689013515221
 31
0.0
  0
ARC
  5
9F18
  8
0
 10
290.1998513079631152
 20
59.7633897528053311
 30
0.0
 40
0.0057372668887691
 50
274.3352575718740809
 51
349.3381827122755112
  0
ARC
  5
9F19
  8
0
 10
290.1741410485677193
 20
59.7682300135835121
 30
0.0
 40
0.0318991774186918
 50
349.338182712276307
 51
358.1732271476674896
  0
LINE
  5
9F1A
  8
0
 10
290.2377352537121737
 20
59.7642834218026024
 30
0.0
 11
290.2468487576990128
 21
59.7598973841515217
 31
0.0
  0
ARC
  5
9F1B
  8
0
 10
290.2458000688075117
 20
59.7657379632711567
 30
0.0
 40
0.0059339795115899
 50
280.1791205150099131
 51
10.3194342448705001
  0
ARC
  5
9F1C
  8
0
 10
290.0412305937426254
 20
59.7756836754683789
 30
0.0
 40
0.0121574050859054
 50
315.0771399256195764
 51
6.6798041468828426
  0
ARC
  5
9F1D
  8
0
 10
290.0944616272233247
 20
59.7705532336404772
 30
0.0
 40
0.0141016461111016
 50
163.9374299009365075
 51
208.1180533835299968
  0
ARC
  5
9F1E
  8
0
 10
290.0913201012182867
 20
59.7762801729985327
 30
0.0
 40
0.0134535132875756
 50
317.5363372697785849
 51
3.9035562001085671
  0
ARC
  5
9F1F
  8
0
 10
290.1423935280628825
 20
59.770692488036147
 30
0.0
 40
0.0106416563624957
 50
158.6683884283388011
 51
218.2172292642189007
  0
ARC
  5
9F20
  8
0
 10
290.1442530504328943
 20
59.7758088483293903
 30
0.0
 40
0.0119578676324019
 50
314.6109079563722162
 51
7.1522889527872584
  0
ARC
  5
9F21
  8
0
 10
290.1975170794740961
 20
59.7713987626230576
 30
0.0
 40
0.0140568521275356
 50
166.4499677426121025
 51
210.7679170679072911
  0
ARC
  5
9F22
  8
0
 10
290.1942758255307808
 20
59.7763984036497078
 30
0.0
 40
0.0132941866283727
 50
317.3705750728666999
 51
4.5242483421126352
  0
ARC
  5
9F23
  8
0
 10
290.247354021607407
 20
59.771347540442342
 30
0.0
 40
0.0127025106853509
 50
164.1754645050511101
 51
213.2881662728019023
  0
ARC
  5
9F24
  8
0
 10
290.2456598173914131
 20
59.7765047655164281
 30
0.0
 40
0.0133156176836321
 50
317.4108125705835732
 51
4.4840108444055833
  0
LINE
  5
9F25
  8
0
 10
290.2906748314414926
 20
59.7745152610691193
 30
0.0
 11
290.3052301731989928
 21
59.7679252638515166
 31
0.0
  0
ARC
  5
9F26
  8
0
 10
290.3054528573910034
 20
59.7718697051196486
 30
0.0
 40
0.0039507221070419
 50
266.7687856420225216
 51
328.7353165407691904
  0
ARC
  5
9F27
  8
0
 10
290.2972334927368934
 20
59.7768602205269772
 30
0.0
 40
0.0135665007728126
 50
328.7353165407658935
 51
3.0550069577291401
  0
ARC
  5
9F28
  8
0
 10
290.0442826460395054
 20
59.7808917515069567
 30
0.0
 40
0.0121929103973868
 50
163.7219827806320041
 51
214.8246893358243881
  0
ARC
  5
9F29
  8
0
 10
290.0475193386271826
 20
59.7907952426009004
 30
0.0
 40
0.0122426426168599
 50
163.9540163094185914
 51
214.2407667354297018
  0
LINE
  5
9F2A
  8
0
 10
290.0499170149287806
 20
59.8238036677944081
 30
0.0
 11
290.0689085620990113
 21
59.8270081023515203
 31
0.0
  0
LINE
  5
9F2B
  8
0
 10
290.0689085620990113
 20
59.8270081023515203
 30
0.0
 11
290.1007477267988861
 21
59.823796721951517
 31
0.0
  0
LINE
  5
9F2C
  8
0
 10
290.1007477267988861
 20
59.823796721951517
 30
0.0
 11
290.1194986602021118
 21
59.8272624995201525
 31
0.0
  0
LINE
  5
9F2D
  8
0
 10
290.1194986602021118
 20
59.8272624995201525
 30
0.0
 11
290.1533800433988972
 21
59.8239698868515219
 31
0.0
  0
LINE
  5
9F2E
  8
0
 10
290.1533800433988972
 20
59.8239698868515219
 30
0.0
 11
290.1717205243220974
 21
59.8272031681705982
 31
0.0
  0
LINE
  5
9F2F
  8
0
 10
290.1717205243220974
 20
59.8272031681705982
 30
0.0
 11
290.2050601204463192
 21
59.8240743799060368
 31
0.0
  0
LINE
  5
9F30
  8
0
 10
290.2050601204463192
 20
59.8240743799060368
 30
0.0
 11
290.2549659981988839
 21
59.8240929119515172
 31
0.0
  0
LINE
  5
9F31
  8
0
 10
290.2549659981988839
 20
59.8240929119515172
 30
0.0
 11
290.2633722299721057
 21
59.8253838082095086
 31
0.0
  0
LINE
  5
9F32
  8
0
 10
290.02062304609899
 20
59.8368909473515203
 30
0.0
 11
290.0530375892989809
 21
59.8337852428515191
 31
0.0
  0
LINE
  5
9F33
  8
0
 10
290.0530375892989809
 20
59.8337852428515191
 30
0.0
 11
290.0720289178311191
 21
59.8369872832686127
 31
0.0
  0
LINE
  5
9F34
  8
0
 10
290.0720289178311191
 20
59.8369872832686127
 30
0.0
 11
290.1044738126593074
 21
59.8338823649052074
 31
0.0
  0
LINE
  5
9F35
  8
0
 10
290.1044738126593074
 20
59.8338823649052074
 30
0.0
 11
290.1231869015988991
 21
59.8374279635515123
 31
0.0
  0
LINE
  5
9F36
  8
0
 10
290.1231869015988991
 20
59.8374279635515123
 30
0.0
 11
290.1552743917990256
 21
59.8338770270515212
 31
0.0
  0
LINE
  5
9F37
  8
0
 10
290.1552743917990256
 20
59.8338770270515212
 30
0.0
 11
290.1748459444989976
 21
59.8372377827515223
 31
0.0
  0
LINE
  5
9F38
  8
0
 10
290.1748459444989976
 20
59.8372377827515223
 30
0.0
 11
290.2066804821989763
 21
59.8339757570515189
 31
0.0
  0
LINE
  5
9F39
  8
0
 10
290.2066804821989763
 20
59.8339757570515189
 30
0.0
 11
290.2208060466966799
 21
59.8362923505033706
 31
0.0
  0
LINE
  5
9F3A
  8
0
 10
290.0468128853448775
 20
59.8138204962343991
 30
0.0
 11
290.0657877688665849
 21
59.8170241330663188
 31
0.0
  0
LINE
  5
9F3B
  8
0
 10
290.0657877688665849
 20
59.8170241330663188
 30
0.0
 11
290.0991273649462983
 21
59.813895344806042
 31
0.0
  0
LINE
  5
9F3C
  8
0
 10
290.0991273649462983
 20
59.813895344806042
 30
0.0
 11
290.1171938593221853
 21
59.8171228630705869
 31
0.0
  0
LINE
  5
9F3D
  8
0
 10
290.1171938593221853
 20
59.8171228630705869
 30
0.0
 11
290.151437878899003
 21
59.8140952624515094
 31
0.0
  0
LINE
  5
9F3E
  8
0
 10
290.151437878899003
 20
59.8140952624515094
 30
0.0
 11
290.1695090082491788
 21
59.8184330616184781
 31
0.0
  0
LINE
  5
9F3F
  8
0
 10
290.1695090082491788
 20
59.8184330616184781
 30
0.0
 11
290.2028439693988844
 21
59.8141939924515214
 31
0.0
  0
LINE
  5
9F40
  8
0
 10
290.2028439693988844
 20
59.8141939924515214
 30
0.0
 11
290.2200108859989882
 21
59.8173733625515212
 31
0.0
  0
LINE
  5
9F41
  8
0
 10
290.2200108859989882
 20
59.8173733625515212
 30
0.0
 11
290.2519515531989782
 21
59.8145118107515188
 31
0.0
  0
LINE
  5
9F42
  8
0
 10
290.2519515531989782
 20
59.8145118107515188
 30
0.0
 11
290.2714121308201243
 21
59.8174190531597887
 31
0.0
  0
LINE
  5
9F43
  8
0
 10
290.2714121308201243
 20
59.8174190531597887
 30
0.0
 11
290.295736826552627
 21
59.8150499179787403
 31
0.0
  0
LINE
  5
9F44
  8
0
 10
290.0412603267989766
 20
59.8039995897037286
 30
0.0
 11
290.0626671943755923
 21
59.8070425580643388
 31
0.0
  0
LINE
  5
9F45
  8
0
 10
290.0626671943755923
 20
59.8070425580643388
 30
0.0
 11
290.0945065777988816
 21
59.8038335717515324
 31
0.0
  0
LINE
  5
9F46
  8
0
 10
290.0945065777988816
 20
59.8038335717515324
 30
0.0
 11
290.1140732848666062
 21
59.8071412880652389
 31
0.0
  0
LINE
  5
9F47
  8
0
 10
290.1140732848666062
 20
59.8071412880652389
 30
0.0
 11
290.1456136346989751
 21
59.8047467352515199
 31
0.0
  0
LINE
  5
9F48
  8
0
 10
290.1456136345856862
 20
59.8047467352601103
 30
0.0
 11
290.1654793753220929
 21
59.8072400180694927
 31
0.0
  0
LINE
  5
9F49
  8
0
 10
290.1654793753220929
 20
59.8072400180694927
 30
0.0
 11
290.197894137298988
 21
59.8041367077515318
 31
0.0
  0
LINE
  5
9F4A
  8
0
 10
290.197894137298988
 20
59.8041367077515318
 30
0.0
 11
290.2160696921545195
 21
59.8074968094247978
 31
0.0
  0
LINE
  5
9F4B
  8
0
 10
290.2160696921545195
 20
59.8074968094247978
 30
0.0
 11
290.2493015963889889
 21
59.8042353033113088
 31
0.0
  0
LINE
  5
9F4C
  8
0
 10
290.2493015963889889
 20
59.8042353033113088
 30
0.0
 11
290.2682964019988958
 21
59.8074905175515212
 31
0.0
  0
LINE
  5
9F4D
  8
0
 10
290.2682964019988958
 20
59.8074905175515212
 30
0.0
 11
290.3013571657988905
 21
59.8043029267515109
 31
0.0
  0
LINE
  5
9F4E
  8
0
 10
290.3013571657988905
 20
59.8043029267515109
 30
0.0
 11
290.3150988484775894
 21
59.8067324405740024
 31
0.0
  0
LINE
  5
9F4F
  8
0
 10
290.0399799127990264
 20
59.7937532667515228
 30
0.0
 11
290.0595466198665804
 21
59.7970609829652275
 31
0.0
  0
LINE
  5
9F50
  8
0
 10
290.0595466198665804
 20
59.7970609829652275
 30
0.0
 11
290.0926033898990113
 21
59.7939261761515226
 31
0.0
  0
LINE
  5
9F51
  8
0
 10
290.0926033898990113
 20
59.7939261761515226
 30
0.0
 11
290.1109529290989144
 21
59.7971621071515216
 31
0.0
  0
LINE
  5
9F52
  8
0
 10
290.1109529290989144
 20
59.7971621071515216
 30
0.0
 11
290.143367472299019
 21
59.7940564026515204
 31
0.0
  0
LINE
  5
9F53
  8
0
 10
290.143367472299019
 20
59.7940564026515204
 30
0.0
 11
290.1623588008221191
 21
59.7972584429706018
 31
0.0
  0
LINE
  5
9F54
  8
0
 10
290.1623588008221191
 20
59.7972584429706018
 30
0.0
 11
290.194198184298898
 21
59.7940494567515302
 31
0.0
  0
LINE
  5
9F55
  8
0
 10
290.194198184298898
 20
59.7940494567515302
 30
0.0
 11
290.2137651100990183
 21
59.797359567151517
 31
0.0
  0
LINE
  5
9F56
  8
0
 10
290.2137651100990183
 20
59.797359567151517
 30
0.0
 11
290.2480089108989887
 21
59.794329572351522
 31
0.0
  0
LINE
  5
9F57
  8
0
 10
290.2480089108989887
 20
59.794329572351522
 30
0.0
 11
290.2651709818201198
 21
59.7974559029610901
 31
0.0
  0
LINE
  5
9F58
  8
0
 10
290.2651709818201198
 20
59.7974559029610901
 30
0.0
 11
290.2975857437990044
 21
59.7943525926515207
 31
0.0
  0
LINE
  5
9F59
  8
0
 10
290.2975857437990044
 20
59.7943525926515207
 30
0.0
 11
290.3165770723289256
 21
59.7975546330584677
 31
0.0
  0
LINE
  5
9F5A
  8
0
 10
290.3165770723289256
 20
59.7975546330584677
 30
0.0
 11
290.3338096465640774
 21
59.7958651891367197
 31
0.0
  0
LINE
  5
9F5B
  8
0
 10
290.0530526576831107
 20
59.833785094206803
 30
0.0
 11
290.0689085620990113
 21
59.8270081023515203
 31
0.0
  0
LINE
  5
9F5C
  8
0
 10
290.0499170150951045
 20
59.8238036678224603
 30
0.0
 11
290.0657877688668123
 21
59.8170241330663117
 31
0.0
  0
LINE
  5
9F5D
  8
0
 10
290.0462711140988858
 20
59.8137925092515204
 30
0.0
 11
290.0626671943755923
 21
59.8070425580643388
 31
0.0
  0
LINE
  5
9F5E
  8
0
 10
290.0412603267997724
 20
59.8039995897036505
 30
0.0
 11
290.0595466198665804
 21
59.7970609829652275
 31
0.0
  0
LINE
  5
9F5F
  8
0
 10
290.0399799127990264
 20
59.7937532667515228
 30
0.0
 11
290.0560798924989854
 21
59.7870618238515235
 31
0.0
  0
LINE
  5
9F60
  8
0
 10
290.0374347167988844
 20
59.7838773675515185
 30
0.0
 11
290.0533054708665759
 21
59.77709783276633
 31
0.0
  0
ARC
  5
9F61
  8
0
 10
290.0417796092983735
 20
59.786174875408733
 30
0.0
 40
0.0146713402363709
 50
321.7791136706665043
 51
3.3407988119638099
  0
ARC
  5
9F62
  8
0
 10
290.0482913575950192
 20
59.7958565742335182
 30
0.0
 40
0.0113195198305916
 50
310.4703467266817825
 51
6.1078927234558922
  0
ARC
  5
9F63
  8
0
 10
290.049634756367027
 20
59.8056383488705805
 30
0.0
 40
0.0131078695411551
 50
319.1282801174211272
 51
6.1497368074062866
  0
ARC
  5
9F64
  8
0
 10
290.0524350629352739
 20
59.8157200504121178
 30
0.0
 40
0.0134162359571756
 50
319.6999549166843053
 51
5.5780618795597459
  0
ARC
  5
9F65
  8
0
 10
290.0538819639456847
 20
59.8262879059101067
 30
0.0
 40
0.0150852801802606
 50
322.1139164882670798
 51
2.7204506840254781
  0
ARC
  5
9F66
  8
0
 10
290.0567925425560247
 20
59.8362485795862113
 30
0.0
 40
0.0152838520924416
 50
322.7749624395543719
 51
2.7593554496709789
  0
ARC
  5
9F67
  8
0
 10
290.0651043947505059
 20
59.8438202713900296
 30
0.0
 40
0.009751494202541
 50
315.4917959190566989
 51
349.4777508250460869
  0
ARC
  5
9F68
  8
0
 10
290.0583292330795189
 20
59.8393966741025878
 30
0.0
 40
0.0077027317777599
 50
158.8402114682712067
 51
226.7623086775953993
  0
ARC
  5
9F69
  8
0
 10
290.0576139479662174
 20
59.8304609862813308
 30
0.0
 40
0.0101765744966517
 50
158.1308226596219129
 51
220.8575544613674992
  0
ARC
  5
9F6A
  8
0
 10
290.1918328175526085
 20
59.7986232975524601
 30
0.0
 40
0.1506684422458511
 50
174.034003892814809
 51
177.9550843420574893
  0
ARC
  5
9F6B
  8
0
 10
290.0505931748347734
 20
59.8002087064008805
 30
0.0
 40
0.0124223199165162
 50
161.0775783814740976
 51
211.3097548085368089
  0
LINE
  5
9F6C
  8
0
 10
290.101244833998976
 20
59.7671974036515223
 30
0.0
 11
290.0857371596376879
 21
59.7739928797904625
 31
0.0
  0
LINE
  5
9F6D
  8
0
 10
290.1047424031000901
 20
59.7771960507043971
 30
0.0
 11
290.0897581313121236
 21
59.7839503819025992
 31
0.0
  0
LINE
  5
9F6E
  8
0
 10
290.1069969936183952
 20
59.7873400767962977
 30
0.0
 11
290.0926033898990113
 21
59.7939261761515226
 31
0.0
  0
LINE
  5
9F6F
  8
0
 10
290.1109527103665187
 20
59.7971597129652395
 30
0.0
 11
290.0945065777988816
 21
59.8038335717515324
 31
0.0
  0
LINE
  5
9F70
  8
0
 10
290.1140732848666062
 20
59.8071412880652389
 30
0.0
 11
290.0991273649462983
 21
59.813895344806042
 31
0.0
  0
LINE
  5
9F71
  8
0
 10
290.1171938593221853
 20
59.8171228630705869
 30
0.0
 11
290.1007477267988861
 21
59.823796721951517
 31
0.0
  0
LINE
  5
9F72
  8
0
 10
290.1194986605186159
 20
59.8272624994893789
 30
0.0
 11
290.1044436797989761
 21
59.8338839728515168
 31
0.0
  0
LINE
  5
9F73
  8
0
 10
290.1223702793665211
 20
59.8372732368417175
 30
0.0
 11
290.1120901427507874
 21
59.841516235582823
 31
0.0
  0
ARC
  5
9F74
  8
0
 10
290.1099703342993053
 20
59.8240965802558975
 30
0.0
 40
0.0100405201625821
 50
316.0080449241376073
 51
18.3797867111532689
  0
ARC
  5
9F75
  8
0
 10
290.1152468513402027
 20
59.8338993836276174
 30
0.0
 40
0.0078820119485931
 50
302.644978480961413
 51
25.3435339331220995
  0
ARC
  5
9F76
  8
0
 10
290.1199746332704876
 20
59.8425755836606328
 30
0.0
 40
0.0060676734095829
 50
301.9653919743295205
 51
347.1747024555344865
  0
ARC
  5
9F77
  8
0
 10
290.109491341311184
 20
59.8393090294416297
 30
0.0
 40
0.0073908241599938
 50
161.2382159572873945
 51
227.243330725936886
  0
ARC
  5
9F78
  8
0
 10
290.113312745680787
 20
59.83042481397014
 30
0.0
 40
0.0142060305261378
 50
163.9885840074358043
 51
207.8118058233837075
  0
ARC
  5
9F79
  8
0
 10
290.1027230810395281
 20
59.8203212255399208
 30
0.0
 40
0.0073634989936071
 50
147.9650922831401942
 51
240.7700275606023013
  0
ARC
  5
9F7A
  8
0
 10
290.1077903406271048
 20
59.8105475475295734
 30
0.0
 40
0.0148840796028135
 50
164.8765698856024073
 51
206.8132777750523132
  0
ARC
  5
9F7B
  8
0
 10
290.0958348277558798
 20
59.8001038030308507
 30
0.0
 40
0.0069717475917813
 50
143.3687877166007922
 51
242.3865075943913041
  0
ARC
  5
9F7C
  8
0
 10
290.0933990889895995
 20
59.7904043416853312
 30
0.0
 40
0.0074101396536447
 50
147.0011354928583103
 51
240.5707763668739858
  0
ARC
  5
9F7D
  8
0
 10
290.0962369456415786
 20
59.7810228518786673
 30
0.0
 40
0.012635901775834
 50
164.1460180496140993
 51
213.803685109786187
  0
ARC
  5
9F7E
  8
0
 10
290.097725171132879
 20
59.7840782497350816
 30
0.0
 40
0.0098288457094267
 50
315.5566108404319721
 51
19.3818715323529887
  0
ARC
  5
9F7F
  8
0
 10
290.1031475613062867
 20
59.7945907485077868
 30
0.0
 40
0.0082091637450844
 50
297.9641450589871852
 51
18.2426049164471102
  0
ARC
  5
9F80
  8
0
 10
290.1003548576342155
 20
59.805961392535643
 30
0.0
 40
0.0137690740134885
 50
320.2697282865992179
 51
4.9158022004340678
  0
ARC
  5
9F81
  8
0
 10
290.1086871542835866
 20
59.8143037582899524
 30
0.0
 40
0.0089616618088419
 50
306.9429255705767901
 51
18.3350916074671488
  0
LINE
  5
9F82
  8
0
 10
290.152650924499028
 20
59.7672961337515218
 30
0.0
 11
290.1377683313990019
 21
59.7740617560515233
 31
0.0
  0
LINE
  5
9F83
  8
0
 10
290.1396715192989859
 20
59.7839691516515188
 30
0.0
 11
290.1561090701879948
 21
59.7772961351039527
 31
0.0
  0
LINE
  5
9F84
  8
0
 10
290.1592382263665968
 20
59.787276867866332
 30
0.0
 11
290.1433674723862737
 21
59.7940564026662429
 31
0.0
  0
LINE
  5
9F85
  8
0
 10
290.1456136346989751
 20
59.8047467352515199
 30
0.0
 11
290.1623588008221759
 21
59.7972584429705805
 31
0.0
  0
LINE
  5
9F86
  8
0
 10
290.151437878899003
 20
59.8140952624515094
 30
0.0
 11
290.1654793753219792
 21
59.8072400180694927
 31
0.0
  0
LINE
  5
9F87
  8
0
 10
290.1533800433988972
 20
59.8239698868515219
 30
0.0
 11
290.1695090082491788
 21
59.8184330616184781
 31
0.0
  0
LINE
  5
9F88
  8
0
 10
290.1552743917990256
 20
59.8338770270515212
 30
0.0
 11
290.1717205243219837
 21
59.8272031681705982
 31
0.0
  0
ARC
  5
9F89
  8
0
 10
290.1632665929726045
 20
59.839157108324649
 30
0.0
 40
0.0095788589012665
 50
171.988907122696304
 51
213.4509129032778105
  0
ARC
  5
9F8A
  8
0
 10
290.1548769641005947
 20
59.8543612234386373
 30
0.0
 40
0.0263053682565812
 50
319.3868451160706741
 51
326.1392278865531011
  0
ARC
  5
9F8B
  8
0
 10
290.1570807896338238
 20
59.8372669520756588
 30
0.0
 40
0.0177651788122399
 50
325.4942242356328848
 51
359.9059238337168836
  0
ARC
  5
9F8C
  8
0
 10
290.1566016347381947
 20
59.8263517396532691
 30
0.0
 40
0.0151428449364684
 50
328.4708701246120199
 51
3.2232385299565758
  0
ARC
  5
9F8D
  8
0
 10
290.156019307931615
 20
59.8169676387367488
 30
0.0
 40
0.0135690633014529
 50
314.2011189632045784
 51
6.1998844189326201
  0
ARC
  5
9F8E
  8
0
 10
290.1518281316826915
 20
59.8060292682209322
 30
0.0
 40
0.0137048301010185
 50
320.2096278593061811
 51
5.0683891608468699
  0
ARC
  5
9F8F
  8
0
 10
290.1515828166151891
 20
59.7951487907386365
 30
0.0
 40
0.0109805495386722
 50
314.2011194441889756
 51
11.0768980569557591
  0
ARC
  5
9F90
  8
0
 10
290.1455931542737972
 20
59.7860660615140986
 30
0.0
 40
0.0136986876904318
 50
320.2015700369387901
 51
5.0709050066323043
  0
ARC
  5
9F91
  8
0
 10
290.1437072570520854
 20
59.7808613904991688
 30
0.0
 40
0.0090280599541037
 50
156.8598011894488877
 51
228.865440010670909
  0
ARC
  5
9F92
  8
0
 10
290.1505735104432233
 20
59.7910990278297305
 30
0.0
 40
0.0124925855168409
 50
164.1202505248205057
 51
214.2582518803901905
  0
ARC
  5
9F93
  8
0
 10
290.1548804698327899
 20
59.8015089909322413
 30
0.0
 40
0.0137145974893901
 50
165.0409355518065126
 51
212.9157711523781131
  0
ARC
  5
9F94
  8
0
 10
290.1601183484872877
 20
59.810961519012551
 30
0.0
 40
0.0157800589124096
 50
166.3569827888323971
 51
203.1935106154072912
  0
ARC
  5
9F95
  8
0
 10
290.1611874760005207
 20
59.8209246165242376
 30
0.0
 40
0.013731807483389
 50
164.9095543340521033
 51
208.8605765758522921
  0
ARC
  5
9F96
  8
0
 10
290.1626863760952801
 20
59.8308355967280221
 30
0.0
 40
0.0121092251458798
 50
163.180383991065213
 51
214.1413278707586869
  0
LINE
  5
9F97
  8
0
 10
290.2041003476884953
 20
59.7674421676946324
 30
0.0
 11
290.1894497377122093
 21
59.774166266902597
 31
0.0
  0
LINE
  5
9F98
  8
0
 10
290.1925022486395278
 20
59.7841785832809478
 30
0.0
 11
290.2075237423221097
 21
59.7773940228694869
 31
0.0
  0
LINE
  5
9F99
  8
0
 10
290.194198184298898
 20
59.7940494567515302
 30
0.0
 11
290.2106443168311216
 21
59.7873755979686123
 31
0.0
  0
LINE
  5
9F9A
  8
0
 10
290.2137651100990183
 20
59.797359567151517
 30
0.0
 11
290.197894137298988
 21
59.8041367077515318
 31
0.0
  0
LINE
  5
9F9B
  8
0
 10
290.2160696926478067
 20
59.8074968095160102
 30
0.0
 11
290.2028423758035274
 21
59.8141941951024521
 31
0.0
  0
LINE
  5
9F9C
  8
0
 10
290.2039513398348163
 20
59.8241784345488199
 30
0.0
 11
290.2199208932083252
 21
59.8173566955871223
 31
0.0
  0
LINE
  5
9F9D
  8
0
 10
290.2228323522285791
 20
59.8240809794454691
 30
0.0
 11
290.2073044396415185
 21
59.834078086110722
 31
0.0
  0
ARC
  5
9F9E
  8
0
 10
290.2103531310455082
 20
59.8383237939077901
 30
0.0
 40
0.0052269067310499
 50
178.5494026033105115
 51
234.3192202788403051
  0
ARC
  5
9F9F
  8
0
 10
290.2073411271176724
 20
59.8285479716307123
 30
0.0
 40
0.0055302361733426
 50
90.3801018428926852
 51
232.1965052750717007
  0
ARC
  5
9FA0
  8
0
 10
290.2039085406084951
 20
59.8191459513688812
 30
0.0
 40
0.0050650971342613
 50
89.5679410494995381
 51
257.8672252778467282
  0
ARC
  5
9FA1
  8
0
 10
290.2095459799319883
 20
59.8116402983472568
 30
0.0
 40
0.0138589071925894
 50
165.75758389243191
 51
212.7808537702632918
  0
ARC
  5
9FA2
  8
0
 10
290.2139881991712969
 20
59.801574166692852
 30
0.0
 40
0.0211722919957005
 50
171.7778484429072137
 51
200.8181854310824122
  0
ARC
  5
9FA3
  8
0
 10
290.1969836338482196
 20
59.7907681022076716
 30
0.0
 40
0.0079689756603316
 50
152.2427466143647052
 51
235.7812517680289943
  0
ARC
  5
9FA4
  8
0
 10
290.1951577918799785
 20
59.7806407695977668
 30
0.0
 40
0.0092590631369956
 50
154.2624273065893021
 51
223.5587023987405928
  0
ARC
  5
9FA5
  8
0
 10
290.1981986818963151
 20
59.7858280818172005
 30
0.0
 40
0.0125414765944592
 50
318.0667663162756753
 51
7.0878973238988543
  0
ARC
  5
9FA6
  8
0
 10
290.199092699110679
 20
59.7964661414974898
 30
0.0
 40
0.0146995868515758
 50
321.7990297771996211
 51
3.4845257007761958
  0
ARC
  5
9FA7
  8
0
 10
290.208748720806625
 20
59.8161428435810123
 30
0.0
 40
0.011329189810215
 50
310.2560366179733933
 51
6.2354775578471937
  0
ARC
  5
9FA8
  8
0
 10
290.2135067964101722
 20
59.8240564316472501
 30
0.0
 40
0.0093255881271265
 50
314.2224146975358963
 51
0.1508201777072915
  0
ARC
  5
9FA9
  8
0
 10
290.1837711630236072
 20
59.8415366133357125
 30
0.0
 40
0.0427840584401967
 50
335.9211245371935775
 51
351.3383804026790926
  0
ARC
  5
9FAA
  8
0
 10
290.6741333794756201
 20
60.5166751084515226
 30
0.0
 40
0.0197
 50
0.0000587652257575
 51
90.0
  0
ARC
  5
9FAB
  8
0
 10
290.8156711085990196
 20
60.5166751084515226
 30
0.0
 40
0.0197
 50
359.9999999999976126
 51
90.0000000000032543
  0
LINE
  5
9FAC
  8
0
 10
290.6938333794756204
 20
60.5166751286567575
 30
0.0
 11
290.6938338738988818
 21
60.0346150250186525
 31
0.0
  0
LINE
  5
9FAD
  8
0
 10
290.6938338738988818
 20
60.0346150250186525
 30
0.0
 11
290.7892236694823964
 21
59.7286531493473802
 31
0.0
  0
LINE
  5
9FAE
  8
0
 10
290.7892236694823964
 20
59.7286531493473802
 30
0.0
 11
290.7972532560988839
 21
59.541317394066283
 31
0.0
  0
LINE
  5
9FAF
  8
0
 10
290.088510451828995
 20
59.9815708862375487
 30
0.0
 11
290.0885104513183137
 21
59.9846234847426771
 31
0.0
  0
ARC
  5
9FB0
  8
0
 10
290.1756600198419278
 20
58.046176503783343
 30
0.0
 40
1.935353686147177
 50
86.092840718710363
 51
87.0612449768391912
  0
ARC
  5
9FB1
  8
0
 10
290.0477631102614282
 20
55.5548065481400286
 30
0.0
 40
4.4300043381147853
 50
87.0612449768391912
 51
89.4729839042845185
  0
ARC
  5
9FB2
  8
0
 10
195.5759603703100993
 20
1191.9980550008499449
 30
0.0
 40
1135.9778465107590364
 50
274.7822648515509059
 51
274.783570507107811
  0
ARC
  5
9FB3
  8
0
 10
290.0603147365110885
 20
56.3772850697944605
 30
0.0
 40
3.6043960999012432
 50
86.4780130797163054
 51
89.5517940063641049
  0
LINE
  5
9FB4
  8
0
 10
290.2969212690184122
 20
59.9739308388426906
 30
0.0
 11
290.3220933550182963
 21
59.9760371847426867
 31
0.0
  0
LINE
  5
9FB5
  8
0
 10
290.3220933550182963
 20
59.9760371847426867
 30
0.0
 11
290.3610677445183228
 21
59.9727758918426801
 31
0.0
  0
LINE
  5
9FB6
  8
0
 10
290.3610677445183228
 20
59.9727758918426801
 30
0.0
 11
290.335895658518325
 21
59.9706695459426768
 31
0.0
  0
LINE
  5
9FB7
  8
0
 10
290.335895658518325
 20
59.9706695459426768
 30
0.0
 11
290.2969212689678216
 21
59.9739308389104124
 31
0.0
  0
LINE
  5
9FB8
  8
0
 10
290.335895658518325
 20
59.9748822377381074
 30
0.0
 11
290.335895658518325
 21
59.9706695459426768
 31
0.0
  0
LINE
  5
9FB9
  8
0
 10
290.3471607114183826
 20
59.9693991611426895
 30
0.0
 11
290.3729562273184115
 21
59.9715576743426908
 31
0.0
  0
ARC
  5
9FBA
  8
0
 10
290.4481472113935183
 20
59.9317785881137013
 30
0.0
 40
0.0264841733075543
 50
54.0937539836032073
 51
71.7895569774305358
  0
ARC
  5
9FBB
  8
0
 10
290.3927201735215249
 20
59.7632997954439205
 30
0.0
 40
0.2038461199216317
 50
71.7895569774305358
 51
80.714833118367082
  0
ARC
  5
9FBC
  8
0
 10
290.2743879986236948
 20
59.0395133845318085
 30
0.0
 40
0.9372418331877111
 50
80.714833118367082
 51
83.9631308239647751
  0
LINE
  5
9FBD
  8
0
 10
290.4636791371182767
 20
59.9532301782426913
 30
0.0
 11
290.4271987687183127
 21
59.9532301782426913
 31
0.0
  0
ARC
  5
9FBE
  8
0
 10
290.4080177218145877
 20
59.9229794086245633
 30
0.0
 40
0.0358192912103322
 50
57.6225210929709917
 51
74.6796012025924085
  0
ARC
  5
9FBF
  8
0
 10
290.3100515098415144
 20
59.5354383084721519
 30
0.0
 40
0.4355446182565112
 50
75.720204083331339
 51
85.1123686168174771
  0
LINE
  5
9FC0
  8
0
 10
290.4655670709183255
 20
59.9516653366426908
 30
0.0
 11
290.4299683655182776
 21
59.9516653366426908
 31
0.0
  0
LINE
  5
9FC1
  8
0
 10
290.4655670709183255
 20
59.9470531720426791
 30
0.0
 11
290.4299683655182776
 21
59.9470531720426791
 31
0.0
  0
ARC
  5
9FC2
  8
0
 10
290.4277392664272952
 20
59.9493592543753522
 30
0.0
 40
0.0032073195167709
 50
314.0275160226365756
 51
45.9724822979475221
  0
ARC
  5
9FC3
  8
0
 10
290.4630479581093141
 20
59.9493592543426885
 30
0.0
 40
0.0034152518089794
 50
317.5279450100711074
 51
42.4720549898854287
  0
ARC
  5
9FC4
  8
0
 10
290.4008228961661189
 20
59.9912944611867687
 30
0.0
 40
0.0528572441343424
 50
283.5756751425381026
 51
299.9339973074402224
  0
LINE
  5
9FC5
  8
0
 10
290.4635643751183238
 20
59.9454469076426832
 30
0.0
 11
290.4271987687183127
 21
59.9454883305426875
 31
0.0
  0
ARC
  5
9FC6
  8
0
 10
290.39644460175532
 20
60.0978239239919318
 30
0.0
 40
0.1665047119087037
 50
275.7858523873675267
 51
293.7727662867729919
  0
ARC
  5
9FC7
  8
0
 10
290.4650821785015182
 20
60.0659653102305811
 30
0.0
 40
0.1169659748689074
 50
283.2431382855966717
 51
292.9390964181300774
  0
ARC
  5
9FC8
  8
0
 10
290.5043359189705825
 20
59.9732153031313118
 30
0.0
 40
0.0162514279666377
 50
292.9390964181303048
 51
321.8352996980732996
  0
ARC
  5
9FC9
  8
0
 10
290.5148622678984793
 20
59.964942379449333
 30
0.0
 40
0.002863176101623
 50
321.8352996980772218
 51
25.5759036741885915
  0
ARC
  5
9FCA
  8
0
 10
290.5092066286446197
 20
59.96223557510028
 30
0.0
 40
0.0091331876768925
 50
25.5759036741936683
 51
42.5382417468670013
  0
ARC
  5
9FCB
  8
0
 10
290.5084129285452264
 20
59.9615073077971914
 30
0.0
 40
0.0102103752708429
 50
42.5382417468666887
 51
65.424972183762037
  0
ARC
  5
9FCC
  8
0
 10
290.1459217033964819
 20
59.1688452201748234
 30
0.0
 40
0.8818255847891519
 50
65.424972183762037
 51
65.8977098601539808
  0
ARC
  5
9FCD
  8
0
 10
290.4471291884951256
 20
59.8011574656276821
 30
0.0
 40
0.1824055413846817
 50
71.1608785962879722
 51
79.625601492440083
  0
ARC
  5
9FCE
  8
0
 10
290.3802541663617944
 20
59.467164871481458
 30
0.0
 40
0.5230112387862434
 50
79.0081135709052518
 51
81.8449295234120058
  0
ARC
  5
9FCF
  8
0
 10
290.426033169773973
 20
59.8065128928995478
 30
0.0
 40
0.1806229415956117
 50
80.9499202721220996
 51
84.8992024044512732
  0
ARC
  5
9FD0
  8
0
 10
290.2326606410159116
 20
58.3314369034440006
 30
0.0
 40
1.668182343110431
 50
82.787789799129186
 51
86.7806976968236796
  0
ARC
  5
9FD1
  8
0
 10
290.1057987057697005
 20
56.5716824944818981
 30
0.0
 40
3.4323968699243732
 50
86.3160080554302738
 51
89.0824636321307253
  0
ARC
  5
9FD2
  8
0
 10
290.0426011570601759
 20
54.5291587166862612
 30
0.0
 40
5.4757555977276171
 50
88.763514443771399
 51
90.0140298292009646
  0
ARC
  5
9FD3
  8
0
 10
290.3588789200558153
 20
60.3763323681827586
 30
0.0
 40
0.4503968027425938
 50
276.9289179857427143
 51
283.8213108025504994
  0
ARC
  5
9FD4
  8
0
 10
290.4532768923310186
 20
59.9926288149599571
 30
0.0
 40
0.0552520268369956
 50
283.8213108025504994
 51
299.7642697244839951
  0
ARC
  5
9FD5
  8
0
 10
290.4767274563229762
 20
59.9516225467866377
 30
0.0
 40
0.0080138750839454
 50
299.764269724484393
 51
323.9134104260670028
  0
ARC
  5
9FD6
  8
0
 10
290.4793683188000841
 20
59.949697743374827
 30
0.0
 40
0.004745997669232
 50
323.9134104260659797
 51
3.6958983530181451
  0
ARC
  5
9FD7
  8
0
 10
290.4814777904242078
 20
59.9498340051434724
 30
0.0
 40
0.0026321296974626
 50
3.6958983530136762
 51
50.615854830724011
  0
ARC
  5
9FD8
  8
0
 10
290.4737859641384148
 20
59.9435679204219412
 30
0.0
 40
0.0125117636099501
 50
41.560783673103991
 51
60.4798921381034305
  0
ARC
  5
9FD9
  8
0
 10
290.4390182992123073
 20
59.8718415869317013
 30
0.0
 40
0.0921982898952324
 50
63.6430279146696165
 51
80.8387792192686589
  0
ARC
  5
9FDA
  8
0
 10
291.1385479994032721
 20
64.20946812095751
 30
0.0
 40
4.3014728118298402
 50
260.3313395023762951
 51
260.8387792192687016
  0
ARC
  5
9FDB
  8
0
 10
290.2100730910241282
 20
58.3070272669369984
 30
0.0
 40
1.674790889573966
 50
82.9332646128354298
 51
86.7108542576009
  0
ARC
  5
9FDC
  8
0
 10
289.2653366409203954
 20
27.2948799347724815
 30
0.0
 40
32.700747715404539
 50
88.176032799017193
 51
88.6403334529917544
  0
ARC
  5
9FDD
  8
0
 10
290.437498337533782
 20
60.0268728138637826
 30
0.0
 40
0.0928701347962769
 50
297.7261507598254866
 51
304.4375781727509889
  0
ARC
  5
9FDE
  8
0
 10
290.4858136163231279
 20
59.9564093114854586
 30
0.0
 40
0.0074331911951466
 50
304.4375781727508183
 51
324.6609020930188763
  0
ARC
  5
9FDF
  8
0
 10
290.488632426587003
 20
59.9544105933529607
 30
0.0
 40
0.0039776788631037
 50
324.6609020930306997
 51
345.9395203629222806
  0
ARC
  5
9FE0
  8
0
 10
290.4855717035399039
 20
59.9551771498671116
 30
0.0
 40
0.0071329339178445
 50
345.9395203629263165
 51
0.0668007847432717
  0
ARC
  5
9FE1
  8
0
 10
290.4893604008364036
 20
59.9551815670871804
 30
0.0
 40
0.0033442340462296
 50
0.0668007847489712
 51
48.0299823704168034
  0
ARC
  5
9FE2
  8
0
 10
290.478283116100215
 20
59.9454392551586608
 30
0.0
 40
0.0180775238086453
 50
42.5676779903492672
 51
63.3127279824571616
  0
ARC
  5
9FE3
  8
0
 10
290.4593998870880114
 20
59.9098099795504524
 30
0.0
 40
0.058398578126027
 50
62.4593395947451597
 51
71.8681397414442387
  0
ARC
  5
9FE4
  8
0
 10
290.3058478146327843
 20
59.2687997217162206
 30
0.0
 40
0.7173663671840157
 50
76.1498162653101218
 51
86.2384563057315887
  0
ARC
  5
9FE5
  8
0
 10
290.0669726859405273
 20
56.6349519824077277
 30
0.0
 40
3.3618507683745742
 50
85.1208955709372788
 51
88.7571579970795028
  0
ARC
  5
9FE6
  8
0
 10
289.9309144188061964
 20
50.3635661282406915
 30
0.0
 40
9.6347123469447489
 50
88.7571579970827571
 51
89.3437797816500137
  0
ARC
  5
9FE7
  8
0
 10
290.2446545618906839
 20
60.3838595971734406
 30
0.0
 40
0.4889484449797027
 50
299.9465509459956252
 51
302.7178701339792042
  0
ARC
  5
9FE8
  8
0
 10
290.4799923324590054
 20
59.9681208266187795
 30
0.0
 40
0.0109462940860922
 50
317.1304446559854
 51
330.5416714413698855
  0
ARC
  5
9FE9
  8
0
 10
290.485891231129699
 20
59.9647890516102322
 30
0.0
 40
0.0041715077253205
 50
330.5416714413644854
 51
356.8689544421254141
  0
ARC
  5
9FEA
  8
0
 10
290.4851850125596116
 20
59.964827682837047
 30
0.0
 40
0.0048787820994861
 50
356.8689544421278015
 51
22.9129156918632013
  0
ARC
  5
9FEB
  8
0
 10
290.4829148783625214
 20
59.9638681375018194
 30
0.0
 40
0.0073433787242951
 50
22.9129156918661998
 51
49.3614816560871787
  0
ARC
  5
9FEC
  8
0
 10
290.4676212769805943
 20
59.9460490445256582
 30
0.0
 40
0.0308255915187175
 50
49.3614816560871787
 51
70.4259004900756906
  0
ARC
  5
9FED
  8
0
 10
290.3802953411124008
 20
59.7004580720198419
 30
0.0
 40
0.2914800464041437
 50
70.4259004900756906
 51
73.8035665300453161
  0
ARC
  5
9FEE
  8
0
 10
290.3838063370021132
 20
59.7125458075836377
 30
0.0
 40
0.2788927336171521
 50
73.8035665300453161
 51
85.1122739243513422
  0
ARC
  5
9FEF
  8
0
 10
290.6742371183141813
 20
60.0346674924124102
 30
0.0
 40
0.0195968258213989
 50
323.6390222856676928
 51
359.8465994522272808
  0
LINE
  5
9FF0
  8
0
 10
290.2555062487762143
 20
59.7675409162842826
 30
0.0
 11
290.2408558282122044
 21
59.7742649969026019
 31
0.0
  0
LINE
  5
9FF1
  8
0
 10
290.2437010867989784
 20
59.7842407910515234
 30
0.0
 11
290.2589346784989743
 21
59.7775457923515177
 31
0.0
  0
LINE
  5
9FF2
  8
0
 10
290.2620504073290135
 20
59.7874743279591101
 30
0.0
 11
290.2480070911141752
 21
59.7943297333715691
 31
0.0
  0
LINE
  5
9FF3
  8
0
 10
290.2651709818201766
 20
59.797455902961083
 30
0.0
 11
290.2493015963889889
 21
59.8042353033113088
 31
0.0
  0
LINE
  5
9FF4
  8
0
 10
290.2682964019988958
 20
59.8074905175515212
 30
0.0
 11
290.2519515531989782
 21
59.8145118107515188
 31
0.0
  0
LINE
  5
9FF5
  8
0
 10
290.2714121308201243
 20
59.8174190531597887
 30
0.0
 11
290.2549659981988839
 21
59.8240929119515172
 31
0.0
  0
ARC
  5
9FF6
  8
0
 10
290.2634571440570994
 20
59.8295637467296473
 30
0.0
 40
0.0101009698125418
 50
187.840046040784614
 51
212.7936333011068086
  0
ARC
  5
9FF7
  8
0
 10
290.2630929436375027
 20
59.8208911970200319
 30
0.0
 40
0.0128385026411436
 50
165.5663159585114101
 51
209.7947788706212009
  0
ARC
  5
9FF8
  8
0
 10
290.25719481868299
 20
59.8108536635396604
 30
0.0
 40
0.0103007596949055
 50
156.9239736703725896
 51
219.9793782912387883
  0
ARC
  5
9FF9
  8
0
 10
290.2506456215386947
 20
59.7913684641156706
 30
0.0
 40
0.0099513961864548
 50
159.097868058007009
 51
225.7456158171056018
  0
ARC
  5
9FFA
  8
0
 10
290.2458705933257761
 20
59.7810367187383775
 30
0.0
 40
0.0084263922153176
 50
153.8360632081036101
 51
233.4783849553022037
  0
ARC
  5
9FFB
  8
0
 10
290.2475624326363004
 20
59.7865677297815168
 30
0.0
 40
0.014516312581058
 50
321.5739969668111939
 51
3.580666663601705
  0
ARC
  5
9FFC
  8
0
 10
290.2505018234494969
 20
59.7965633874094422
 30
0.0
 40
0.0146962849493845
 50
321.7962619830013864
 51
3.4817548114523831
  0
ARC
  5
9FFD
  8
0
 10
290.2542499147299964
 20
59.806348779678828
 30
0.0
 40
0.0140837836785853
 50
320.8445412665544154
 51
4.4334757550412593
  0
ARC
  5
9FFE
  8
0
 10
290.2567429722374754
 20
59.8165265375959621
 30
0.0
 40
0.0146962851618413
 50
321.7962622101331931
 51
3.4817548085937262
  0
ARC
  5
9FFF
  8
0
 10
290.2645578589796855
 20
59.824253912192809
 30
0.0
 40
0.0096796870024577
 50
315.08125214095611
 51
347.731191834934009
  0
LINE
  5
A000
  8
0
 10
290.3097410317989784
 20
59.7776870659515325
 30
0.0
 11
290.2951071772989735
 21
59.7843395211515229
 31
0.0
  0
LINE
  5
A001
  8
0
 10
290.3134564978204821
 20
59.7875730579602305
 30
0.0
 11
290.2976008120830897
 21
59.7943524439067886
 31
0.0
  0
LINE
  5
A002
  8
0
 10
290.3165770723289256
 20
59.7975546330584677
 30
0.0
 11
290.3013571657988905
 21
59.8043029267515109
 31
0.0
  0
LINE
  5
A003
  8
0
 10
290.3107470139019028
 20
59.7756624355137802
 30
0.0
 11
290.3163321727288917
 21
59.7770288703388815
 31
0.0
  0
LINE
  5
A004
  8
0
 10
290.3354751395759195
 20
59.7835637179716031
 30
0.0
 11
290.3385265288941923
 21
59.7850929637051109
 31
0.0
  0
ARC
  5
A005
  8
0
 10
290.3001617848019009
 20
59.7809366328047034
 30
0.0
 40
0.01103964529217
 50
159.2965991486294968
 51
215.9000418901237026
  0
ARC
  5
A006
  8
0
 10
290.3023109439411087
 20
59.7912938727099998
 30
0.0
 40
0.0100128547094973
 50
159.5137711225357862
 51
223.9907589816770042
  0
ARC
  5
A007
  8
0
 10
290.3078609588014274
 20
59.8013915685251334
 30
0.0
 40
0.0124426639459573
 50
163.9635224446276993
 51
214.4526437054088888
  0
ARC
  5
A008
  8
0
 10
290.3081868331266264
 20
59.8110987636020894
 30
0.0
 40
0.0096347160988542
 50
163.4755797403994109
 51
224.857741809324807
  0
ARC
  5
A009
  8
0
 10
290.3095353611416272
 20
59.8044949436831317
 30
0.0
 40
0.0098870424284265
 50
315.41551375078609
 51
0.1627775357396018
  0
ARC
  5
A00A
  8
0
 10
290.301865045564
 20
59.79667551953127
 30
0.0
 40
0.0147382689643913
 50
321.8583879986035186
 51
3.419628951727288
  0
ARC
  5
A00B
  8
0
 10
290.3044883071510185
 20
59.785302395071227
 30
0.0
 40
0.009251181212644
 50
304.5962324908003893
 51
14.20817626682806
  0
ENDSEC
  0
EOF
