  0
SECTION
  2
HEADER
  9
$ACADVER
  1
AC1009
  9
$INSBASE
 10
-36224.8239559752182686
 20
-17222.5788381997699616
 30
0.0
  9
$EXTMIN
 10
-36230.6310425893170759
 20
-17222.5843018648592988
 30
0.0
  9
$EXTMAX
 10
-36223.8298614870218444
 20
-17211.90994056135969
 30
0.0
  9
$LIMMIN
 10
0.0
 20
0.0
  9
$LIMMAX
 10
11.6929133858000007
 20
8.2677165353999982
  9
$ORTHOMODE
 70
     0
  9
$REGENMODE
 70
     1
  9
$FILLMODE
 70
     1
  9
$QTEXTMODE
 70
     0
  9
$MIRRTEXT
 70
     0
  9
$DRAGMODE
 70
     2
  9
$LTSCALE
 40
0.6431102362
  9
$OSMODE
 70
  4095
  9
$ATTMODE
 70
     1
  9
$TEXTSIZE
 40
0.2
  9
$TRACEWID
 40
0.05
  9
$TEXTSTYLE
  7
STANDARD
  9
$CLAYER
  8
0
  9
$CELTYPE
  6
BYLAYER
  9
$CECOLOR
 62
   256
  9
$DIMSCALE
 40
1.0
  9
$DIMASZ
 40
0.1875
  9
$DIMEXO
 40
0.0625
  9
$DIMDLI
 40
0.4443307087
  9
$DIMRND
 40
0.0
  9
$DIMDLE
 40
0.0
  9
$DIMEXE
 40
0.125
  9
$DIMTP
 40
0.01
  9
$DIMTM
 40
0.01
  9
$DIMTXT
 40
2.0
  9
$DIMCEN
 40
0.1052362205
  9
$DIMTSZ
 40
0.0
  9
$DIMTOL
 70
     1
  9
$DIMLIM
 70
     0
  9
$DIMTIH
 70
     1
  9
$DIMTOH
 70
     1
  9
$DIMSE1
 70
     0
  9
$DIMSE2
 70
     0
  9
$DIMTAD
 70
     0
  9
$DIMZIN
 70
     0
  9
$DIMBLK
  1

  9
$DIMASO
 70
     1
  9
$DIMSHO
 70
     1
  9
$DIMPOST
  1
\X
  9
$DIMAPOST
  1

  9
$DIMALT
 70
     1
  9
$DIMALTD
 70
     2
  9
$DIMALTF
 40
25.3999999999999986
  9
$DIMLFAC
 40
1.0
  9
$DIMTOFL
 70
     0
  9
$DIMTVP
 40
0.0
  9
$DIMTIX
 70
     0
  9
$DIMSOXD
 70
     0
  9
$DIMSAH
 70
     0
  9
$DIMBLK1
  1

  9
$DIMBLK2
  1

  9
$DIMSTYLE
  2
STANDARD
  9
$DIMCLRD
 70
     0
  9
$DIMCLRE
 70
     0
  9
$DIMCLRT
 70
     0
  9
$DIMTFAC
 40
1.0
  9
$DIMGAP
 40
0.09
  9
$LUNITS
 70
     2
  9
$LUPREC
 70
     4
  9
$SKETCHINC
 40
0.1
  9
$FILLETRAD
 40
0.0
  9
$AUNITS
 70
     0
  9
$AUPREC
 70
     0
  9
$MENU
  1
.
  9
$ELEVATION
 40
0.0
  9
$PELEVATION
 40
0.0
  9
$THICKNESS
 40
0.0
  9
$LIMCHECK
 70
     0
  9
$BLIPMODE
 70
     0
  9
$CHAMFERA
 40
0.0
  9
$CHAMFERB
 40
0.0
  9
$SKPOLY
 70
     0
  9
$TDCREATE
 40
2458060.468368056230247
  9
$TDUPDATE
 40
2459970.4273263891227543
  9
$TDINDWG
 40
0.4386991898
  9
$TDUSRTIMER
 40
0.4386991898
  9
$USRTIMER
 70
     1
  9
$ANGBASE
 50
0.0
  9
$ANGDIR
 70
     0
  9
$PDMODE
 70
     0
  9
$PDSIZE
 40
0.3125
  9
$PLINEWID
 40
0.0
  9
$COORDS
 70
     1
  9
$SPLFRAME
 70
     0
  9
$SPLINETYPE
 70
     6
  9
$SPLINESEGS
 70
     8
  9
$ATTDIA
 70
     1
  9
$ATTREQ
 70
     1
  9
$HANDLING
 70
     1
  9
$HANDSEED
  5
A4B7
  9
$SURFTAB1
 70
     6
  9
$SURFTAB2
 70
     6
  9
$SURFTYPE
 70
     6
  9
$SURFU
 70
     6
  9
$SURFV
 70
     6
  9
$UCSNAME
  2

  9
$UCSORG
 10
0.0
 20
0.0
 30
0.0
  9
$UCSXDIR
 10
1.0
 20
0.0
 30
0.0
  9
$UCSYDIR
 10
0.0
 20
1.0
 30
0.0
  9
$PUCSNAME
  2

  9
$PUCSORG
 10
0.0
 20
0.0
 30
0.0
  9
$PUCSXDIR
 10
1.0
 20
0.0
 30
0.0
  9
$PUCSYDIR
 10
0.0
 20
1.0
 30
0.0
  9
$USERI1
 70
     0
  9
$USERI2
 70
     0
  9
$USERI3
 70
     0
  9
$USERI4
 70
     0
  9
$USERI5
 70
     0
  9
$USERR1
 40
0.0
  9
$USERR2
 40
0.0
  9
$USERR3
 40
0.0
  9
$USERR4
 40
0.0
  9
$USERR5
 40
0.0
  9
$WORLDVIEW
 70
     1
  9
$SHADEDGE
 70
     3
  9
$SHADEDIF
 70
    70
  9
$TILEMODE
 70
     1
  9
$MAXACTVP
 70
    64
  9
$PLIMCHECK
 70
     0
  9
$PEXTMIN
 10
1.0000000000000000E+20
 20
1.0000000000000000E+20
 30
1.0000000000000000E+20
  9
$PEXTMAX
 10
-1.0000000000000000E+20
 20
-1.0000000000000000E+20
 30
-1.0000000000000000E+20
  9
$PLIMMIN
 10
0.0
 20
0.0
  9
$PLIMMAX
 10
12.0
 20
9.0
  9
$UNITMODE
 70
     0
  9
$VISRETAIN
 70
     1
  9
$PLINEGEN
 70
     0
  9
$PSLTSCALE
 70
     1
  0
ENDSEC
  0
SECTION
  2
TABLES
  0
TABLE
  2
VPORT
 70
     1
  0
VPORT
  2
*ACTIVE
 70
     0
 10
0.0
 20
0.0
 11
1.0
 21
1.0
 12
-40139.62126957673172
 22
-17341.7750360208810889
 13
0.0
 23
0.0
 14
1.0
 24
1.0
 15
0.0
 25
0.0
 16
0.0
 26
0.0
 36
60.2538140246172205
 17
3914.8226318359379547
 27
119.2012214660643963
 37
0.0
 40
0.0992648141317513
 41
2.498684210526315
 42
50.0
 43
0.0
 44
0.0
 50
0.0
 51
0.0
 71
     0
 72
   100
 73
     1
 74
     1
 75
     0
 76
     0
 77
     0
 78
     0
  0
ENDTAB
  0
TABLE
  2
LTYPE
 70
     2
  0
LTYPE
  2
CONTINUOUS
 70
     0
  3
Solid line
 72
    65
 73
     0
 40
0.0
  0
LTYPE
  2
PHANTOM2
 70
     0
  3
___ _ _ ___ _ _ ___ _ _ ___ _ _
 72
    65
 73
     6
 40
1.25
 49
0.625
 49
-0.125
 49
0.125
 49
-0.125
 49
0.125
 49
-0.125
  0
ENDTAB
  0
TABLE
  2
LAYER
 70
     2
  0
LAYER
  2
0
 70
     0
 62
   255
  6
CONTINUOUS
  0
LAYER
  2
DEFPOINTS
 70
     0
 62
     7
  6
CONTINUOUS
  0
ENDTAB
  0
TABLE
  2
STYLE
 70
     1
  0
STYLE
  2
STANDARD
 70
     0
 40
0.0
 41
0.8
 50
0.0
 71
     0
 42
0.2
  3
txt
  4

  0
ENDTAB
  0
TABLE
  2
VIEW
 70
     0
  0
ENDTAB
  0
TABLE
  2
UCS
 70
     0
  0
ENDTAB
  0
TABLE
  2
APPID
 70
    10
  0
APPID
  2
ACAD
 70
     0
  0
APPID
  2
ACAD_MLEADERVER
 70
     0
  0
APPID
  2
ACAD_EXEMPT_FROM_CAD_STANDARDS
 70
     0
  0
APPID
  2
ACAD_NAV_VCDISPLAY
 70
     0
  0
APPID
  2
ACAECLAYERSTANDARD
 70
     0
  0
APPID
  2
ACCMTRANSPARENCY
 70
     0
  0
APPID
  2
ACAD_DSTYLE_DIMJAG
 70
     0
  0
APPID
  2
ACAD_DSTYLE_DIMTALN
 70
     0
  0
APPID
  2
ACDBATTR
 70
     0
  0
APPID
  2
ACADANNOTATIVE
 70
     0
  0
ENDTAB
  0
TABLE
  2
DIMSTYLE
 70
     2
  0
DIMSTYLE
  2
STANDARD
 70
     0
  3

  4

  5

  6

  7

 40
1.0
 41
0.1875
 42
0.0625
 43
0.38
 44
0.125
 45
0.0
 46
0.0
 47
0.01
 48
0.01
140
0.15625
141
0.09
142
0.0
143
25.3999999999999986
144
1.0
145
0.0
146
1.0
147
0.09
 71
     1
 72
     0
 73
     1
 74
     1
 75
     0
 76
     0
 77
     0
 78
     4
170
     0
171
     2
172
     0
173
     0
174
     0
175
     0
176
     0
177
     0
178
     0
  0
DIMSTYLE
  2
ANNOTATIVE
 70
     0
  3

  4

  5

  6

  7

 40
0.0
 41
0.18
 42
0.0625
 43
0.38
 44
0.18
 45
0.0
 46
0.0
 47
0.0
 48
0.0
140
0.18
141
0.09
142
0.0
143
25.3999999999999986
144
1.0
145
0.0
146
1.0
147
0.09
 71
     0
 72
     0
 73
     1
 74
     1
 75
     0
 76
     0
 77
     0
 78
     0
170
     0
171
     2
172
     0
173
     0
174
     0
175
     0
176
     0
177
     0
178
     0
  0
ENDTAB
  0
ENDSEC
  0
SECTION
  2
BLOCKS
  0
BLOCK
  8
0
  2
$MODEL_SPACE
 70
     0
 10
0.0
 20
0.0
 30
0.0
  3
$MODEL_SPACE
  1

  0
ENDBLK
  5
21
  8
0
  0
BLOCK
 67
     1
  8
0
  2
$PAPER_SPACE
 70
     0
 10
0.0
 20
0.0
 30
0.0
  3
$PAPER_SPACE
  1

  0
ENDBLK
  5
1D
 67
     1
  8
0
  0
BLOCK
  8
0
  2
_FILLED
 70
     0
 10
0.0
 20
0.0
 30
0.0
  3
_FILLED
  1

  0
SOLID
  5
7203
  8
0
  6
BYBLOCK
 62
     0
 10
0.0
 20
0.0
 30
0.0
 11
-1.0
 21
0.1666666667
 31
0.0
 12
-1.0
 22
-0.1666666667
 32
0.0
 13
-1.0
 23
-0.1666666667
 33
0.0
  0
ENDBLK
  5
7204
  8
0
  6
BYBLOCK
 62
     0
  0
BLOCK
  8
0
  2
A$C7244D1A3
 70
     2
 10
0.0
 20
0.0
 30
0.0
  3
A$C7244D1A3
  1

  0
LINE
  5
7B64
  8
0
 10
27.5801309042119591
 20
21.8139801302080798
 30
0.0
 11
43.3381960339892132
 21
21.8139801302080798
 31
0.0
  0
ARC
  5
7B65
  8
0
 10
27.5768677386060403
 20
21.674924162909889
 30
0.0
 40
0.1390942496690901
 50
88.6557117351550232
 51
140.1738818121214081
  0
ARC
  5
7B66
  8
0
 10
27.7160052212331607
 20
21.5573277301322399
 30
0.0
 40
0.3212687140394075
 50
139.9596732521075921
 51
170.2262582503350927
  0
LINE
  5
7B67
  8
0
 10
27.3872589081276487
 20
21.4518922060073294
 30
0.0
 11
27.4566728913252405
 21
18.6290248568097105
 31
0.0
  0
LINE
  5
7B68
  8
0
 10
27.4566728913252405
 20
18.6290248568097105
 30
0.0
 11
43.4595772084268788
 21
18.6290248568097105
 31
0.0
  0
LINE
  5
7B69
  8
0
 10
43.4595772084268788
 20
18.6290248568097105
 30
0.0
 11
43.5289911765777902
 21
21.4518922065421087
 31
0.0
  0
LINE
  5
7B6A
  8
0
 10
27.517180167930011
 20
18.6290248568097105
 30
0.0
 11
27.517180167930011
 21
18.5699697387084584
 31
0.0
  0
LINE
  5
7B6B
  8
0
 10
27.517180167930011
 20
18.5699697387084584
 30
0.0
 11
43.3990699317275173
 21
18.5699697387084584
 31
0.0
  0
LINE
  5
7B6C
  8
0
 10
43.3990699317275173
 20
18.5699697387084584
 30
0.0
 11
43.3990699317275173
 21
18.6290248568097105
 31
0.0
  0
ARC
  5
7B6D
  8
0
 10
29.1594277012465604
 20
18.3381848990051388
 30
0.0
 40
0.2317854610503457
 50
64.5716613989620214
 51
90.1326667622966937
  0
LINE
  5
7B6E
  8
0
 10
36.616326721536268
 20
14.9085524159076197
 30
0.0
 11
34.2999233673819504
 21
14.9085524159076197
 31
0.0
  0
ARC
  5
7B6F
  8
0
 10
34.2999233728316426
 20
15.1054037348025307
 30
0.0
 40
0.1968513188927612
 50
185.0002467646571915
 51
269.9999984145990197
  0
LINE
  5
7B70
  8
0
 10
34.103821206530661
 20
15.0882461673085402
 30
0.0
 11
34.003505805141863
 21
16.2347995778494791
 31
0.0
  0
ARC
  5
7B71
  8
0
 10
33.8082910652576132
 20
16.21771965396184
 30
0.0
 40
0.195960502314323
 50
5.0002467646572324
 51
16.9997622622603295
  0
LINE
  5
7B72
  8
0
 10
33.9956892633255805
 20
16.2750121825069094
 30
0.0
 11
33.3918046343298514
 21
16.2751786712091402
 31
0.0
  0
LINE
  5
7B73
  8
0
 10
33.3918046343298514
 20
16.2751786712091402
 30
0.0
 11
33.3507212047245005
 21
16.2749483379069808
 31
0.0
  0
ARC
  5
7B74
  8
0
 10
33.3508109686137573
 20
15.7127953544026298
 30
0.0
 40
0.5621529906704575
 50
90.0091489183701867
 51
97.3073844973903448
  0
ARC
  5
7B75
  8
0
 10
32.8985033951086621
 20
19.5216551439065391
 30
0.0
 40
3.273497597696764
 50
270.9774203285127214
 51
276.680343065478894
  0
ARC
  5
7B76
  8
0
 10
32.8878209686865333
 20
17.8624538911921285
 30
0.0
 40
1.61519051955281
 50
264.1571383511176805
 51
272.3604424311083108
  0
ARC
  5
7B77
  8
0
 10
32.7352038631999633
 20
16.4027461397075989
 30
0.0
 40
0.1475649442305193
 50
202.1312555934048873
 51
265.4095148896590786
  0
LINE
  5
7B78
  8
0
 10
32.5985110233288466
 20
16.34715405130774
 30
0.0
 11
32.5417036267155595
 21
16.5032503201531711
 31
0.0
  0
ARC
  5
7B79
  8
0
 10
32.3555367871942394
 20
16.434749111273419
 30
0.0
 40
0.1983696240772639
 50
20.2013956959558989
 51
76.0231535105473739
  0
ARC
  5
7B7A
  8
0
 10
33.8662946394962887
 20
22.6159367023014113
 30
0.0
 40
6.1647658159282601
 50
252.2340438413804975
 51
256.2732706435310774
  0
LINE
  5
7B7B
  8
0
 10
31.9852426203926292
 20
16.745163255242371
 30
0.0
 11
31.9572599935256108
 21
16.7452946627076109
 31
0.0
  0
ARC
  5
7B7C
  8
0
 10
31.9547346009259812
 20
16.2075237007542512
 30
0.0
 40
0.5377768915915168
 50
89.7309388490477744
 51
97.563685174229775
  0
ARC
  5
7B7D
  8
0
 10
31.4580007181995711
 20
20.3602423375181516
 30
0.0
 40
3.6445968548624972
 50
270.8479663718482016
 51
276.7115476128914224
  0
ARC
  5
7B7E
  8
0
 10
31.4359124231979798
 20
18.6155095421221688
 30
0.0
 40
1.9009857667791481
 50
264.4553402256227059
 51
272.2920270687354218
  0
ARC
  5
7B7F
  8
0
 10
31.2607425375301204
 20
16.8732915304994116
 30
0.0
 40
0.1501146055183809
 50
201.5217390701724014
 51
266.7515384837644774
  0
LINE
  5
7B80
  8
0
 10
31.1210941559312992
 20
16.8182213543062993
 30
0.0
 11
31.0332908362017292
 21
17.0883400478764109
 31
0.0
  0
ARC
  5
7B81
  8
0
 10
30.8241342509047094
 20
17.0149540481456008
 30
0.0
 40
0.2216569635315092
 50
19.3302489824351795
 51
33.3392951957363621
  0
ARC
  5
7B82
  8
0
 10
-116.8535561448314013
 20
-205.7728990256343025
 30
0.0
 40
267.4923387419200935
 50
56.4424548548212286
 51
56.5443973215802274
  0
ARC
  5
7B83
  8
0
 10
34.0118488229620084
 20
22.5966770125327514
 30
0.0
 40
6.21018210412862
 50
232.1606473374523887
 51
236.8120172642043997
  0
ARC
  5
7B84
  8
0
 10
30.0528485079614214
 20
13.4359778916354191
 30
0.0
 40
4.2589280816333162
 50
87.9901455755481834
 51
92.3493964513667152
  0
ARC
  5
7B85
  8
0
 10
29.1581998072198907
 20
18.3319361793896007
 30
0.0
 40
0.2379612657436342
 50
42.9547966724695129
 51
64.9506838779444422
  0
ARC
  5
7B86
  8
0
 10
35.9132022923569707
 20
24.6211215789175206
 30
0.0
 40
8.9915518072098664
 50
222.9547966724695129
 51
224.9702141602201948
  0
ARC
  5
7B87
  8
0
 10
29.3880892126164213
 20
18.1087768649653285
 30
0.0
 40
0.2273659205940667
 50
28.238778769474699
 51
43.9026723781127686
  0
ARC
  5
7B88
  8
0
 10
29.4174208602327703
 20
18.1285941927039005
 30
0.0
 40
0.1921820710696922
 50
12.8713870780247994
 51
27.1712369873461199
  0
ARC
  5
7B89
  8
0
 10
97.0752236789105041
 20
33.5887437461700813
 30
0.0
 40
69.2095074362207754
 50
192.8713870780248101
 51
193.078411373575193
  0
ARC
  5
7B8A
  8
0
 10
-122.3182011666447977
 20
-17.3785707346447396
 30
0.0
 40
156.0262401946756086
 50
13.02300650040522
 51
13.0784113735754008
  0
ARC
  5
7B8B
  8
0
 10
29.8112478684326483
 20
17.8013534229088712
 30
0.0
 40
0.1180704340565466
 50
190.0552518280179015
 51
228.9320893677709137
  0
ARC
  5
7B8C
  8
0
 10
29.8113243852987502
 20
17.8012991019917592
 30
0.0
 40
0.1180797847238996
 50
228.886781182455195
 51
265.2928657072582155
  0
ARC
  5
7B8D
  8
0
 10
29.8114237224637613
 20
17.8006394942625796
 30
0.0
 40
0.1174306534423079
 50
265.2181511739985922
 51
289.34532147311279
  0
LINE
  5
7B8E
  8
0
 10
29.8782613590284996
 20
17.6913260245077311
 30
0.0
 11
29.8503238998584415
 21
17.6898390675181894
 31
0.0
  0
ARC
  5
7B8F
  8
0
 10
36.1341840152583131
 20
16.5695020370716612
 30
0.0
 40
2.1545704822400031
 50
187.8068974726911904
 51
223.4321311960808032
  0
ARC
  5
7B90
  8
0
 10
50.0487717087582382
 20
19.4240692738880192
 30
0.0
 40
16.3548625140483814
 50
186.2858750566365131
 51
191.0948687165067099
  0
ARC
  5
7B91
  8
0
 10
-513.2397365016020103
 20
-48.9757201969237883
 30
0.0
 40
551.0723646141028667
 50
6.9424191739237511
 51
6.9812816472083901
  0
ARC
  5
7B92
  8
0
 10
71.7518699657504726
 20
22.7319735172117383
 30
0.0
 40
38.2978501668575007
 50
186.5512887679180096
 51
187.0907898987632905
  0
ARC
  5
7B93
  8
0
 10
33.4686064236868219
 20
18.3335155035951196
 30
0.0
 40
0.2372673679057446
 50
7.0102597101326198
 51
85.2551392694850279
  0
ARC
  5
7B94
  8
0
 10
41.7568223985637701
 20
18.3381848990051388
 30
0.0
 40
0.2317854610503457
 50
89.8673332377033063
 51
115.428338601038007
  0
ARC
  5
7B95
  8
0
 10
36.6163267269859602
 20
15.1054037348025307
 30
0.0
 40
0.19685131889276
 50
269.9999984145990197
 51
354.9997532353427232
  0
LINE
  5
7B96
  8
0
 10
36.812428893286949
 20
15.0882461673085402
 30
0.0
 11
36.9127442946757469
 21
16.2347995778494791
 31
0.0
  0
ARC
  5
7B97
  8
0
 10
37.1079590345527208
 20
16.21771965396184
 30
0.0
 40
0.195960502314323
 50
163.0002377377396101
 51
174.9997532353428085
  0
LINE
  5
7B98
  8
0
 10
36.9205608364847606
 20
16.2750121825069094
 30
0.0
 11
37.5244454654877586
 21
16.2751786712091402
 31
0.0
  0
LINE
  5
7B99
  8
0
 10
37.5244454654877586
 20
16.2751786712091402
 30
0.0
 11
37.5655288950858335
 21
16.2749483379069808
 31
0.0
  0
ARC
  5
7B9A
  8
0
 10
37.5654391311965696
 20
15.7127953544026298
 30
0.0
 40
0.5621529906704575
 50
82.6926155026096836
 51
89.9908510816298133
  0
ARC
  5
7B9B
  8
0
 10
38.0177467047016577
 20
19.5216551439065391
 30
0.0
 40
3.273497597696764
 50
263.3196569345209923
 51
269.0225796714872786
  0
ARC
  5
7B9C
  8
0
 10
38.0284291311238007
 20
17.8624538911921285
 30
0.0
 40
1.61519051955281
 50
267.6395575688916892
 51
275.8428616488823195
  0
ARC
  5
7B9D
  8
0
 10
38.1810462366103707
 20
16.4027461397075989
 30
0.0
 40
0.1475649442305193
 50
274.5904851103409214
 51
337.8687444065951127
  0
LINE
  5
7B9E
  8
0
 10
38.3177390764814731
 20
16.34715405130774
 30
0.0
 11
38.3745464730947674
 21
16.5032503201531711
 31
0.0
  0
ARC
  5
7B9F
  8
0
 10
38.5607133126160875
 20
16.434749111273419
 30
0.0
 40
0.1983696240772591
 50
103.9768464894525977
 51
159.7986043040440904
  0
ARC
  5
7BA0
  8
0
 10
37.0499554603140382
 20
22.6159367023014113
 30
0.0
 40
6.1647658159282601
 50
283.7267293564689226
 51
287.7659561586194741
  0
LINE
  5
7BA1
  8
0
 10
38.9310074794177012
 20
16.745163255242371
 30
0.0
 11
38.9589901062847233
 21
16.7452946627076109
 31
0.0
  0
ARC
  5
7BA2
  8
0
 10
38.9615154988843528
 20
16.2075237007542512
 30
0.0
 40
0.5377768915915168
 50
82.4363148257702392
 51
90.2690611509522398
  0
ARC
  5
7BA3
  8
0
 10
39.4582493816180317
 20
20.3602423375181516
 30
0.0
 40
3.6445968548624972
 50
263.2884523871085207
 51
269.1520336281517984
  0
ARC
  5
7BA4
  8
0
 10
39.4803376766196266
 20
18.6155095421221688
 30
0.0
 40
1.9009857667791481
 50
267.7079729312645782
 51
275.5446597743772941
  0
ARC
  5
7BA5
  8
0
 10
39.6555075622802065
 20
16.8732915304994116
 30
0.0
 40
0.1501146055183809
 50
273.2484615162355226
 51
338.478260929827627
  0
LINE
  5
7BA6
  8
0
 10
39.7951559438863001
 20
16.8182213543062993
 30
0.0
 11
39.8829592636085977
 21
17.0883400478764109
 31
0.0
  0
ARC
  5
7BA7
  8
0
 10
40.0921158489056211
 20
17.0149540481456008
 30
0.0
 40
0.2216569635315092
 50
146.6607048042635881
 51
160.6697510175648063
  0
ARC
  5
7BA8
  8
0
 10
187.7698062446416998
 20
-205.7728990256343025
 30
0.0
 40
267.4923387419200935
 50
123.455602678419794
 51
123.5575451451786932
  0
ARC
  5
7BA9
  8
0
 10
36.9044012768483185
 20
22.5966770125327514
 30
0.0
 40
6.21018210412862
 50
303.1879827357955719
 51
307.8393526625475829
  0
ARC
  5
7BAA
  8
0
 10
40.8634015918489126
 20
13.4359778916354191
 30
0.0
 40
4.2589280816333162
 50
87.6506035486332848
 51
92.0098544244518024
  0
ARC
  5
7BAB
  8
0
 10
41.7580502925904398
 20
18.3319361793896007
 30
0.0
 40
0.2379612657436342
 50
115.049316122055501
 51
137.0452033275304871
  0
ARC
  5
7BAC
  8
0
 10
35.0030478074606322
 20
24.6211215789175206
 30
0.0
 40
8.9915518072098664
 50
315.0297858397796062
 51
317.0452033275304871
  0
ARC
  5
7BAD
  8
0
 10
41.5281608871938985
 20
18.1087768649653285
 30
0.0
 40
0.2273659205940667
 50
136.0973276218871888
 51
151.7612212305253081
  0
ARC
  5
7BAE
  8
0
 10
41.4988292395775602
 20
18.1285941927039005
 30
0.0
 40
0.1921820710696922
 50
152.828763012653809
 51
167.1286129219751899
  0
ARC
  5
7BAF
  8
0
 10
-26.1589735791001807
 20
33.5887437461700813
 30
0.0
 40
69.2095074362207754
 50
346.9215886264246933
 51
347.1286129219752183
  0
ARC
  5
7BB0
  8
0
 10
193.2344512664550962
 20
-17.3785707346447396
 30
0.0
 40
156.0262401946756086
 50
166.921588626424608
 51
166.976993499594812
  0
ARC
  5
7BB1
  8
0
 10
41.1050022313849581
 20
17.8013534229088712
 30
0.0
 40
0.1180704340565466
 50
311.0679106322290863
 51
349.944748171981928
  0
ARC
  5
7BB2
  8
0
 10
41.1049257145115803
 20
17.8012991019917592
 30
0.0
 40
0.1180797847238996
 50
274.7071342927417845
 51
311.113218817544805
  0
ARC
  5
7BB3
  8
0
 10
41.104826377353838
 20
17.8006394942625796
 30
0.0
 40
0.1174306534423079
 50
250.6546785268870963
 51
274.7818488260014078
  0
LINE
  5
7BB4
  8
0
 10
41.0379887407818202
 20
17.6913260245077311
 30
0.0
 11
41.065926199951889
 21
17.6898390675181894
 31
0.0
  0
ARC
  5
7BB5
  8
0
 10
34.7820661645438918
 20
16.5695020130537216
 30
0.0
 40
2.1545703997242889
 50
316.5678676059333156
 51
352.1931028712930924
  0
ARC
  5
7BB6
  8
0
 10
20.8674783910520887
 20
19.4240692738880192
 30
0.0
 40
16.3548625140483814
 50
348.9051312834931764
 51
353.7141249433634016
  0
ARC
  5
7BB7
  8
0
 10
584.1559866014124509
 20
-48.9757201969237883
 30
0.0
 40
551.0723646141028667
 50
173.018718352791609
 51
173.0575808260761903
  0
ARC
  5
7BB8
  8
0
 10
-0.8356198659328697
 20
22.7319735172117383
 30
0.0
 40
38.2978501668575007
 50
352.9092101012366811
 51
353.4487112320820188
  0
ARC
  5
7BB9
  8
0
 10
37.4476436761235121
 20
18.3335155035951196
 30
0.0
 40
0.2372673679057446
 50
94.7448607305149864
 51
172.9897402898673135
  0
ARC
  5
7BBA
  8
0
 10
33.4404375582000171
 20
17.9725817281527291
 30
0.0
 40
0.3081722273438976
 50
5.9147471206875393
 51
72.3948141110140568
  0
LINE
  5
7BBB
  8
0
 10
30.5376010522506398
 20
18.2661291200769504
 30
0.0
 11
33.5336461478129308
 21
18.2663201841445684
 31
0.0
  0
LINE
  5
7BBC
  8
0
 10
30.5376010522506398
 20
18.2661291200769504
 30
0.0
 11
30.5025140807248896
 21
18.2665859884094992
 31
0.0
  0
LINE
  5
7BBD
  8
0
 10
30.5025140807248896
 20
18.2665859884094992
 30
0.0
 11
30.4702091929267986
 21
18.2662995724080304
 31
0.0
  0
ARC
  5
7BBE
  8
0
 10
31.2767638199204114
 20
-9.3620696871454072
 30
0.0
 40
27.6401396217282311
 50
91.6721600372213032
 51
92.6261007063100266
  0
ARC
  5
7BBF
  8
0
 10
29.8472032912088103
 20
22.6384954559966083
 30
0.0
 40
4.3924838850135863
 50
267.2481629923991022
 51
272.1285352340188979
  0
ARC
  5
7BC0
  8
0
 10
29.6486712041498208
 20
18.5584929776035992
 30
0.0
 40
0.3076642451770706
 50
251.6693341510417099
 51
267.6991388512450953
  0
ARC
  5
7BC1
  8
0
 10
33.741874085657571
 20
17.7052586371086385
 30
0.0
 40
0.0724719948628137
 50
62.2026709592218765
 51
94.4696404812444683
  0
ARC
  5
7BC2
  8
0
 10
33.7350293819092215
 20
17.4762656497463489
 30
0.0
 40
0.3012469557562348
 50
89.7723545533746545
 51
96.9836112053494759
  0
LINE
  5
7BC3
  8
0
 10
33.6984021406298666
 20
17.7752776454093713
 30
0.0
 11
30.7803566683271015
 21
17.7752434563066402
 31
0.0
  0
LINE
  5
7BC4
  8
0
 10
30.7803566646309186
 20
17.7752394328075809
 30
0.0
 11
30.6340433471252105
 21
17.7796717486075089
 31
0.0
  0
ARC
  5
7BC5
  8
0
 10
30.5391301388792193
 20
14.6465316474845206
 30
0.0
 40
3.1345773894356199
 50
88.2648513960640884
 51
89.5885443475493162
  0
ARC
  5
7BC6
  8
0
 10
29.9291536981456296
 20
47.954745197321607
 30
0.0
 40
30.1803451910132203
 50
269.6504516167457837
 51
271.2008297812320166
  0
ARC
  5
7BC7
  8
0
 10
29.7376036859552109
 20
18.1119383285280513
 30
0.0
 40
0.3370585305438146
 50
265.0201925983145088
 51
271.2627370504475834
  0
ARC
  5
7BC8
  8
0
 10
29.7074915429240605
 20
17.7953148635300806
 30
0.0
 40
0.0191818037019689
 50
229.3002793789316911
 51
272.5514152379678876
  0
ARC
  5
7BC9
  8
0
 10
31.0343352006804594
 20
17.0890433581720593
 30
0.0
 40
0.0012637112276254
 50
90.9363488271733473
 51
184.1607295340500912
  0
ARC
  5
7BCA
  8
0
 10
31.0260900523991801
 20
17.0434679882331714
 30
0.0
 40
0.0475555051520592
 50
61.1336527279834314
 51
80.0408954287553769
  0
ARC
  5
7BCB
  8
0
 10
31.216131887440671
 20
17.5694691626326005
 30
0.0
 40
0.5123633670294538
 50
250.9675484504570875
 51
273.9457918441676156
  0
ARC
  5
7BCC
  8
0
 10
31.2757032575956906
 20
19.4007704492527395
 30
0.0
 40
2.3425763341526311
 50
269.4052993975312802
 51
278.6869846230752046
  0
ARC
  5
7BCD
  8
0
 10
31.7236396367718001
 20
16.2511269273549317
 30
0.0
 40
0.8392354386692851
 50
86.0080834311493447
 51
96.4394152633921919
  0
ARC
  5
7BCE
  8
0
 10
94.177496773858536
 20
217248.1854644923005253
 30
0.0
 40
217231.1060991515114438
 50
269.9835428953405199
 51
269.9840913953211157
  0
LINE
  5
7BCF
  8
0
 10
31.9852426205381484
 20
16.745163255242371
 30
0.0
 11
33.8779316357305902
 21
16.744649227907221
 31
0.0
  0
ARC
  5
7BD0
  8
0
 10
33.8748895181544825
 20
16.6633206078389797
 30
0.0
 40
0.0813854957695412
 50
58.9943492893543393
 51
87.857835596098937
  0
LINE
  5
7BD1
  8
0
 10
38.9310074794177012
 20
16.745163255242371
 30
0.0
 11
38.9589901062847233
 21
16.7452946627076109
 31
0.0
  0
ARC
  5
7BD2
  8
0
 10
38.9615154988843528
 20
16.2075237007542512
 30
0.0
 40
0.5377768915915168
 50
82.4363148257702392
 51
90.2690611509522398
  0
ARC
  5
7BD3
  8
0
 10
41.5281608871938985
 20
18.1087768649653285
 30
0.0
 40
0.2273659205940667
 50
136.0973276218871888
 51
151.7612212305253081
  0
ARC
  5
7BD4
  8
0
 10
41.4988292395775602
 20
18.1285941927039005
 30
0.0
 40
0.1921820710696922
 50
152.828763012653809
 51
167.1286129219751899
  0
ARC
  5
7BD5
  8
0
 10
37.4758125416103098
 20
17.9725817281527291
 30
0.0
 40
0.3081722273438976
 50
107.6051858889859005
 51
174.0852528793124065
  0
LINE
  5
7BD6
  8
0
 10
40.3786490475596906
 20
18.2661291200769504
 30
0.0
 11
37.3826039519974032
 21
18.2663201841445684
 31
0.0
  0
LINE
  5
7BD7
  8
0
 10
40.3786490475596906
 20
18.2661291200769504
 30
0.0
 11
40.4137360190854267
 21
18.2665859884094992
 31
0.0
  0
LINE
  5
7BD8
  8
0
 10
40.4137360190854267
 20
18.2665859884094992
 30
0.0
 11
40.4460409068835176
 21
18.2662995724080304
 31
0.0
  0
ARC
  5
7BD9
  8
0
 10
39.6394862798899226
 20
-9.3620696871454072
 30
0.0
 40
27.6401396217282311
 50
87.3738992936899876
 51
88.3278399627786825
  0
ARC
  5
7BDA
  8
0
 10
41.069046808601513
 20
22.6384954559966083
 30
0.0
 40
4.3924838850135863
 50
267.8714647659811021
 51
272.7518370076007841
  0
ARC
  5
7BDB
  8
0
 10
41.267578895667782
 20
18.5584929776035992
 30
0.0
 40
0.3076642451770706
 50
272.3008611487549047
 51
288.3306658489582901
  0
ARC
  5
7BDC
  8
0
 10
37.174376014152763
 20
17.7052586371086385
 30
0.0
 40
0.0724719948628137
 50
85.5303595187555032
 51
117.7973290407775977
  0
ARC
  5
7BDD
  8
0
 10
37.1812207179011125
 20
17.4762656497463489
 30
0.0
 40
0.3012469557562348
 50
83.0163887946505383
 51
90.2276454466253455
  0
LINE
  5
7BDE
  8
0
 10
37.2178479591877434
 20
17.7752776454093713
 30
0.0
 11
40.1358934314832183
 21
17.7752434563066402
 31
0.0
  0
LINE
  5
7BDF
  8
0
 10
40.1358934351866878
 20
17.7752394328075809
 30
0.0
 11
40.2822067526851129
 21
17.7796717486075089
 31
0.0
  0
ARC
  5
7BE0
  8
0
 10
40.3771199609383871
 20
14.6465316474845206
 30
0.0
 40
3.1345773894356199
 50
90.4114556524506838
 51
91.7351486039358974
  0
ARC
  5
7BE1
  8
0
 10
40.9870964016647008
 20
47.954745197321607
 30
0.0
 40
30.1803451910132203
 50
268.7991702187679834
 51
270.3495483832542163
  0
ARC
  5
7BE2
  8
0
 10
41.1786464138551125
 20
18.1119383285280513
 30
0.0
 40
0.3370585305438146
 50
268.7372629495524166
 51
274.9798074016854912
  0
ARC
  5
7BE3
  8
0
 10
41.2087585568935424
 20
17.7953148635300806
 30
0.0
 40
0.0191818037019689
 50
267.4485847620321124
 51
310.6997206210681952
  0
ARC
  5
7BE4
  8
0
 10
39.8819148991298675
 20
17.0890433581720593
 30
0.0
 40
0.0012637112276254
 50
355.8392704661577
 51
89.0636511728266669
  0
ARC
  5
7BE5
  8
0
 10
39.8901600474184193
 20
17.0434679882331714
 30
0.0
 40
0.0475555051520592
 50
99.9591045712446089
 51
118.866347272016597
  0
ARC
  5
7BE6
  8
0
 10
39.7001182123769425
 20
17.5694691626326005
 30
0.0
 40
0.5123633670294538
 50
266.0542081558323844
 51
289.0324515495428841
  0
ARC
  5
7BE7
  8
0
 10
39.6405468422146328
 20
19.4007704492527395
 30
0.0
 40
2.3425763341526311
 50
261.3130153769247954
 51
270.5947006024687198
  0
ARC
  5
7BE8
  8
0
 10
39.1926104630458099
 20
16.2511269273549317
 30
0.0
 40
0.8392354386692851
 50
83.5605847366077938
 51
93.9919165688506695
  0
ARC
  5
7BE9
  8
0
 10
-23.2612466740482091
 20
217248.1854644923005253
 30
0.0
 40
217231.1060991515114438
 50
270.0159086046788843
 51
270.0164571046594801
  0
LINE
  5
7BEA
  8
0
 10
38.9310074792721821
 20
16.745163255242371
 30
0.0
 11
37.0383184640870127
 21
16.744649227907221
 31
0.0
  0
ARC
  5
7BEB
  8
0
 10
37.0413605816558515
 20
16.6633206078389797
 30
0.0
 40
0.0813854957695412
 50
92.1421644039010772
 51
121.0056507106455967
  0
LINE
  5
7BEC
  8
0
 10
34.5733522673892324
 20
15.0882459000589808
 30
0.0
 11
34.573354153462958
 21
15.0882459000589808
 31
0.0
  0
LINE
  5
7BED
  8
0
 10
34.5695581112506218
 20
15.0882459000589808
 30
0.0
 11
36.3466919776675965
 21
15.0882459000589808
 31
0.0
  0
ARC
  5
7BEE
  8
0
 10
26.6152137046503299
 20
21.4542252326558902
 30
0.0
 40
0.7720464930732712
 50
359.9059522424540205
 51
0.1047251693980906
  0
ARC
  5
7BEF
  8
0
 10
43.3397938880427205
 20
21.6748448488018788
 30
0.0
 40
0.139144456122255
 50
72.4707208355181649
 51
91.5102945882610754
  0
ARC
  5
7BF0
  8
0
 10
43.3427441042278474
 20
21.6841850933764384
 30
0.0
 40
0.1293493581526035
 50
50.3250994541910401
 51
72.4707208355181649
  0
ARC
  5
7BF1
  8
0
 10
43.2124778048875484
 20
21.55878930117834
 30
0.0
 40
0.3096898415876692
 50
6.1257892478920519
 51
46.5839867595725821
  0
ARC
  5
7BF2
  8
0
 10
42.4919535020728176
 20
21.46361303616359
 30
0.0
 40
1.0370496145210459
 50
0.2748926432389058
 51
5.1455917716684079
  0
ARC
  5
7BF3
  8
0
 10
43.0854536209355317
 20
21.5193026992623402
 30
0.0
 40
0.4409523319858078
 50
4.855042049193619
 51
9.4678534865150077
  0
ARC
  5
7BF4
  8
0
 10
45.6139359395512471
 20
21.4602398479204588
 30
0.0
 40
2.0849614739297229
 50
179.7705727659187005
 51
180.2293979693793915
  0
ARC
  5
7BF5
  8
0
 10
28.0352889909174188
 20
21.492079062163981
 30
0.0
 40
0.6470736506167656
 50
169.3318452965393135
 51
176.4230081775052099
  0
ARC
  5
7BF6
  8
0
 10
28.6852916526460717
 20
21.4514464081315985
 30
0.0
 40
1.2983450785408699
 50
176.4230081775052099
 51
178.7432153193983027
  0
ARC
  5
7BF7
  8
0
 10
25.300211323059731
 20
21.4659077808268215
 30
0.0
 40
2.0870946453604331
 50
359.6152357909875263
 51
0.3847644251719523
  0
LINE
  5
7BF8
  8
0
 10
35.4581250444591092
 20
21.8139801302080798
 30
0.0
 11
58.3542783167766217
 21
36.6598325140801435
 31
0.0
  0
ATTDEF
  5
7BF9
  8
DEFPOINTS
 10
35.4471459467806085
 20
18.5652068066068807
 30
0.0
 40
0.001
  1
BATHROOM SINK
  3

  2
PRODUCT
 70
     0
1001
ACDBATTR
1070
     0
1070
     1
  0
ATTDEF
  5
7BFA
  8
DEFPOINTS
 10
35.4471459467806085
 20
18.5668734732738905
 30
0.0
 40
0.001
  1
VOX
  3

  2
TRADENAME
 70
     0
1001
ACDBATTR
1070
     0
1070
     1
  0
ATTDEF
  5
7BFB
  8
DEFPOINTS
 10
35.4471459467806085
 20
18.5685401399408896
 30
0.0
 40
0.001
  1
K-2661M
  3

  2
MODELNUMBER
 70
     0
1001
ACDBATTR
1070
     0
1070
     1
  0
ENDBLK
  5
7BFF
  8
0
  0
ENDSEC
  0
SECTION
  2
ENTITIES
  0
ATTDEF
  5
761E
  8
DEFPOINTS
 10
-36224.8259056800307008
 20
-17222.5809685315289244
 30
0.0
 40
0.001
  1
K-22088X-4CD
  3

  2
MODELNUMBER
 70
     0
1001
ACDBATTR
1070
     0
1070
     1
  0
ATTDEF
  5
761F
  8
DEFPOINTS
 10
-36224.8259056800307008
 20
-17222.5826351981995685
 30
0.0
 40
0.001
  1
HONESTY
  3

  2
TRADENAME
 70
     0
1001
ACDBATTR
1070
     0
1070
     1
  0
ATTDEF
  5
7620
  8
DEFPOINTS
 10
-36224.8259056800307008
 20
-17222.5843018648592988
 30
0.0
 40
0.001
  1
BATHROOM SINK FAUCET
  3

  2
PRODUCT
 70
     0
1001
ACDBATTR
1070
     0
1070
     1
  0
LINE
  5
A342
  8
0
 10
-36225.8180504634219687
 20
-17222.5788381997699616
 30
0.0
 11
-36223.8298614870218444
 21
-17222.5788381997699616
 31
0.0
  0
LINE
  5
A343
  8
0
 10
-36225.7983504634175915
 20
-17222.4213578848684847
 30
0.0
 11
-36223.8495614870189456
 21
-17222.4213578848684847
 31
0.0
  0
LINE
  5
A344
  8
0
 10
-36230.6113425893126987
 20
-17213.1300193021706946
 30
0.0
 11
-36224.0464118806194165
 21
-17213.1300193021706946
 31
0.0
  0
LINE
  5
A345
  8
0
 10
-36225.6212000697196345
 20
-17212.9729326872693491
 30
0.0
 11
-36224.8272272502435953
 21
-17212.9729326872693491
 31
0.0
  0
LINE
  5
A346
  8
0
 10
-36228.2294528256170452
 20
-17211.90994056135969
 30
0.0
 11
-36224.0464118806194165
 21
-17211.90994056135969
 31
0.0
  0
LINE
  5
A347
  8
0
 10
-36230.6310425893170759
 20
-17213.1497193021605199
 30
0.0
 11
-36230.6310425893170759
 21
-17213.623715247198561
 31
0.0
  0
LINE
  5
A348
  8
0
 10
-36228.2491528256214224
 20
-17211.9296405613604293
 30
0.0
 11
-36228.2491528256214224
 21
-17212.0170661660013138
 31
0.0
  0
ARC
  5
A349
  8
0
 10
-36228.2294528256170452
 20
-17211.9296405613604293
 30
0.0
 40
0.0197
 50
90.0
 51
180.0
  0
LINE
  5
A34A
  8
0
 10
-36228.2303121275472222
 20
-17212.0367474159684207
 30
0.0
 11
-36225.7341486200675718
 21
-17212.1457322682908853
 31
0.0
  0
ARC
  5
A34B
  8
0
 10
-36228.2294528256170452
 20
-17212.0170661660013138
 30
0.0
 40
0.0197
 50
180.0
 51
267.5000000014957777
  0
LINE
  5
A34C
  8
0
 10
-36225.6212000697196345
 20
-17212.2637198632583022
 30
0.0
 11
-36225.6212000697196345
 21
-17212.9729326872693491
 31
0.0
  0
ARC
  5
A34D
  8
0
 10
-36225.7393000697193202
 20
-17212.2637198632583022
 30
0.0
 40
0.1181
 50
0.0
 51
87.5000000014957919
  0
ARC
  5
A34E
  8
0
 10
-36230.6113425893126987
 20
-17213.1497193021605199
 30
0.0
 40
0.0197
 50
90.0
 51
180.0
  0
LINE
  5
A34F
  8
0
 10
-36230.6129910428280709
 20
-17213.6433461565284233
 30
0.0
 11
-36225.9819561027979944
 21
-17214.032225025628577
 31
0.0
  0
LINE
  5
A350
  8
0
 10
-36225.6212000697196345
 20
-17214.4245442643114075
 30
0.0
 11
-36225.6212000697196345
 21
-17222.4213578848684847
 31
0.0
  0
ARC
  5
A351
  8
0
 10
-36230.6113425893126987
 20
-17213.623715247198561
 30
0.0
 40
0.0197
 50
180.0
 51
265.2000000001584112
  0
ARC
  5
A352
  8
0
 10
-36226.014900069712894
 20
-17214.4245442643114075
 30
0.0
 40
0.3937
 50
0.0
 51
85.200000000158397
  0
LINE
  5
A353
  8
0
 10
-36224.0267118806223152
 20
-17213.1497193021605199
 30
0.0
 11
-36224.0267118806223152
 21
-17222.4213578848684847
 31
0.0
  0
ARC
  5
A354
  8
0
 10
-36224.0464118806194165
 20
-17213.1497193021605199
 30
0.0
 40
0.0197
 50
0.0
 51
90.0
  0
LINE
  5
A355
  8
0
 10
-36223.8298614870218444
 20
-17222.4410578848692239
 30
0.0
 11
-36223.8298614870218444
 21
-17222.5788381997699616
 31
0.0
  0
LINE
  5
A356
  8
0
 10
-36225.8180504634219687
 20
-17222.4410578848692239
 30
0.0
 11
-36225.8180504634219687
 21
-17222.5788381997699616
 31
0.0
  0
ARC
  5
A357
  8
0
 10
-36225.7983504634175915
 20
-17222.4410578848692239
 30
0.0
 40
0.0197
 50
90.0
 51
180.0
  0
ARC
  5
A358
  8
0
 10
-36223.8495614870189456
 20
-17222.4410578848692239
 30
0.0
 40
0.0197
 50
0.0
 51
90.0
  0
LINE
  5
A359
  8
0
 10
-36225.4932473137232591
 20
-17213.1300193021706946
 30
0.0
 11
-36225.4932473137232591
 21
-17213.1126964668692381
 31
0.0
  0
ARC
  5
A35A
  8
0
 10
-36224.9026961326235323
 20
-17213.1126964668692381
 30
0.0
 40
0.5905511810999258
 50
166.3101125379650966
 51
180.0
  0
ARC
  5
A35B
  8
0
 10
-36224.7452158177184174
 20
-17213.1126964668692381
 30
0.0
 40
0.5905511810999994
 50
358.3190826226381773
 51
36.8858527602609385
  0
LINE
  5
A35C
  8
0
 10
-36224.7829862115468131
 20
-17212.9643331004917854
 30
0.0
 11
-36224.0267118807169027
 21
-17212.6587784368712164
 31
0.0
  0
LINE
  5
A35D
  8
0
 10
-36224.0267118807169027
 20
-17212.6587784368712164
 30
0.0
 11
-36224.0267118806223152
 21
-17211.9296405613713432
 31
0.0
  0
ARC
  5
A35E
  8
0
 10
-36224.0464118806194165
 20
-17211.9296405613604293
 30
0.0
 40
0.0197
 50
359.9999999920793243
 51
90.0
  0
ARC
  5
A35F
  8
0
 10
-36224.8272272502435953
 20
-17212.8548326872696634
 30
0.0
 40
0.1181
 50
270.0
 51
292.0000000023704843
  0
ARC
  5
A360
  8
0
 10
-36224.1444249088235665
 20
-17212.3430114274706284
 30
0.0
 40
0.1887130281999997
 50
308.5917723192981157
 51
51.4082276651417587
  0
LINE
  5
A361
  8
0
 10
-36230.2920595337127452
 20
-17213.6704201684806321
 30
0.0
 11
-36230.2947832775025745
 21
-17213.7029832419211743
 31
0.0
  0
ARC
  5
A362
  8
0
 10
-36229.9724390563278575
 20
-17213.7299457787703432
 30
0.0
 40
0.3234698986226274
 50
175.218615120062907
 51
193.6680955151967964
  0
LINE
  5
A363
  8
0
 10
-36230.2867485623064567
 20
-17213.8063807821818045
 30
0.0
 11
-36229.580613388272468
 21
-17213.8656766094682098
 31
0.0
  0
ARC
  5
A364
  8
0
 10
-36229.924456646112958
 20
-17213.7261790892807767
 30
0.0
 40
0.3454724409002484
 50
193.8077992569488117
 51
200.4449889634115891
  0
ARC
  5
A365
  8
0
 10
-36230.2404354162426898
 20
-17213.842711707118724
 30
0.0
 40
0.0087720259928697
 50
208.1881943074434957
 51
244.0757907793312995
  0
ARC
  5
A366
  8
0
 10
-36230.2100508718431229
 20
-17213.7802402820016141
 30
0.0
 40
0.078240720144037
 50
244.0643153163254055
 51
259.2676094423547966
  0
ARC
  5
A367
  8
0
 10
-36230.0892505173687823
 20
-17213.1428976159986632
 30
0.0
 40
0.7269304761508651
 50
259.2676094423547966
 51
262.6870258628251236
  0
ARC
  5
A368
  8
0
 10
-36230.0880162883477169
 20
-17213.1332802309007093
 30
0.0
 40
0.7366267340496817
 50
262.6870258628251236
 51
267.0392230109764
  0
ARC
  5
A369
  8
0
 10
-36230.5376019566901959
 20
-17221.8257378566304396
 30
0.0
 40
7.967449715990675
 50
86.6631398369923431
 51
87.0392230109764569
  0
ARC
  5
A36A
  8
0
 10
-36230.0190618558481219
 20
-17212.9321792740083765
 30
0.0
 40
0.9412128154289886
 50
266.6631398369922863
 51
269.4364055771764015
  0
ARC
  5
A36B
  8
0
 10
-36230.0568089445514488
 20
-17216.7694761466482305
 30
0.0
 40
2.8962697098137502
 50
88.4963259005984639
 51
89.4364055771764157
  0
ARC
  5
A36C
  8
0
 10
-36229.9284334874319029
 20
-17211.8789994547514652
 30
0.0
 40
1.995891625636623
 50
268.4963259005983787
 51
272.8731149334935253
  0
ARC
  5
A36D
  8
0
 10
-36230.5061197830873425
 20
-17200.3684126209009264
 30
0.0
 40
13.5209656260880493
 50
272.8731149334935253
 51
273.289308571802394
  0
ARC
  5
A36E
  8
0
 10
-36229.7768109106982592
 20
-17213.0581322275611456
 30
0.0
 40
0.8103057247614472
 50
273.289308571802394
 51
278.5850531122914049
  0
LINE
  5
A36F
  8
0
 10
-36229.5527028103169869
 20
-17213.7325056871814013
 30
0.0
 11
-36229.5554371651232941
 21
-17213.7650682491803309
 31
0.0
  0
ARC
  5
A370
  8
0
 10
-36229.8769324671302456
 20
-17213.7380715336803405
 30
0.0
 40
0.3226267996585059
 50
336.7016442947003156
 51
355.1999998748506755
  0
ENDSEC
  0
EOF
