  0
SECTION
  2
HEADER
  9
$ACADVER
  1
AC1009
  9
$INSBASE
 10
3337.3321315437351586
 20
300.1528827192989866
 30
0.0
  9
$EXTMIN
 10
3328.715868643686008
 20
292.7728827192991048
 30
0.0
  9
$EXTMAX
 10
3345.9483944437852188
 20
300.1581194074528867
 30
0.0
  9
$LIMMIN
 10
0.0
 20
0.0
  9
$LIMMAX
 10
11.6929133858000007
 20
8.2677165353999982
  9
$ORTHOMODE
 70
     0
  9
$REGENMODE
 70
     1
  9
$FILLMODE
 70
     1
  9
$QTEXTMODE
 70
     0
  9
$MIRRTEXT
 70
     0
  9
$DRAGMODE
 70
     2
  9
$LTSCALE
 40
0.6431102362
  9
$OSMODE
 70
  3839
  9
$ATTMODE
 70
     1
  9
$TEXTSIZE
 40
0.2
  9
$TRACEWID
 40
0.05
  9
$TEXTSTYLE
  7
STANDARD
  9
$CLAYER
  8
0
  9
$CELTYPE
  6
BYLAYER
  9
$CECOLOR
 62
   256
  9
$DIMSCALE
 40
1.0
  9
$DIMASZ
 40
0.1875
  9
$DIMEXO
 40
0.0625
  9
$DIMDLI
 40
0.4443307087
  9
$DIMRND
 40
0.0
  9
$DIMDLE
 40
0.0
  9
$DIMEXE
 40
0.125
  9
$DIMTP
 40
0.01
  9
$DIMTM
 40
0.01
  9
$DIMTXT
 40
2.0
  9
$DIMCEN
 40
0.1052362205
  9
$DIMTSZ
 40
0.0
  9
$DIMTOL
 70
     1
  9
$DIMLIM
 70
     0
  9
$DIMTIH
 70
     1
  9
$DIMTOH
 70
     1
  9
$DIMSE1
 70
     0
  9
$DIMSE2
 70
     0
  9
$DIMTAD
 70
     0
  9
$DIMZIN
 70
     0
  9
$DIMBLK
  1

  9
$DIMASO
 70
     1
  9
$DIMSHO
 70
     1
  9
$DIMPOST
  1
\X
  9
$DIMAPOST
  1

  9
$DIMALT
 70
     1
  9
$DIMALTD
 70
     2
  9
$DIMALTF
 40
25.3999999999999986
  9
$DIMLFAC
 40
1.0
  9
$DIMTOFL
 70
     0
  9
$DIMTVP
 40
0.0
  9
$DIMTIX
 70
     0
  9
$DIMSOXD
 70
     0
  9
$DIMSAH
 70
     0
  9
$DIMBLK1
  1

  9
$DIMBLK2
  1

  9
$DIMSTYLE
  2
STANDARD
  9
$DIMCLRD
 70
     0
  9
$DIMCLRE
 70
     0
  9
$DIMCLRT
 70
     0
  9
$DIMTFAC
 40
1.0
  9
$DIMGAP
 40
0.09
  9
$LUNITS
 70
     2
  9
$LUPREC
 70
     4
  9
$SKETCHINC
 40
0.1
  9
$FILLETRAD
 40
0.0
  9
$AUNITS
 70
     0
  9
$AUPREC
 70
     0
  9
$MENU
  1
.
  9
$ELEVATION
 40
0.0
  9
$PELEVATION
 40
0.0
  9
$THICKNESS
 40
0.0
  9
$LIMCHECK
 70
     0
  9
$BLIPMODE
 70
     0
  9
$CHAMFERA
 40
0.0
  9
$CHAMFERB
 40
0.0
  9
$SKPOLY
 70
     0
  9
$TDCREATE
 40
2458060.468368056230247
  9
$TDUPDATE
 40
2459016.6276736110448837
  9
$TDINDWG
 40
0.4606913773
  9
$TDUSRTIMER
 40
0.4606913773
  9
$USRTIMER
 70
     1
  9
$ANGBASE
 50
0.0
  9
$ANGDIR
 70
     0
  9
$PDMODE
 70
     0
  9
$PDSIZE
 40
0.3125
  9
$PLINEWID
 40
0.0
  9
$COORDS
 70
     1
  9
$SPLFRAME
 70
     0
  9
$SPLINETYPE
 70
     6
  9
$SPLINESEGS
 70
     8
  9
$ATTDIA
 70
     1
  9
$ATTREQ
 70
     1
  9
$HANDLING
 70
     1
  9
$HANDSEED
  5
78CA
  9
$SURFTAB1
 70
     6
  9
$SURFTAB2
 70
     6
  9
$SURFTYPE
 70
     6
  9
$SURFU
 70
     6
  9
$SURFV
 70
     6
  9
$UCSNAME
  2

  9
$UCSORG
 10
0.0
 20
0.0
 30
0.0
  9
$UCSXDIR
 10
1.0
 20
0.0
 30
0.0
  9
$UCSYDIR
 10
0.0
 20
1.0
 30
0.0
  9
$PUCSNAME
  2

  9
$PUCSORG
 10
0.0
 20
0.0
 30
0.0
  9
$PUCSXDIR
 10
1.0
 20
0.0
 30
0.0
  9
$PUCSYDIR
 10
0.0
 20
1.0
 30
0.0
  9
$USERI1
 70
     0
  9
$USERI2
 70
     0
  9
$USERI3
 70
     0
  9
$USERI4
 70
     0
  9
$USERI5
 70
     0
  9
$USERR1
 40
0.0
  9
$USERR2
 40
0.0
  9
$USERR3
 40
0.0
  9
$USERR4
 40
0.0
  9
$USERR5
 40
0.0
  9
$WORLDVIEW
 70
     1
  9
$SHADEDGE
 70
     3
  9
$SHADEDIF
 70
    70
  9
$TILEMODE
 70
     1
  9
$MAXACTVP
 70
    64
  9
$PLIMCHECK
 70
     0
  9
$PEXTMIN
 10
1.0000000000000000E+20
 20
1.0000000000000000E+20
 30
1.0000000000000000E+20
  9
$PEXTMAX
 10
-1.0000000000000000E+20
 20
-1.0000000000000000E+20
 30
-1.0000000000000000E+20
  9
$PLIMMIN
 10
0.0
 20
0.0
  9
$PLIMMAX
 10
12.0
 20
9.0
  9
$UNITMODE
 70
     0
  9
$VISRETAIN
 70
     1
  9
$PLINEGEN
 70
     0
  9
$PSLTSCALE
 70
     1
  0
ENDSEC
  0
SECTION
  2
TABLES
  0
TABLE
  2
VPORT
 70
     1
  0
VPORT
  2
*ACTIVE
 70
     0
 10
0.0
 20
0.0
 11
1.0
 21
1.0
 12
5.9293653964702271
 22
0.0
 13
0.0
 23
0.0
 14
1.0
 24
1.0
 15
0.0
 25
0.0
 16
0.0
 26
0.0
 36
64.5664964322721886
 17
3337.33203125
 27
296.4655037955233183
 37
0.0
 40
18.7482800253207884
 41
3.314341846758349
 42
50.0
 43
0.0
 44
0.0
 50
0.0
 51
0.0
 71
     0
 72
   100
 73
     1
 74
     1
 75
     0
 76
     0
 77
     0
 78
     0
  0
ENDTAB
  0
TABLE
  2
LTYPE
 70
     2
  0
LTYPE
  2
CONTINUOUS
 70
     0
  3
Solid line
 72
    65
 73
     0
 40
0.0
  0
LTYPE
  2
PHANTOM2
 70
     0
  3
___ _ _ ___ _ _ ___ _ _ ___ _ _
 72
    65
 73
     6
 40
1.25
 49
0.625
 49
-0.125
 49
0.125
 49
-0.125
 49
0.125
 49
-0.125
  0
ENDTAB
  0
TABLE
  2
LAYER
 70
     2
  0
LAYER
  2
0
 70
     0
 62
   255
  6
CONTINUOUS
  0
LAYER
  2
DEFPOINTS
 70
     0
 62
     7
  6
CONTINUOUS
  0
ENDTAB
  0
TABLE
  2
STYLE
 70
     1
  0
STYLE
  2
STANDARD
 70
     0
 40
0.0
 41
0.8
 50
0.0
 71
     0
 42
0.2
  3
txt
  4

  0
ENDTAB
  0
TABLE
  2
VIEW
 70
     0
  0
ENDTAB
  0
TABLE
  2
UCS
 70
     0
  0
ENDTAB
  0
TABLE
  2
APPID
 70
     9
  0
APPID
  2
ACAD
 70
     0
  0
APPID
  2
ACAD_MLEADERVER
 70
     0
  0
APPID
  2
ACAD_EXEMPT_FROM_CAD_STANDARDS
 70
     0
  0
APPID
  2
ACAD_NAV_VCDISPLAY
 70
     0
  0
APPID
  2
ACAECLAYERSTANDARD
 70
     0
  0
APPID
  2
ACCMTRANSPARENCY
 70
     0
  0
APPID
  2
ACAD_DSTYLE_DIMJAG
 70
     0
  0
APPID
  2
ACAD_DSTYLE_DIMTALN
 70
     0
  0
APPID
  2
ACDBATTR
 70
     0
  0
ENDTAB
  0
TABLE
  2
DIMSTYLE
 70
     1
  0
DIMSTYLE
  2
STANDARD
 70
     0
  3

  4

  5

  6

  7

 40
1.0
 41
0.1875
 42
0.0625
 43
0.38
 44
0.125
 45
0.0
 46
0.0
 47
0.01
 48
0.01
140
0.15625
141
0.09
142
0.0
143
25.3999999999999986
144
1.0
145
0.0
146
1.0
147
0.09
 71
     1
 72
     0
 73
     1
 74
     1
 75
     0
 76
     0
 77
     0
 78
     4
170
     0
171
     2
172
     0
173
     0
174
     0
175
     0
176
     0
177
     0
178
     0
  0
ENDTAB
  0
ENDSEC
  0
SECTION
  2
BLOCKS
  0
BLOCK
  8
0
  2
$MODEL_SPACE
 70
     0
 10
0.0
 20
0.0
 30
0.0
  3
$MODEL_SPACE
  1

  0
ENDBLK
  5
21
  8
0
  0
BLOCK
 67
     1
  8
0
  2
$PAPER_SPACE
 70
     0
 10
0.0
 20
0.0
 30
0.0
  3
$PAPER_SPACE
  1

  0
ENDBLK
  5
1D
 67
     1
  8
0
  0
ENDSEC
  0
SECTION
  2
ENTITIES
  0
ATTDEF
  5
3930
  8
DEFPOINTS
 10
3337.3204528900610057
 20
300.1571194074529103
 30
0.0
 40
0.001
  1
K-2211IN
  3

  2
MODELNUMBER
 70
     0
1001
ACDBATTR
1070
     0
1070
     1
  0
ATTDEF
  5
3931
  8
DEFPOINTS
 10
3337.3204528900610057
 20
300.1554527407861883
 30
0.0
 40
0.001
  1
CAXTON
  3

  2
TRADENAME
 70
     0
1001
ACDBATTR
1070
     0
1070
     1
  0
ATTDEF
  5
3932
  8
DEFPOINTS
 10
3337.3204528900610057
 20
300.15378607411958
 30
0.0
 40
0.001
  1
BATHROOM SINK
  3

  2
PRODUCT
 70
     0
1001
ACDBATTR
1070
     0
1070
     1
  0
LINE
  5
7542
  8
0
 10
3340.7971315437857811
 20
292.7728827192991048
 30
0.0
 11
3343.4871315437849262
 21
292.7728827192991048
 31
0.0
  0
LINE
  5
7543
  8
0
 10
3340.7700587257850202
 20
293.0587716776989851
 30
0.0
 11
3340.7971315437857811
 21
292.7728827192991048
 31
0.0
  0
LINE
  5
7544
  8
0
 10
3343.6188364683848704
 20
294.1636867226990262
 30
0.0
 11
3343.4871315437849262
 21
292.7728827192991048
 31
0.0
  0
LINE
  5
7545
  8
0
 10
3345.9112842367849225
 20
299.8166691346991115
 30
0.0
 11
3345.9478442552481283
 21
300.0847759371314964
 31
0.0
  0
ARC
  5
7546
  8
0
 10
3345.7923846165849682
 20
299.8328827192989934
 30
0.0
 40
0.12
 50
270.0
 51
352.2348321013997179
  0
ARC
  5
7547
  8
0
 10
3345.8883944437848186
 20
300.092882719299098
 30
0.0
 40
0.06
 50
352.2348437315021101
 51
90.0
  0
LINE
  5
7548
  8
0
 10
3328.7758686436850439
 20
300.1528827192989866
 30
0.0
 11
3345.8883944437848186
 21
300.1528827192989866
 31
0.0
  0
LINE
  5
7549
  8
0
 10
3328.8718784708858038
 20
299.7128827192991025
 30
0.0
 11
3345.7923846165849682
 21
299.7128827192991025
 31
0.0
  0
ARC
  5
754A
  8
0
 10
3345.5480986021188983
 20
299.4626738474212857
 30
0.0
 40
0.250293729332605
 50
91.492003762208526
 51
175.5867724852928973
  0
ARC
  5
754B
  8
0
 10
5566.9637912535590658
 20
128.0181620834688943
 30
0.0
 40
2228.2720396223248827
 50
175.5867724852928973
 51
175.6788753776147018
  0
ARC
  5
754C
  8
0
 10
3343.3666421955908845
 20
295.9840038682509089
 30
0.0
 40
1.660779846081514
 50
285.310778694881094
 51
357.4595292214439155
  0
ARC
  5
754D
  8
0
 10
3343.8677713610090905
 20
294.1400776947824056
 30
0.0
 40
0.2500519285363062
 50
104.4963950824614045
 51
174.5822632273925024
  0
LINE
  5
754E
  8
0
 10
3328.9058684021370027
 20
299.7128827192991025
 30
0.0
 11
3328.9058629695850868
 21
298.3441037398303024
 31
0.0
  0
ARC
  5
754F
  8
0
 10
3329.6978371567652175
 20
298.3525687828469017
 30
0.0
 40
0.7920194256402008
 50
180.6123845672528034
 51
202.1807853429554029
  0
ARC
  5
7550
  8
0
 10
3335.5348157915018419
 20
300.7323124714690152
 30
0.0
 40
7.0954708299036948
 50
202.1807853429554029
 51
224.5696518140196929
  0
ARC
  5
7551
  8
0
 10
3335.9683031535391819
 20
301.1593364177418835
 30
0.0
 40
7.7039613752179514
 50
224.5696518140196929
 51
267.3088930948616735
  0
ARC
  5
7552
  8
0
 10
3337.7696249123559937
 20
339.4826853111205764
 30
0.0
 40
46.0696208962324789
 50
267.3088930948616735
 51
268.4349263075957879
  0
ARC
  5
7553
  8
0
 10
3330.4553603418321472
 20
71.7813904068240447
 30
0.0
 40
221.7315773080412953
 50
87.3957472570872653
 51
88.4349263075958589
  0
ARC
  5
7554
  8
0
 10
3340.5187221978690104
 20
293.0314020207223962
 30
0.0
 40
0.2528223652848327
 50
6.2148184842591716
 51
87.3961000610143373
  0
ARC
  5
7555
  8
0
 10
3362.4558564035728523
 20
310.1088713541274728
 30
0.0
 40
34.4840619175861534
 50
197.8380222778297082
 51
199.2441324871994084
  0
ARC
  5
7556
  8
0
 10
3338.905077166125011
 20
301.9562289880357184
 30
0.0
 40
9.5623946935634141
 50
199.6341961149580868
 51
201.2858332120449063
  0
ARC
  5
7557
  8
0
 10
3335.8530303802149319
 20
300.7661437744822024
 30
0.0
 40
6.2865297621872722
 50
201.2772460951271967
 51
222.8581594825888033
  0
ARC
  5
7558
  8
0
 10
3335.8347640339948157
 20
300.8456139246212047
 30
0.0
 40
6.3364816902263597
 50
223.4976474102284953
 51
268.3089308305027885
  0
ARC
  5
7559
  8
0
 10
3335.4507671505730286
 20
234.3078445264592062
 30
0.0
 40
60.2043697484882188
 50
87.3607162795089067
 51
89.8125128160097006
  0
ARC
  5
755A
  8
0
 10
3342.3375890107781743
 20
383.7069759915594886
 30
0.0
 40
89.3534077084549381
 50
267.3607162795088925
 51
269.2683428211275896
  0
ARC
  5
755B
  8
0
 10
3341.9919915166610735
 20
356.6505135024490869
 30
0.0
 40
62.2947381172672507
 50
269.2684093815291249
 51
271.6679200259853815
  0
ARC
  5
755C
  8
0
 10
3329.3968869023888146
 20
299.467868226786095
 30
0.0
 40
0.24528241099635
 50
18.4437858373212187
 51
87.3217858258864936
  0
LINE
  5
755D
  8
0
 10
3328.75297885068494
 20
299.8166691346991115
 30
0.0
 11
3328.7164188322230984
 21
300.0847759371314964
 31
0.0
  0
ARC
  5
755E
  8
0
 10
3328.8718784708858038
 20
299.8328827192989934
 30
0.0
 40
0.12
 50
187.7651678986003105
 51
270.0
  0
ARC
  5
755F
  8
0
 10
3328.7758686436850439
 20
300.092882719299098
 30
0.0
 40
0.06
 50
90.0
 51
187.7651562684978899
  0
ENDSEC
  0
EOF
