  0
SECTION
  2
HEADER
  9
$ACADVER
  1
AC1009
  9
$INSBASE
 10
4996.3437937320986748
 20
196.8045722088021137
 30
0.0
  9
$EXTMIN
 10
4966.6992580246769649
 20
196.7963297898430142
 30
-0.0000000349181948
  9
$EXTMAX
 10
5026.1342986647177895
 20
221.103626472894689
 30
0.0000000814935746
  9
$LIMMIN
 10
0.0
 20
0.0
  9
$LIMMAX
 10
11.6929133858000007
 20
8.2677165353999982
  9
$ORTHOMODE
 70
     0
  9
$REGENMODE
 70
     1
  9
$FILLMODE
 70
     1
  9
$QTEXTMODE
 70
     0
  9
$MIRRTEXT
 70
     0
  9
$DRAGMODE
 70
     2
  9
$LTSCALE
 40
0.6431102362
  9
$OSMODE
 70
  4095
  9
$ATTMODE
 70
     1
  9
$TEXTSIZE
 40
0.2
  9
$TRACEWID
 40
0.05
  9
$TEXTSTYLE
  7
STANDARD
  9
$CLAYER
  8
0
  9
$CELTYPE
  6
BYLAYER
  9
$CECOLOR
 62
   256
  9
$DIMSCALE
 40
1.0
  9
$DIMASZ
 40
0.1875
  9
$DIMEXO
 40
0.0625
  9
$DIMDLI
 40
0.4443307087
  9
$DIMRND
 40
0.0
  9
$DIMDLE
 40
0.0
  9
$DIMEXE
 40
0.125
  9
$DIMTP
 40
0.01
  9
$DIMTM
 40
0.01
  9
$DIMTXT
 40
2.0
  9
$DIMCEN
 40
0.1052362205
  9
$DIMTSZ
 40
0.0
  9
$DIMTOL
 70
     1
  9
$DIMLIM
 70
     0
  9
$DIMTIH
 70
     1
  9
$DIMTOH
 70
     1
  9
$DIMSE1
 70
     0
  9
$DIMSE2
 70
     0
  9
$DIMTAD
 70
     0
  9
$DIMZIN
 70
     0
  9
$DIMBLK
  1

  9
$DIMASO
 70
     1
  9
$DIMSHO
 70
     1
  9
$DIMPOST
  1
\X
  9
$DIMAPOST
  1

  9
$DIMALT
 70
     1
  9
$DIMALTD
 70
     2
  9
$DIMALTF
 40
25.3999999999999986
  9
$DIMLFAC
 40
1.0
  9
$DIMTOFL
 70
     0
  9
$DIMTVP
 40
0.0
  9
$DIMTIX
 70
     0
  9
$DIMSOXD
 70
     0
  9
$DIMSAH
 70
     0
  9
$DIMBLK1
  1

  9
$DIMBLK2
  1

  9
$DIMSTYLE
  2
STANDARD
  9
$DIMCLRD
 70
     0
  9
$DIMCLRE
 70
     0
  9
$DIMCLRT
 70
     0
  9
$DIMTFAC
 40
1.0
  9
$DIMGAP
 40
0.09
  9
$LUNITS
 70
     2
  9
$LUPREC
 70
     4
  9
$SKETCHINC
 40
0.1
  9
$FILLETRAD
 40
0.0
  9
$AUNITS
 70
     0
  9
$AUPREC
 70
     0
  9
$MENU
  1
.
  9
$ELEVATION
 40
0.0
  9
$PELEVATION
 40
0.0
  9
$THICKNESS
 40
0.0
  9
$LIMCHECK
 70
     0
  9
$BLIPMODE
 70
     0
  9
$CHAMFERA
 40
0.0
  9
$CHAMFERB
 40
0.0
  9
$SKPOLY
 70
     0
  9
$TDCREATE
 40
2458060.468368056230247
  9
$TDUPDATE
 40
2460095.5329976850189269
  9
$TDINDWG
 40
0.3796945602
  9
$TDUSRTIMER
 40
0.3796945602
  9
$USRTIMER
 70
     1
  9
$ANGBASE
 50
0.0
  9
$ANGDIR
 70
     0
  9
$PDMODE
 70
     0
  9
$PDSIZE
 40
0.3125
  9
$PLINEWID
 40
0.0
  9
$COORDS
 70
     1
  9
$SPLFRAME
 70
     0
  9
$SPLINETYPE
 70
     6
  9
$SPLINESEGS
 70
     8
  9
$ATTDIA
 70
     1
  9
$ATTREQ
 70
     1
  9
$HANDLING
 70
     1
  9
$HANDSEED
  5
F676
  9
$SURFTAB1
 70
     6
  9
$SURFTAB2
 70
     6
  9
$SURFTYPE
 70
     6
  9
$SURFU
 70
     6
  9
$SURFV
 70
     6
  9
$UCSNAME
  2

  9
$UCSORG
 10
0.0
 20
0.0
 30
0.0
  9
$UCSXDIR
 10
1.0
 20
0.0
 30
0.0
  9
$UCSYDIR
 10
0.0
 20
1.0
 30
0.0
  9
$PUCSNAME
  2

  9
$PUCSORG
 10
0.0
 20
0.0
 30
0.0
  9
$PUCSXDIR
 10
1.0
 20
0.0
 30
0.0
  9
$PUCSYDIR
 10
0.0
 20
1.0
 30
0.0
  9
$USERI1
 70
     0
  9
$USERI2
 70
     0
  9
$USERI3
 70
     0
  9
$USERI4
 70
     0
  9
$USERI5
 70
     0
  9
$USERR1
 40
0.0
  9
$USERR2
 40
0.0
  9
$USERR3
 40
0.0
  9
$USERR4
 40
0.0
  9
$USERR5
 40
0.0
  9
$WORLDVIEW
 70
     1
  9
$SHADEDGE
 70
     3
  9
$SHADEDIF
 70
    70
  9
$TILEMODE
 70
     1
  9
$MAXACTVP
 70
    64
  9
$PLIMCHECK
 70
     0
  9
$PEXTMIN
 10
1.0000000000000000E+20
 20
1.0000000000000000E+20
 30
1.0000000000000000E+20
  9
$PEXTMAX
 10
-1.0000000000000000E+20
 20
-1.0000000000000000E+20
 30
-1.0000000000000000E+20
  9
$PLIMMIN
 10
0.0
 20
0.0
  9
$PLIMMAX
 10
12.0
 20
9.0
  9
$UNITMODE
 70
     0
  9
$VISRETAIN
 70
     1
  9
$PLINEGEN
 70
     0
  9
$PSLTSCALE
 70
     1
  0
ENDSEC
  0
SECTION
  2
TABLES
  0
TABLE
  2
VPORT
 70
     1
  0
VPORT
  2
*ACTIVE
 70
     0
 10
0.0
 20
0.0
 11
1.0
 21
1.0
 12
84.8862607665723772
 22
-0.1089975907405858
 13
0.0
 23
0.0
 14
1.0
 24
1.0
 15
0.0
 25
0.0
 16
0.0
 26
0.0
 36
183.0180484876221101
 17
4911.530517578125
 27
209.0589757221094942
 37
0.0
 40
37.8330429458767412
 41
1.577702702702702
 42
50.0
 43
0.0
 44
0.0
 50
0.0
 51
0.0
 71
     0
 72
   100
 73
     1
 74
     1
 75
     0
 76
     0
 77
     0
 78
     0
  0
ENDTAB
  0
TABLE
  2
LTYPE
 70
     2
  0
LTYPE
  2
CONTINUOUS
 70
     0
  3
Solid line
 72
    65
 73
     0
 40
0.0
  0
LTYPE
  2
PHANTOM2
 70
     0
  3
___ _ _ ___ _ _ ___ _ _ ___ _ _
 72
    65
 73
     6
 40
1.25
 49
0.625
 49
-0.125
 49
0.125
 49
-0.125
 49
0.125
 49
-0.125
  0
ENDTAB
  0
TABLE
  2
LAYER
 70
     2
  0
LAYER
  2
0
 70
     0
 62
   255
  6
CONTINUOUS
  0
LAYER
  2
DEFPOINTS
 70
     0
 62
     7
  6
CONTINUOUS
  0
ENDTAB
  0
TABLE
  2
STYLE
 70
     1
  0
STYLE
  2
STANDARD
 70
     0
 40
0.0
 41
0.8
 50
0.0
 71
     0
 42
0.2
  3
txt
  4

  0
ENDTAB
  0
TABLE
  2
VIEW
 70
     0
  0
ENDTAB
  0
TABLE
  2
UCS
 70
     0
  0
ENDTAB
  0
TABLE
  2
APPID
 70
     9
  0
APPID
  2
ACAD
 70
     0
  0
APPID
  2
ACAD_MLEADERVER
 70
     0
  0
APPID
  2
ACAD_EXEMPT_FROM_CAD_STANDARDS
 70
     0
  0
APPID
  2
ACAD_NAV_VCDISPLAY
 70
     0
  0
APPID
  2
ACAECLAYERSTANDARD
 70
     0
  0
APPID
  2
ACCMTRANSPARENCY
 70
     0
  0
APPID
  2
ACAD_DSTYLE_DIMJAG
 70
     0
  0
APPID
  2
ACAD_DSTYLE_DIMTALN
 70
     0
  0
APPID
  2
ACDBATTR
 70
     0
  0
ENDTAB
  0
TABLE
  2
DIMSTYLE
 70
     1
  0
DIMSTYLE
  2
STANDARD
 70
     0
  3

  4

  5

  6

  7

 40
1.0
 41
0.1875
 42
0.0625
 43
0.38
 44
0.125
 45
0.0
 46
0.0
 47
0.01
 48
0.01
140
0.15625
141
0.09
142
0.0
143
25.3999999999999986
144
1.0
145
0.0
146
1.0
147
0.09
 71
     1
 72
     0
 73
     1
 74
     1
 75
     0
 76
     0
 77
     0
 78
     4
170
     0
171
     2
172
     0
173
     0
174
     0
175
     0
176
     0
177
     0
178
     0
  0
ENDTAB
  0
ENDSEC
  0
SECTION
  2
BLOCKS
  0
BLOCK
  8
0
  2
$MODEL_SPACE
 70
     0
 10
0.0
 20
0.0
 30
0.0
  3
$MODEL_SPACE
  1

  0
ENDBLK
  5
21
  8
0
  0
BLOCK
 67
     1
  8
0
  2
$PAPER_SPACE
 70
     0
 10
0.0
 20
0.0
 30
0.0
  3
$PAPER_SPACE
  1

  0
ENDBLK
  5
1D
 67
     1
  8
0
  0
ENDSEC
  0
SECTION
  2
ENTITIES
  0
ATTDEF
  5
3930
  8
DEFPOINTS
 10
4996.3405562209627533
 20
196.8109160165730032
 30
0.0
 40
0.001
  1
K-22160X
  3

  2
MODELNUMBER
 70
     0
1001
ACDBATTR
1070
     0
1070
     1
  0
ATTDEF
  5
3931
  8
DEFPOINTS
 10
4996.3405562209627533
 20
196.8092493499063096
 30
0.0
 40
0.001
  1
EVOK
  3

  2
TRADENAME
 70
     0
1001
ACDBATTR
1070
     0
1070
     1
  0
ATTDEF
  5
3932
  8
DEFPOINTS
 10
4996.3405562209627533
 20
196.8075826832397013
 30
0.0
 40
0.001
  1
BATH
  3

  2
PRODUCT
 70
     0
1001
ACDBATTR
1070
     0
1070
     1
  0
LINE
  5
F4D4
  8
0
 10
4971.9675094491412892
 20
197.5352906485190942
 30
0.0
 11
4966.8758145452411554
 21
220.6841411251191971
 31
0.0
  0
LINE
  5
F4D5
  8
0
 10
4972.6315644116411931
 20
197.0014323808190966
 30
0.0
 11
5020.0560103857396825
 21
197.0014323808190966
 31
0.0
  0
ARC
  5
F4D6
  8
0
 10
4972.6315644116411931
 20
197.6813634478191091
 30
0.0
 40
0.6799310670000001
 50
192.4058307808053883
 51
269.9999999994789164
  0
ARC
  5
F4D7
  8
0
 10
4967.1779360442506004
 20
220.776069157030804
 30
0.0
 40
0.3157976618275704
 50
89.5391630091473445
 51
196.9236963158971889
  0
ARC
  5
F4D8
  8
0
 10
4967.9271890588661336
 20
292.5204723868591827
 30
0.0
 40
71.4325187362304632
 50
269.401053108141582
 51
269.9473352884025985
  0
LINE
  5
F4D9
  8
0
 10
5020.7200653482423149
 20
197.5352906485190942
 30
0.0
 11
5025.8117602521406297
 21
220.6841411251191971
 31
0.0
  0
ARC
  5
F4DA
  8
0
 10
5020.0560103857396825
 20
197.6813634478191091
 30
0.0
 40
0.6799310670000001
 50
270.0000000005210836
 51
347.5941692191946117
  0
ARC
  5
F4DB
  8
0
 10
5025.5096387531302753
 20
220.776069157030804
 30
0.0
 40
0.3157976618275704
 50
343.0763036841028111
 51
90.4608369909047525
  0
ARC
  5
F4DC
  8
0
 10
5024.7603857385156516
 20
292.5204723868591827
 30
0.0
 40
71.4325187362304632
 50
270.0526647115974015
 51
270.598946891858418
  0
LINE
  5
F4DD
  8
0
 10
4967.8615302529406108
 20
221.0879838265190926
 30
0.0
 11
5024.8260445444348079
 21
221.0879838265190926
 31
0.0
  0
LINE
  5
F4DE
  8
0
 10
4980.7922239931986041
 20
196.883312366302107
 30
0.0
 11
4982.7607279301982999
 21
196.883312366302107
 31
0.0
  0
LINE
  5
F4DF
  8
0
 10
4982.7607279301982999
 20
196.883312366302107
 30
0.0
 11
4982.7607279301982999
 21
196.8045722088021137
 31
0.0
  0
LINE
  5
F4E0
  8
0
 10
4982.7607279301982999
 20
196.8045722088021137
 30
0.0
 11
4980.7922239931986041
 21
196.8045722088021137
 31
0.0
  0
LINE
  5
F4E1
  8
0
 10
4980.7922239931986041
 20
196.8045722088021137
 30
0.0
 11
4980.7922239931986041
 21
196.883312366302107
 31
0.0
  0
LINE
  5
F4E2
  8
0
 10
4982.5245074577987907
 20
197.0014226025020889
 30
0.0
 11
4982.5245074577987907
 21
196.883312366302107
 31
0.0
  0
LINE
  5
F4E3
  8
0
 10
4981.0284444656990672
 20
196.883312366302107
 30
0.0
 11
4981.0284444656990672
 21
197.0014226025020889
 31
0.0
  0
LINE
  5
F4E4
  8
0
 10
5011.895350804183181
 20
196.883312366302107
 30
0.0
 11
5009.9268468671843948
 21
196.883312366302107
 31
0.0
  0
LINE
  5
F4E5
  8
0
 10
5009.9268468671843948
 20
196.883312366302107
 30
0.0
 11
5009.9268468671843948
 21
196.8045722088021137
 31
0.0
  0
LINE
  5
F4E6
  8
0
 10
5009.9268468671843948
 20
196.8045722088021137
 30
0.0
 11
5011.895350804183181
 21
196.8045722088021137
 31
0.0
  0
LINE
  5
F4E7
  8
0
 10
5011.895350804183181
 20
196.8045722088021137
 30
0.0
 11
5011.895350804183181
 21
196.883312366302107
 31
0.0
  0
LINE
  5
F4E8
  8
0
 10
5010.163067339583904
 20
197.0014226025020889
 30
0.0
 11
5010.163067339583904
 21
196.883312366302107
 31
0.0
  0
LINE
  5
F4E9
  8
0
 10
5011.659130331682718
 20
196.883312366302107
 30
0.0
 11
5011.659130331682718
 21
197.0014226025020889
 31
0.0
  0
ENDSEC
  0
EOF
