  0
SECTION
  2
HEADER
  9
$ACADVER
  1
AC1009
  9
$INSBASE
 10
5195.8118215646463796
 20
216.8452838867964942
 30
0.0
  9
$EXTMIN
 10
5162.1749334929681936
 20
201.900401838949108
 30
-0.0015258207003583
  9
$EXTMAX
 10
5229.3713033914273183
 20
231.7892243799703067
 30
0.0000000349246037
  9
$LIMMIN
 10
0.0
 20
0.0
  9
$LIMMAX
 10
11.6929133858000007
 20
8.2677165353999982
  9
$ORTHOMODE
 70
     0
  9
$REGENMODE
 70
     1
  9
$FILLMODE
 70
     1
  9
$QTEXTMODE
 70
     0
  9
$MIRRTEXT
 70
     0
  9
$DRAGMODE
 70
     2
  9
$LTSCALE
 40
0.6431102362
  9
$OSMODE
 70
  4095
  9
$ATTMODE
 70
     1
  9
$TEXTSIZE
 40
0.2
  9
$TRACEWID
 40
0.05
  9
$TEXTSTYLE
  7
STANDARD
  9
$CLAYER
  8
0
  9
$CELTYPE
  6
BYLAYER
  9
$CECOLOR
 62
   256
  9
$DIMSCALE
 40
1.0
  9
$DIMASZ
 40
0.1875
  9
$DIMEXO
 40
0.0625
  9
$DIMDLI
 40
0.4443307087
  9
$DIMRND
 40
0.0
  9
$DIMDLE
 40
0.0
  9
$DIMEXE
 40
0.125
  9
$DIMTP
 40
0.01
  9
$DIMTM
 40
0.01
  9
$DIMTXT
 40
2.0
  9
$DIMCEN
 40
0.1052362205
  9
$DIMTSZ
 40
0.0
  9
$DIMTOL
 70
     1
  9
$DIMLIM
 70
     0
  9
$DIMTIH
 70
     1
  9
$DIMTOH
 70
     1
  9
$DIMSE1
 70
     0
  9
$DIMSE2
 70
     0
  9
$DIMTAD
 70
     0
  9
$DIMZIN
 70
     0
  9
$DIMBLK
  1

  9
$DIMASO
 70
     1
  9
$DIMSHO
 70
     1
  9
$DIMPOST
  1
\X
  9
$DIMAPOST
  1

  9
$DIMALT
 70
     1
  9
$DIMALTD
 70
     2
  9
$DIMALTF
 40
25.3999999999999986
  9
$DIMLFAC
 40
1.0
  9
$DIMTOFL
 70
     0
  9
$DIMTVP
 40
0.0
  9
$DIMTIX
 70
     0
  9
$DIMSOXD
 70
     0
  9
$DIMSAH
 70
     0
  9
$DIMBLK1
  1

  9
$DIMBLK2
  1

  9
$DIMSTYLE
  2
STANDARD
  9
$DIMCLRD
 70
     0
  9
$DIMCLRE
 70
     0
  9
$DIMCLRT
 70
     0
  9
$DIMTFAC
 40
1.0
  9
$DIMGAP
 40
0.09
  9
$LUNITS
 70
     2
  9
$LUPREC
 70
     4
  9
$SKETCHINC
 40
0.1
  9
$FILLETRAD
 40
0.0
  9
$AUNITS
 70
     0
  9
$AUPREC
 70
     0
  9
$MENU
  1
.
  9
$ELEVATION
 40
0.0
  9
$PELEVATION
 40
0.0
  9
$THICKNESS
 40
0.0
  9
$LIMCHECK
 70
     0
  9
$BLIPMODE
 70
     0
  9
$CHAMFERA
 40
0.0
  9
$CHAMFERB
 40
0.0
  9
$SKPOLY
 70
     0
  9
$TDCREATE
 40
2458060.468368056230247
  9
$TDUPDATE
 40
2460095.5730324080213904
  9
$TDINDWG
 40
0.381858912
  9
$TDUSRTIMER
 40
0.381858912
  9
$USRTIMER
 70
     1
  9
$ANGBASE
 50
0.0
  9
$ANGDIR
 70
     0
  9
$PDMODE
 70
     0
  9
$PDSIZE
 40
0.3125
  9
$PLINEWID
 40
0.0
  9
$COORDS
 70
     1
  9
$SPLFRAME
 70
     0
  9
$SPLINETYPE
 70
     6
  9
$SPLINESEGS
 70
     8
  9
$ATTDIA
 70
     1
  9
$ATTREQ
 70
     1
  9
$HANDLING
 70
     1
  9
$HANDSEED
  5
F928
  9
$SURFTAB1
 70
     6
  9
$SURFTAB2
 70
     6
  9
$SURFTYPE
 70
     6
  9
$SURFU
 70
     6
  9
$SURFV
 70
     6
  9
$UCSNAME
  2

  9
$UCSORG
 10
0.0
 20
0.0
 30
0.0
  9
$UCSXDIR
 10
1.0
 20
0.0
 30
0.0
  9
$UCSYDIR
 10
0.0
 20
1.0
 30
0.0
  9
$PUCSNAME
  2

  9
$PUCSORG
 10
0.0
 20
0.0
 30
0.0
  9
$PUCSXDIR
 10
1.0
 20
0.0
 30
0.0
  9
$PUCSYDIR
 10
0.0
 20
1.0
 30
0.0
  9
$USERI1
 70
     0
  9
$USERI2
 70
     0
  9
$USERI3
 70
     0
  9
$USERI4
 70
     0
  9
$USERI5
 70
     0
  9
$USERR1
 40
0.0
  9
$USERR2
 40
0.0
  9
$USERR3
 40
0.0
  9
$USERR4
 40
0.0
  9
$USERR5
 40
0.0
  9
$WORLDVIEW
 70
     1
  9
$SHADEDGE
 70
     3
  9
$SHADEDIF
 70
    70
  9
$TILEMODE
 70
     1
  9
$MAXACTVP
 70
    64
  9
$PLIMCHECK
 70
     0
  9
$PEXTMIN
 10
1.0000000000000000E+20
 20
1.0000000000000000E+20
 30
1.0000000000000000E+20
  9
$PEXTMAX
 10
-1.0000000000000000E+20
 20
-1.0000000000000000E+20
 30
-1.0000000000000000E+20
  9
$PLIMMIN
 10
0.0
 20
0.0
  9
$PLIMMAX
 10
12.0
 20
9.0
  9
$UNITMODE
 70
     0
  9
$VISRETAIN
 70
     1
  9
$PLINEGEN
 70
     0
  9
$PSLTSCALE
 70
     1
  0
ENDSEC
  0
SECTION
  2
TABLES
  0
TABLE
  2
VPORT
 70
     1
  0
VPORT
  2
*ACTIVE
 70
     0
 10
0.0
 20
0.0
 11
1.0
 21
1.0
 12
284.2426008640723012
 22
7.785837387350198
 13
0.0
 23
0.0
 14
1.0
 24
1.0
 15
0.0
 25
0.0
 16
0.0
 26
0.0
 36
183.0180484876221101
 17
4911.530517578125
 27
209.0589757221094942
 37
0.0
 40
42.7734737084154304
 41
1.577702702702702
 42
50.0
 43
0.0
 44
0.0
 50
0.0
 51
0.0
 71
     0
 72
   100
 73
     1
 74
     1
 75
     0
 76
     0
 77
     0
 78
     0
  0
ENDTAB
  0
TABLE
  2
LTYPE
 70
     2
  0
LTYPE
  2
CONTINUOUS
 70
     0
  3
Solid line
 72
    65
 73
     0
 40
0.0
  0
LTYPE
  2
PHANTOM2
 70
     0
  3
___ _ _ ___ _ _ ___ _ _ ___ _ _
 72
    65
 73
     6
 40
1.25
 49
0.625
 49
-0.125
 49
0.125
 49
-0.125
 49
0.125
 49
-0.125
  0
ENDTAB
  0
TABLE
  2
LAYER
 70
     2
  0
LAYER
  2
0
 70
     0
 62
   255
  6
CONTINUOUS
  0
LAYER
  2
DEFPOINTS
 70
     0
 62
     7
  6
CONTINUOUS
  0
ENDTAB
  0
TABLE
  2
STYLE
 70
     1
  0
STYLE
  2
STANDARD
 70
     0
 40
0.0
 41
0.8
 50
0.0
 71
     0
 42
0.2
  3
txt
  4

  0
ENDTAB
  0
TABLE
  2
VIEW
 70
     0
  0
ENDTAB
  0
TABLE
  2
UCS
 70
     0
  0
ENDTAB
  0
TABLE
  2
APPID
 70
     9
  0
APPID
  2
ACAD
 70
     0
  0
APPID
  2
ACAD_MLEADERVER
 70
     0
  0
APPID
  2
ACAD_EXEMPT_FROM_CAD_STANDARDS
 70
     0
  0
APPID
  2
ACAD_NAV_VCDISPLAY
 70
     0
  0
APPID
  2
ACAECLAYERSTANDARD
 70
     0
  0
APPID
  2
ACCMTRANSPARENCY
 70
     0
  0
APPID
  2
ACAD_DSTYLE_DIMJAG
 70
     0
  0
APPID
  2
ACAD_DSTYLE_DIMTALN
 70
     0
  0
APPID
  2
ACDBATTR
 70
     0
  0
ENDTAB
  0
TABLE
  2
DIMSTYLE
 70
     1
  0
DIMSTYLE
  2
STANDARD
 70
     0
  3

  4

  5

  6

  7

 40
1.0
 41
0.1875
 42
0.0625
 43
0.38
 44
0.125
 45
0.0
 46
0.0
 47
0.01
 48
0.01
140
0.15625
141
0.09
142
0.0
143
25.3999999999999986
144
1.0
145
0.0
146
1.0
147
0.09
 71
     1
 72
     0
 73
     1
 74
     1
 75
     0
 76
     0
 77
     0
 78
     4
170
     0
171
     2
172
     0
173
     0
174
     0
175
     0
176
     0
177
     0
178
     0
  0
ENDTAB
  0
ENDSEC
  0
SECTION
  2
BLOCKS
  0
BLOCK
  8
0
  2
$MODEL_SPACE
 70
     0
 10
0.0
 20
0.0
 30
0.0
  3
$MODEL_SPACE
  1

  0
ENDBLK
  5
21
  8
0
  0
BLOCK
 67
     1
  8
0
  2
$PAPER_SPACE
 70
     0
 10
0.0
 20
0.0
 30
0.0
  3
$PAPER_SPACE
  1

  0
ENDBLK
  5
1D
 67
     1
  8
0
  0
ENDSEC
  0
SECTION
  2
ENTITIES
  0
ATTDEF
  5
3930
  8
DEFPOINTS
 10
5195.8063935274230971
 20
216.8427937387889983
 30
0.0
 40
0.001
  1
K-22161A
  3

  2
MODELNUMBER
 70
     0
1001
ACDBATTR
1070
     0
1070
     1
  0
ATTDEF
  5
3931
  8
DEFPOINTS
 10
5195.8063935274230971
 20
216.8411270721223048
 30
0.0
 40
0.001
  1
EVOK
  3

  2
TRADENAME
 70
     0
1001
ACDBATTR
1070
     0
1070
     1
  0
ATTDEF
  5
3932
  8
DEFPOINTS
 10
5195.8063935274230971
 20
216.8394604054556964
 30
0.0
 40
0.001
  1
BATH
  3

  2
PRODUCT
 70
     0
1001
ACDBATTR
1070
     0
1070
     1
  0
LINE
  5
F7ED
  8
0
 10
5192.0518747368450931
 20
227.6262386669139914
 30
0.0
 11
5192.0518747339447145
 21
227.5132674624140066
 31
0.0
  0
ARC
  5
F7EE
  8
0
 10
5184.717993701830892
 20
211.4573273348703992
 30
0.0
 40
14.0981546377035194
 50
91.5049873446834425
 51
100.1792764688314037
  0
ARC
  5
F7EF
  8
0
 10
5175.3884920441078066
 20
214.5377634962407001
 30
0.0
 40
11.1422748903078404
 50
255.4971008003008137
 51
269.0047606739810249
  0
ARC
  5
F7F0
  8
0
 10
5175.2765394819680296
 20
217.7979892736773024
 30
0.0
 40
10.2755135094571504
 50
90.349531754004218
 51
105.0892815525112951
  0
ARC
  5
F7F1
  8
0
 10
5162.7281866807152255
 20
231.4415146025571062
 30
0.0
 40
0.3314970927755758
 50
92.7184164055374964
 51
177.205214456692687
  0
CIRCLE
  5
F7F2
  8
0
 10
5195.8114329279951562
 20
215.7362329518140029
 30
0.0
 40
1.3854161212
  0
CIRCLE
  5
F7F3
  8
0
 10
5195.8114329279951562
 20
215.7362329518140029
 30
0.0
 40
0.9842519684999999
  0
ARC
  5
F7F4
  8
0
 10
5177.1661760873566891
 20
216.6930054800984919
 30
0.0
 40
14.7815280644446805
 50
212.0379369321528031
 51
254.2624531349092933
  0
ARC
  5
F7F5
  8
0
 10
5176.3607294719413403
 20
216.4381044430899124
 30
0.0
 40
13.9651303284210808
 50
179.1645060446795128
 51
212.9044553987625932
  0
ARC
  5
F7F6
  8
0
 10
5177.8090379013956408
 20
219.5947672049395862
 30
0.0
 40
17.7496769509377685
 50
254.8056830663122128
 51
264.8075465242915811
  0
LINE
  5
F7F7
  8
0
 10
5162.397083877544901
 20
231.4576780258159943
 30
0.0
 11
5162.397083877544901
 21
216.6417384380443991
 31
0.0
  0
ARC
  5
F7F8
  8
0
 10
5187.4447122826568375
 20
214.3493012780400875
 30
0.0
 40
22.9305380104422198
 50
162.868172968212491
 51
176.5324030828294042
  0
ARC
  5
F7F9
  8
0
 10
5182.4750860213825945
 20
216.2112472017242908
 30
0.0
 40
17.9252246881864998
 50
181.5185024787714951
 51
199.025726937965004
  0
ARC
  5
F7FA
  8
0
 10
5175.8295734546945823
 20
217.1837382504473055
 30
0.0
 40
11.0189049633057401
 50
107.0346913956157948
 51
159.1591145021920113
  0
ARC
  5
F7FB
  8
0
 10
5175.8048021937147496
 20
214.2606552447169861
 30
0.0
 40
10.9884136777240204
 50
200.7489046667560046
 51
253.0329430373487014
  0
LINE
  5
F7FC
  8
0
 10
5175.1949581990847946
 20
203.3971695092930076
 30
0.0
 11
5216.428684930205236
 21
203.3971695092930076
 31
0.0
  0
LINE
  5
F7FD
  8
0
 10
5192.1699840350001978
 20
227.6477532622066065
 30
0.0
 11
5199.4536590942898329
 21
227.6477532622066065
 31
0.0
  0
LINE
  5
F7FE
  8
0
 10
5192.1699846220026302
 20
227.4916221924870001
 30
0.0
 11
5199.4536585072883099
 21
227.4916221924870001
 31
0.0
  0
LINE
  5
F7FF
  8
0
 10
5175.2138543066648708
 20
228.0733115777140085
 30
0.0
 11
5216.4097888226278883
 21
228.0733115777138948
 31
0.0
  0
LINE
  5
F800
  8
0
 10
5162.7124645962621798
 20
231.7726386557139904
 30
0.0
 11
5228.9111785330278508
 21
231.7726386557139904
 31
0.0
  0
LINE
  5
F801
  8
0
 10
5176.2026671140429244
 20
201.9179291178778897
 30
0.0
 11
5215.6994226665037786
 21
201.9179291178778897
 31
0.0
  0
ARC
  5
F803
  8
0
 10
5216.2351510851822241
 20
214.5377634962407001
 30
0.0
 40
11.1422748903078404
 50
270.9952393260189751
 51
284.5028991996991863
  0
ARC
  5
F804
  8
0
 10
5216.3471036473229105
 20
217.7979892736773024
 30
0.0
 40
10.2755135094571504
 50
74.9107184474887191
 51
89.650468245995782
  0
ARC
  5
F805
  8
0
 10
5228.8954564485748051
 20
231.4415146025571062
 30
0.0
 40
0.3314970927755758
 50
2.794785543307226
 51
87.2815835944625178
  0
LINE
  5
F806
  8
0
 10
5229.2265592517451296
 20
231.4576780258159943
 30
0.0
 11
5229.2265592517451296
 21
216.6417384380443991
 31
0.0
  0
ARC
  5
F807
  8
0
 10
5204.1789308466341026
 20
214.3493012780400875
 30
0.0
 40
22.9305380104422198
 50
3.4675969171705501
 51
17.1318270317874486
  0
ARC
  5
F808
  8
0
 10
5209.1485571079074361
 20
216.2112472017242908
 30
0.0
 40
17.9252246881864998
 50
340.9742730620350244
 51
358.4814975212283912
  0
ARC
  5
F809
  8
0
 10
5215.7940696745972673
 20
217.1837382504473055
 30
0.0
 40
11.0189049633057401
 50
20.8408854978079496
 51
72.9653086043841625
  0
ARC
  5
F80A
  8
0
 10
5215.818840935575281
 20
214.2606552447169861
 30
0.0
 40
10.9884136777240204
 50
286.967056962651327
 51
339.251095333244109
  0
LINE
  5
F80B
  8
0
 10
5192.0518747368450931
 20
227.6262386669139914
 30
0.0
 11
5192.1699840350001978
 21
227.6477532622066065
 31
0.0
  0
LINE
  5
F80C
  8
0
 10
5192.0518747339447145
 20
227.5132674624140066
 30
0.0
 11
5192.1699846220026302
 21
227.4916221924870001
 31
0.0
  0
LINE
  5
F80D
  8
0
 10
5199.5717683924449375
 20
227.6262386669139914
 30
0.0
 11
5199.5717683953453161
 21
227.5132674624140066
 31
0.0
  0
LINE
  5
F80E
  8
0
 10
5199.5717683924449375
 20
227.6262386669139914
 30
0.0
 11
5199.4536590942898329
 21
227.6477532622066065
 31
0.0
  0
LINE
  5
F80F
  8
0
 10
5199.5717683953453161
 20
227.5132674624140066
 30
0.0
 11
5199.4536585072883099
 21
227.4916221924870001
 31
0.0
  0
ARC
  5
F810
  8
0
 10
5196.0068917910330129
 20
741.2580393654498039
 30
0.0
 40
515.8391997509452267
 50
268.7048711846405809
 51
269.9783329747756966
  0
ARC
  5
F811
  8
0
 10
5184.3976507236193356
 20
216.282617518336906
 30
0.0
 40
9.3077333981451247
 50
103.4896121370323954
 51
157.4843190882853889
  0
ARC
  5
F812
  8
0
 10
5188.5265719862900369
 20
215.6885735088368108
 30
0.0
 40
13.3892655917141301
 50
161.9063770856182884
 51
179.7958691868280141
  0
ARC
  5
F813
  8
0
 10
5184.717993701830892
 20
220.0152248213366022
 30
0.0
 40
14.0981546377035194
 50
259.8207235311685963
 51
268.4950126553164864
  0
ARC
  5
F814
  8
0
 10
5196.0068917910330129
 20
-309.785487209242774
 30
0.0
 40
515.8391997509452267
 50
90.021667025224275
 51
91.2951288153072653
  0
ARC
  5
F815
  8
0
 10
5184.3976507236193356
 20
215.1899346378702091
 30
0.0
 40
9.3077333981451247
 50
202.5156809117146111
 51
256.5103878629676046
  0
ARC
  5
F816
  8
0
 10
5188.5265719862900369
 20
215.7839786473701906
 30
0.0
 40
13.3892655917141301
 50
180.2041308131719859
 51
198.0936229143817116
  0
ARC
  5
F817
  8
0
 10
5206.9056494274609577
 20
211.4573273348703992
 30
0.0
 40
14.0981546377035194
 50
79.8207235311686105
 51
88.4950126553165433
  0
ARC
  5
F818
  8
0
 10
5195.6167513382570178
 20
741.2580393654498039
 30
0.0
 40
515.8391997509452267
 50
270.0216670252243034
 51
271.2951288153072937
  0
ARC
  5
F819
  8
0
 10
5207.225992405670695
 20
216.282617518336906
 30
0.0
 40
9.3077333981451247
 50
22.5156809117145897
 51
76.5103878629675904
  0
ARC
  5
F81A
  8
0
 10
5203.0970711429990843
 20
215.6885735088368108
 30
0.0
 40
13.3892655917141301
 50
0.2041308131719893
 51
18.0936229143816902
  0
ARC
  5
F81B
  8
0
 10
5206.9056494274609577
 20
220.0152248213366022
 30
0.0
 40
14.0981546377035194
 50
271.5049873446833999
 51
280.1792764688314037
  0
ARC
  5
F81C
  8
0
 10
5195.6167513382570178
 20
-309.785487209242774
 30
0.0
 40
515.8391997509452267
 50
88.7048711846405951
 51
89.9783329747757108
  0
ARC
  5
F81D
  8
0
 10
5207.225992405670695
 20
215.1899346378702091
 30
0.0
 40
9.3077333981451247
 50
283.4896121370323954
 51
337.4843190882854174
  0
ARC
  5
F81E
  8
0
 10
5203.0970711429990843
 20
215.7839786473701906
 30
0.0
 40
13.3892655917141301
 50
341.9063770856183169
 51
359.7958691868279857
  0
ARC
  5
F81F
  8
0
 10
5214.45746704193607
 20
216.6930054800984919
 30
0.0
 40
14.7815280644446805
 50
285.7375468650906782
 51
327.9620630678472253
  0
ARC
  5
F820
  8
0
 10
5215.2629136573532378
 20
216.4381044430899124
 30
0.0
 40
13.9651303284210808
 50
327.0955446012374068
 51
0.8354939553205152
  0
ARC
  5
F821
  8
0
 10
5212.3618899984130621
 20
226.0478120559951947
 30
0.0
 40
24.3596053933106589
 50
277.8749194832391822
 51
284.513681624149001
  0
ENDSEC
  0
EOF
