  0
SECTION
  2
HEADER
  9
$ACADVER
  1
AC1009
  9
$INSBASE
 10
5135.4081341824694391
 20
205.6141895942980966
 30
0.0
  9
$EXTMIN
 10
5120.2866527341484471
 20
205.6076988483152093
 30
-0.0000000349181948
  9
$EXTMAX
 10
5150.5432789223359578
 20
229.9018787406672004
 30
0.0000000814935746
  9
$LIMMIN
 10
0.0
 20
0.0
  9
$LIMMAX
 10
11.6929133858000007
 20
8.2677165353999982
  9
$ORTHOMODE
 70
     0
  9
$REGENMODE
 70
     1
  9
$FILLMODE
 70
     1
  9
$QTEXTMODE
 70
     0
  9
$MIRRTEXT
 70
     0
  9
$DRAGMODE
 70
     2
  9
$LTSCALE
 40
0.6431102362
  9
$OSMODE
 70
  4095
  9
$ATTMODE
 70
     1
  9
$TEXTSIZE
 40
0.2
  9
$TRACEWID
 40
0.05
  9
$TEXTSTYLE
  7
STANDARD
  9
$CLAYER
  8
0
  9
$CELTYPE
  6
BYLAYER
  9
$CECOLOR
 62
   256
  9
$DIMSCALE
 40
1.0
  9
$DIMASZ
 40
0.1875
  9
$DIMEXO
 40
0.0625
  9
$DIMDLI
 40
0.4443307087
  9
$DIMRND
 40
0.0
  9
$DIMDLE
 40
0.0
  9
$DIMEXE
 40
0.125
  9
$DIMTP
 40
0.01
  9
$DIMTM
 40
0.01
  9
$DIMTXT
 40
2.0
  9
$DIMCEN
 40
0.1052362205
  9
$DIMTSZ
 40
0.0
  9
$DIMTOL
 70
     1
  9
$DIMLIM
 70
     0
  9
$DIMTIH
 70
     1
  9
$DIMTOH
 70
     1
  9
$DIMSE1
 70
     0
  9
$DIMSE2
 70
     0
  9
$DIMTAD
 70
     0
  9
$DIMZIN
 70
     0
  9
$DIMBLK
  1

  9
$DIMASO
 70
     1
  9
$DIMSHO
 70
     1
  9
$DIMPOST
  1
\X
  9
$DIMAPOST
  1

  9
$DIMALT
 70
     1
  9
$DIMALTD
 70
     2
  9
$DIMALTF
 40
25.3999999999999986
  9
$DIMLFAC
 40
1.0
  9
$DIMTOFL
 70
     0
  9
$DIMTVP
 40
0.0
  9
$DIMTIX
 70
     0
  9
$DIMSOXD
 70
     0
  9
$DIMSAH
 70
     0
  9
$DIMBLK1
  1

  9
$DIMBLK2
  1

  9
$DIMSTYLE
  2
STANDARD
  9
$DIMCLRD
 70
     0
  9
$DIMCLRE
 70
     0
  9
$DIMCLRT
 70
     0
  9
$DIMTFAC
 40
1.0
  9
$DIMGAP
 40
0.09
  9
$LUNITS
 70
     2
  9
$LUPREC
 70
     4
  9
$SKETCHINC
 40
0.1
  9
$FILLETRAD
 40
0.0
  9
$AUNITS
 70
     0
  9
$AUPREC
 70
     0
  9
$MENU
  1
.
  9
$ELEVATION
 40
0.0
  9
$PELEVATION
 40
0.0
  9
$THICKNESS
 40
0.0
  9
$LIMCHECK
 70
     0
  9
$BLIPMODE
 70
     0
  9
$CHAMFERA
 40
0.0
  9
$CHAMFERB
 40
0.0
  9
$SKPOLY
 70
     0
  9
$TDCREATE
 40
2458060.468368056230247
  9
$TDUPDATE
 40
2460095.5914004631340504
  9
$TDINDWG
 40
0.3825302083
  9
$TDUSRTIMER
 40
0.3825302083
  9
$USRTIMER
 70
     1
  9
$ANGBASE
 50
0.0
  9
$ANGDIR
 70
     0
  9
$PDMODE
 70
     0
  9
$PDSIZE
 40
0.3125
  9
$PLINEWID
 40
0.0
  9
$COORDS
 70
     1
  9
$SPLFRAME
 70
     0
  9
$SPLINETYPE
 70
     6
  9
$SPLINESEGS
 70
     8
  9
$ATTDIA
 70
     1
  9
$ATTREQ
 70
     1
  9
$HANDLING
 70
     1
  9
$HANDSEED
  5
F939
  9
$SURFTAB1
 70
     6
  9
$SURFTAB2
 70
     6
  9
$SURFTYPE
 70
     6
  9
$SURFU
 70
     6
  9
$SURFV
 70
     6
  9
$UCSNAME
  2

  9
$UCSORG
 10
0.0
 20
0.0
 30
0.0
  9
$UCSXDIR
 10
1.0
 20
0.0
 30
0.0
  9
$UCSYDIR
 10
0.0
 20
1.0
 30
0.0
  9
$PUCSNAME
  2

  9
$PUCSORG
 10
0.0
 20
0.0
 30
0.0
  9
$PUCSXDIR
 10
1.0
 20
0.0
 30
0.0
  9
$PUCSYDIR
 10
0.0
 20
1.0
 30
0.0
  9
$USERI1
 70
     0
  9
$USERI2
 70
     0
  9
$USERI3
 70
     0
  9
$USERI4
 70
     0
  9
$USERI5
 70
     0
  9
$USERR1
 40
0.0
  9
$USERR2
 40
0.0
  9
$USERR3
 40
0.0
  9
$USERR4
 40
0.0
  9
$USERR5
 40
0.0
  9
$WORLDVIEW
 70
     1
  9
$SHADEDGE
 70
     3
  9
$SHADEDIF
 70
    70
  9
$TILEMODE
 70
     1
  9
$MAXACTVP
 70
    64
  9
$PLIMCHECK
 70
     0
  9
$PEXTMIN
 10
1.0000000000000000E+20
 20
1.0000000000000000E+20
 30
1.0000000000000000E+20
  9
$PEXTMAX
 10
-1.0000000000000000E+20
 20
-1.0000000000000000E+20
 30
-1.0000000000000000E+20
  9
$PLIMMIN
 10
0.0
 20
0.0
  9
$PLIMMAX
 10
12.0
 20
9.0
  9
$UNITMODE
 70
     0
  9
$VISRETAIN
 70
     1
  9
$PLINEGEN
 70
     0
  9
$PSLTSCALE
 70
     1
  0
ENDSEC
  0
SECTION
  2
TABLES
  0
TABLE
  2
VPORT
 70
     1
  0
VPORT
  2
*ACTIVE
 70
     0
 10
0.0
 20
0.0
 11
1.0
 21
1.0
 12
223.8844482501172024
 22
8.6958130723816982
 13
0.0
 23
0.0
 14
1.0
 24
1.0
 15
0.0
 25
0.0
 16
0.0
 26
0.0
 36
183.0180484876221101
 17
4911.530517578125
 27
209.0589757221094942
 37
0.0
 40
24.458145110973021
 41
1.577702702702702
 42
50.0
 43
0.0
 44
0.0
 50
0.0
 51
0.0
 71
     0
 72
   100
 73
     1
 74
     1
 75
     0
 76
     0
 77
     0
 78
     0
  0
ENDTAB
  0
TABLE
  2
LTYPE
 70
     2
  0
LTYPE
  2
CONTINUOUS
 70
     0
  3
Solid line
 72
    65
 73
     0
 40
0.0
  0
LTYPE
  2
PHANTOM2
 70
     0
  3
___ _ _ ___ _ _ ___ _ _ ___ _ _
 72
    65
 73
     6
 40
1.25
 49
0.625
 49
-0.125
 49
0.125
 49
-0.125
 49
0.125
 49
-0.125
  0
ENDTAB
  0
TABLE
  2
LAYER
 70
     2
  0
LAYER
  2
0
 70
     0
 62
   255
  6
CONTINUOUS
  0
LAYER
  2
DEFPOINTS
 70
     0
 62
     7
  6
CONTINUOUS
  0
ENDTAB
  0
TABLE
  2
STYLE
 70
     1
  0
STYLE
  2
STANDARD
 70
     0
 40
0.0
 41
0.8
 50
0.0
 71
     0
 42
0.2
  3
txt
  4

  0
ENDTAB
  0
TABLE
  2
VIEW
 70
     0
  0
ENDTAB
  0
TABLE
  2
UCS
 70
     0
  0
ENDTAB
  0
TABLE
  2
APPID
 70
     9
  0
APPID
  2
ACAD
 70
     0
  0
APPID
  2
ACAD_MLEADERVER
 70
     0
  0
APPID
  2
ACAD_EXEMPT_FROM_CAD_STANDARDS
 70
     0
  0
APPID
  2
ACAD_NAV_VCDISPLAY
 70
     0
  0
APPID
  2
ACAECLAYERSTANDARD
 70
     0
  0
APPID
  2
ACCMTRANSPARENCY
 70
     0
  0
APPID
  2
ACAD_DSTYLE_DIMJAG
 70
     0
  0
APPID
  2
ACAD_DSTYLE_DIMTALN
 70
     0
  0
APPID
  2
ACDBATTR
 70
     0
  0
ENDTAB
  0
TABLE
  2
DIMSTYLE
 70
     1
  0
DIMSTYLE
  2
STANDARD
 70
     0
  3

  4

  5

  6

  7

 40
1.0
 41
0.1875
 42
0.0625
 43
0.38
 44
0.125
 45
0.0
 46
0.0
 47
0.01
 48
0.01
140
0.15625
141
0.09
142
0.0
143
25.3999999999999986
144
1.0
145
0.0
146
1.0
147
0.09
 71
     1
 72
     0
 73
     1
 74
     1
 75
     0
 76
     0
 77
     0
 78
     4
170
     0
171
     2
172
     0
173
     0
174
     0
175
     0
176
     0
177
     0
178
     0
  0
ENDTAB
  0
ENDSEC
  0
SECTION
  2
BLOCKS
  0
BLOCK
  8
0
  2
$MODEL_SPACE
 70
     0
 10
0.0
 20
0.0
 30
0.0
  3
$MODEL_SPACE
  1

  0
ENDBLK
  5
21
  8
0
  0
BLOCK
 67
     1
  8
0
  2
$PAPER_SPACE
 70
     0
 10
0.0
 20
0.0
 30
0.0
  3
$PAPER_SPACE
  1

  0
ENDBLK
  5
1D
 67
     1
  8
0
  0
ENDSEC
  0
SECTION
  2
ENTITIES
  0
ATTDEF
  5
3930
  8
DEFPOINTS
 10
5135.40433643641245
 20
205.6213910535153957
 30
0.0
 40
0.001
  1
K-22161X
  3

  2
MODELNUMBER
 70
     0
1001
ACDBATTR
1070
     0
1070
     1
  0
ATTDEF
  5
3931
  8
DEFPOINTS
 10
5135.40433643641245
 20
205.6197243868487874
 30
0.0
 40
0.001
  1
EVOK
  3

  2
TRADENAME
 70
     0
1001
ACDBATTR
1070
     0
1070
     1
  0
ATTDEF
  5
3932
  8
DEFPOINTS
 10
5135.40433643641245
 20
205.6180577201820938
 30
0.0
 40
0.001
  1
BATH
  3

  2
PRODUCT
 70
     0
1001
ACDBATTR
1070
     0
1070
     1
  0
LINE
  5
F713
  8
0
 10
5120.4856545876446035
 20
229.4937531303253877
 30
0.0
 11
5124.5674222404459215
 21
206.3448984399254016
 31
0.0
  0
LINE
  5
F714
  8
0
 10
5125.0864848225455717
 20
205.8110401722254039
 30
0.0
 11
5149.8016306756462654
 21
205.8110401722254039
 31
0.0
  0
LINE
  5
F715
  8
0
 10
5150.0205283217446777
 20
229.9014746102646995
 30
0.0
 11
5149.9683773039450898
 21
229.9014746102650975
 31
0.0
  0
LINE
  5
F716
  8
0
 10
5150.3354889516449475
 20
206.3448984399254016
 30
0.0
 11
5150.3354889516676849
 21
229.5865176446816065
 31
0.0
  0
ARC
  5
F717
  8
0
 10
5125.2362045674035471
 20
206.4758781000797114
 30
0.0
 40
0.6814876905012377
 50
191.0810067888934896
 51
257.3088540541554039
  0
ARC
  5
F718
  8
0
 10
5149.8016306839463141
 20
206.3448984399254016
 30
0.0
 40
0.5338582677
 50
269.9999991067790006
 51
0.0
  0
ARC
  5
F719
  8
0
 10
5150.0015585054616167
 20
229.5675439370004085
 30
0.0
 40
0.33446904862298
 50
3.252011766579451
 51
86.748655911290939
  0
ARC
  5
F71A
  8
0
 10
5120.0267758974387107
 20
12003.4115434473897039
 30
0.0
 40
11773.5481415121394093
 50
270.003736966366489
 51
270.1457104706844916
  0
ARC
  5
F71B
  8
0
 10
5120.7952919317249325
 20
229.5489150653299077
 30
0.0
 40
0.3145125179099954
 50
90.1124659208731345
 51
190.1012776028561007
  0
LINE
  5
F71C
  8
0
 10
5129.3774212149573941
 20
205.6929297517980899
 30
0.0
 11
5127.4089172779567889
 21
205.6929297517980899
 31
0.0
  0
LINE
  5
F71D
  8
0
 10
5127.4089172779567889
 20
205.6929297517980899
 30
0.0
 11
5127.4089172779567889
 21
205.6141895942980966
 31
0.0
  0
LINE
  5
F71E
  8
0
 10
5127.4089172779567889
 20
205.6141895942980966
 30
0.0
 11
5129.3774212149573941
 21
205.6141895942980966
 31
0.0
  0
LINE
  5
F71F
  8
0
 10
5129.3774212149573941
 20
205.6141895942980966
 30
0.0
 11
5129.3774212149573941
 21
205.6929297517980899
 31
0.0
  0
LINE
  5
F720
  8
0
 10
5127.645137750358117
 20
205.8110399879979866
 30
0.0
 11
5127.645137750358117
 21
205.6929297517980899
 31
0.0
  0
LINE
  5
F721
  8
0
 10
5129.1412007425569755
 20
205.6929297517980899
 30
0.0
 11
5129.1412007425569755
 21
205.8110399879979866
 31
0.0
  0
LINE
  5
F722
  8
0
 10
5145.518867876209697
 20
205.6929297517980899
 30
0.0
 11
5143.5503639392090918
 21
205.6929297517980899
 31
0.0
  0
LINE
  5
F723
  8
0
 10
5143.5503639392090918
 20
205.6929297517980899
 30
0.0
 11
5143.5503639392090918
 21
205.6141895942980966
 31
0.0
  0
LINE
  5
F724
  8
0
 10
5143.5503639392090918
 20
205.6141895942980966
 30
0.0
 11
5145.518867876209697
 21
205.6141895942980966
 31
0.0
  0
LINE
  5
F725
  8
0
 10
5145.518867876209697
 20
205.6141895942980966
 30
0.0
 11
5145.518867876209697
 21
205.6929297517980899
 31
0.0
  0
LINE
  5
F726
  8
0
 10
5143.7865844116104199
 20
205.8110399879979866
 30
0.0
 11
5143.7865844116104199
 21
205.6929297517980899
 31
0.0
  0
LINE
  5
F727
  8
0
 10
5145.2826474038092783
 20
205.6929297517980899
 30
0.0
 11
5145.2826474038092783
 21
205.8110399879979866
 31
0.0
  0
ENDSEC
  0
EOF
