  0
SECTION
  2
HEADER
  9
$ACADVER
  1
AC1009
  9
$INSBASE
 10
231.5891508275194894
 20
67.4688263445006555
 30
0.0
  9
$EXTMIN
 10
221.997223755426603
 20
59.7167736139439498
 30
-0.0000000349181948
  9
$EXTMAX
 10
241.1891655026713011
 20
67.9134778806120778
 30
0.0000000814935746
  9
$LIMMIN
 10
0.0
 20
0.0
  9
$LIMMAX
 10
11.6929133858000007
 20
8.2677165353999982
  9
$ORTHOMODE
 70
     0
  9
$REGENMODE
 70
     1
  9
$FILLMODE
 70
     1
  9
$QTEXTMODE
 70
     0
  9
$MIRRTEXT
 70
     0
  9
$DRAGMODE
 70
     2
  9
$LTSCALE
 40
0.6431102362
  9
$OSMODE
 70
  2039
  9
$ATTMODE
 70
     1
  9
$TEXTSIZE
 40
0.2
  9
$TRACEWID
 40
0.05
  9
$TEXTSTYLE
  7
STANDARD
  9
$CLAYER
  8
0
  9
$CELTYPE
  6
BYLAYER
  9
$CECOLOR
 62
   256
  9
$DIMSCALE
 40
1.0
  9
$DIMASZ
 40
0.1875
  9
$DIMEXO
 40
0.0625
  9
$DIMDLI
 40
0.4443307087
  9
$DIMRND
 40
0.0
  9
$DIMDLE
 40
0.0
  9
$DIMEXE
 40
0.125
  9
$DIMTP
 40
0.01
  9
$DIMTM
 40
0.01
  9
$DIMTXT
 40
1.0
  9
$DIMCEN
 40
0.1052362205
  9
$DIMTSZ
 40
0.0
  9
$DIMTOL
 70
     1
  9
$DIMLIM
 70
     0
  9
$DIMTIH
 70
     0
  9
$DIMTOH
 70
     1
  9
$DIMSE1
 70
     0
  9
$DIMSE2
 70
     0
  9
$DIMTAD
 70
     0
  9
$DIMZIN
 70
     0
  9
$DIMBLK
  1

  9
$DIMASO
 70
     1
  9
$DIMSHO
 70
     1
  9
$DIMPOST
  1
\X
  9
$DIMAPOST
  1

  9
$DIMALT
 70
     1
  9
$DIMALTD
 70
     2
  9
$DIMALTF
 40
25.3999999999999986
  9
$DIMLFAC
 40
1.0
  9
$DIMTOFL
 70
     0
  9
$DIMTVP
 40
0.0
  9
$DIMTIX
 70
     0
  9
$DIMSOXD
 70
     0
  9
$DIMSAH
 70
     0
  9
$DIMBLK1
  1

  9
$DIMBLK2
  1

  9
$DIMSTYLE
  2
STANDARD
  9
$DIMCLRD
 70
     0
  9
$DIMCLRE
 70
     0
  9
$DIMCLRT
 70
     0
  9
$DIMTFAC
 40
1.0
  9
$DIMGAP
 40
0.09
  9
$LUNITS
 70
     2
  9
$LUPREC
 70
     4
  9
$SKETCHINC
 40
0.1
  9
$FILLETRAD
 40
0.0
  9
$AUNITS
 70
     0
  9
$AUPREC
 70
     0
  9
$MENU
  1
.
  9
$ELEVATION
 40
0.0
  9
$PELEVATION
 40
0.0
  9
$THICKNESS
 40
0.0
  9
$LIMCHECK
 70
     0
  9
$BLIPMODE
 70
     0
  9
$CHAMFERA
 40
0.0
  9
$CHAMFERB
 40
0.0
  9
$SKPOLY
 70
     0
  9
$TDCREATE
 40
2458172.5207638889551163
  9
$TDUPDATE
 40
2459139.4101967602036893
  9
$TDINDWG
 40
0.2888282176
  9
$TDUSRTIMER
 40
0.2888282176
  9
$USRTIMER
 70
     1
  9
$ANGBASE
 50
0.0
  9
$ANGDIR
 70
     0
  9
$PDMODE
 70
     0
  9
$PDSIZE
 40
0.3125
  9
$PLINEWID
 40
0.0
  9
$COORDS
 70
     1
  9
$SPLFRAME
 70
     0
  9
$SPLINETYPE
 70
     6
  9
$SPLINESEGS
 70
     8
  9
$ATTDIA
 70
     1
  9
$ATTREQ
 70
     1
  9
$HANDLING
 70
     1
  9
$HANDSEED
  5
1BA7C
  9
$SURFTAB1
 70
     6
  9
$SURFTAB2
 70
     6
  9
$SURFTYPE
 70
     6
  9
$SURFU
 70
     6
  9
$SURFV
 70
     6
  9
$UCSNAME
  2

  9
$UCSORG
 10
0.0
 20
0.0
 30
0.0
  9
$UCSXDIR
 10
1.0
 20
0.0
 30
0.0
  9
$UCSYDIR
 10
0.0
 20
1.0
 30
0.0
  9
$PUCSNAME
  2

  9
$PUCSORG
 10
0.0
 20
0.0
 30
0.0
  9
$PUCSXDIR
 10
1.0
 20
0.0
 30
0.0
  9
$PUCSYDIR
 10
0.0
 20
1.0
 30
0.0
  9
$USERI1
 70
     0
  9
$USERI2
 70
     0
  9
$USERI3
 70
     0
  9
$USERI4
 70
     0
  9
$USERI5
 70
     0
  9
$USERR1
 40
0.0
  9
$USERR2
 40
0.0
  9
$USERR3
 40
0.0
  9
$USERR4
 40
0.0
  9
$USERR5
 40
0.0
  9
$WORLDVIEW
 70
     1
  9
$SHADEDGE
 70
     3
  9
$SHADEDIF
 70
    70
  9
$TILEMODE
 70
     1
  9
$MAXACTVP
 70
    64
  9
$PLIMCHECK
 70
     0
  9
$PEXTMIN
 10
1.0000000000000000E+20
 20
1.0000000000000000E+20
 30
1.0000000000000000E+20
  9
$PEXTMAX
 10
-1.0000000000000000E+20
 20
-1.0000000000000000E+20
 30
-1.0000000000000000E+20
  9
$PLIMMIN
 10
0.0
 20
0.0
  9
$PLIMMAX
 10
12.0
 20
9.0
  9
$UNITMODE
 70
     0
  9
$VISRETAIN
 70
     1
  9
$PLINEGEN
 70
     0
  9
$PSLTSCALE
 70
     1
  0
ENDSEC
  0
SECTION
  2
TABLES
  0
TABLE
  2
VPORT
 70
     1
  0
VPORT
  2
*ACTIVE
 70
     0
 10
0.0
 20
0.0
 11
1.0
 21
1.0
 12
-198.0360944790047029
 22
-5.8874157649406689
 13
0.0
 23
0.0
 14
1.0
 24
1.0
 15
0.0
 25
0.0
 16
0.0
 26
0.0
 36
14.6338572656650907
 17
429.6292891080536833
 27
69.7025415122186871
 37
0.0
 40
8.2704377383323013
 41
2.848348348348348
 42
50.0
 43
0.0
 44
0.0
 50
0.0
 51
0.0
 71
     0
 72
   100
 73
     1
 74
     1
 75
     0
 76
     0
 77
     0
 78
     0
  0
ENDTAB
  0
TABLE
  2
LTYPE
 70
     2
  0
LTYPE
  2
CONTINUOUS
 70
     0
  3
Solid line
 72
    65
 73
     0
 40
0.0
  0
LTYPE
  2
PHANTOM2
 70
     0
  3
___ _ _ ___ _ _ ___ _ _ ___ _ _
 72
    65
 73
     6
 40
1.25
 49
0.625
 49
-0.125
 49
0.125
 49
-0.125
 49
0.125
 49
-0.125
  0
ENDTAB
  0
TABLE
  2
LAYER
 70
     2
  0
LAYER
  2
0
 70
     0
 62
   255
  6
CONTINUOUS
  0
LAYER
  2
DEFPOINTS
 70
     0
 62
     7
  6
CONTINUOUS
  0
ENDTAB
  0
TABLE
  2
STYLE
 70
     1
  0
STYLE
  2
STANDARD
 70
     0
 40
0.0
 41
0.8
 50
0.0
 71
     0
 42
0.2
  3
txt
  4

  0
ENDTAB
  0
TABLE
  2
VIEW
 70
     0
  0
ENDTAB
  0
TABLE
  2
UCS
 70
     0
  0
ENDTAB
  0
TABLE
  2
APPID
 70
    10
  0
APPID
  2
ACAD
 70
     0
  0
APPID
  2
ACAD_MLEADERVER
 70
     0
  0
APPID
  2
ACAD_EXEMPT_FROM_CAD_STANDARDS
 70
     0
  0
APPID
  2
ACAD_DSTYLE_DIMJAG
 70
     0
  0
APPID
  2
ACAD_DSTYLE_DIMTALN
 70
     0
  0
APPID
  2
ACAD_NAV_VCDISPLAY
 70
     0
  0
APPID
  2
ACAECLAYERSTANDARD
 70
     0
  0
APPID
  2
ACCMTRANSPARENCY
 70
     0
  0
APPID
  2
DCO15
 70
     0
  0
APPID
  2
ACDBATTR
 70
     0
  0
ENDTAB
  0
TABLE
  2
DIMSTYLE
 70
     1
  0
DIMSTYLE
  2
STANDARD
 70
     0
  3

  4

  5

  6

  7

 40
1.0
 41
0.1875
 42
0.0625
 43
0.38
 44
0.125
 45
0.0
 46
0.0
 47
0.01
 48
0.01
140
0.15625
141
0.09
142
0.0
143
25.3999999999999986
144
1.0
145
0.0
146
1.0
147
0.09
 71
     1
 72
     0
 73
     1
 74
     1
 75
     0
 76
     0
 77
     0
 78
     4
170
     0
171
     2
172
     0
173
     0
174
     0
175
     0
176
     0
177
     0
178
     0
  0
ENDTAB
  0
ENDSEC
  0
SECTION
  2
BLOCKS
  0
BLOCK
  8
0
  2
$MODEL_SPACE
 70
     0
 10
0.0
 20
0.0
 30
0.0
  3
$MODEL_SPACE
  1

  0
ENDBLK
  5
21
  8
0
  0
BLOCK
 67
     1
  8
0
  2
$PAPER_SPACE
 70
     0
 10
0.0
 20
0.0
 30
0.0
  3
$PAPER_SPACE
  1

  0
ENDBLK
  5
1D
 67
     1
  8
0
  0
BLOCK
  8
0
  2
_FILLED
 70
     0
 10
0.0
 20
0.0
 30
0.0
  3
_FILLED
  1

  0
SOLID
  5
87E2
  8
0
  6
BYBLOCK
 62
     0
 10
0.0
 20
0.0
 30
0.0
 11
-1.0
 21
0.1666666667
 31
0.0
 12
-1.0
 22
-0.1666666667
 32
0.0
 13
-1.0
 23
-0.1666666667
 33
0.0
  0
ENDBLK
  5
87E3
  8
0
  6
BYBLOCK
 62
     0
  0
ENDSEC
  0
SECTION
  2
ENTITIES
  0
ATTDEF
  5
1B032
  8
DEFPOINTS
 10
231.5892847610161027
 20
67.472534821620286
 30
0.0
 40
0.001
  1
K-2219X
  3

  2
MODELNUMBER
 70
     0
1001
ACDBATTR
1070
     0
1070
     1
  0
ATTDEF
  5
1B033
  8
DEFPOINTS
 10
231.5892847610161027
 20
67.4708681549536209
 30
0.0
 40
0.001
  1
LINIA
  3

  2
TRADENAME
 70
     0
1001
ACDBATTR
1070
     0
1070
     1
  0
ATTDEF
  5
1B034
  8
DEFPOINTS
 10
231.5892847610161027
 20
67.4692014882869557
 30
0.0
 40
0.001
  1
BATHROOM SINK
  3

  2
PRODUCT
 70
     0
1001
ACDBATTR
1070
     0
1070
     1
  0
LINE
  5
1B809
  8
0
 10
222.0631810047663919
 20
67.9085731827279346
 30
0.0
 11
241.1151367958665048
 21
67.9085731827279346
 31
0.0
  0
ARC
  5
1B80A
  8
0
 10
222.0631810047528063
 20
67.8485731827608447
 30
0.0
 40
0.0599999999670988
 50
89.9999999869871061
 51
180.0000000314151123
  0
LINE
  5
1B80B
  8
0
 10
222.0031810047856879
 20
67.8485731827279466
 30
0.0
 11
222.0402692945810088
 21
67.5804806796102895
 31
0.0
  0
ARC
  5
1B80C
  8
0
 10
222.169004143579599
 20
67.5985731827438343
 30
0.0
 40
0.1300000000628506
 50
188.0000000000015916
 51
270.0015397962446855
  0
LINE
  5
1B80D
  8
0
 10
222.1690076372663896
 20
67.4685731827279369
 30
0.0
 11
241.0093136503627989
 21
67.4690795068009947
 31
0.0
  0
ARC
  5
1B80E
  8
0
 10
241.0093101543263003
 20
67.5991669366661938
 30
0.0
 40
0.1300874299121851
 50
270.0015397962446855
 51
351.7412455526261965
  0
ARC
  5
1B80F
  8
0
 10
225.186363185688009
 20
69.9252765167603343
 30
0.0
 40
16.1230993323085485
 50
351.6377711824828793
 51
352.5987256551708811
  0
ARC
  5
1B810
  8
0
 10
241.1148448303387966
 20
67.8482890497973443
 30
0.0
 40
0.0602848399439098
 50
0.0452920722653674
 51
89.7225097070558917
  0
ARC
  5
1B811
  8
0
 10
222.463459431192291
 20
67.218480030716961
 30
0.0
 40
0.2500946367004223
 50
5.7251568511206861
 51
89.9803465813064065
  0
ARC
  5
1B812
  8
0
 10
229.3784786399378106
 20
67.911757266136604
 30
0.0
 40
6.6995905347638729
 50
185.725156851120687
 51
211.9367943579798919
  0
ARC
  5
1B813
  8
0
 10
229.3605379310735941
 20
67.9005741670198262
 30
0.0
 40
6.678449798248689
 50
211.9367943579790108
 51
233.7069471893555033
  0
ARC
  5
1B814
  8
0
 10
229.3804521834227046
 20
67.9276910271025827
 30
0.0
 40
6.7120935427990567
 50
233.7069471893555033
 51
245.22633449342689
  0
ARC
  5
1B815
  8
0
 10
229.3628863018942923
 20
67.8896290417923183
 30
0.0
 40
6.670173679731211
 50
245.22633449342689
 51
258.2590235683380229
  0
ARC
  5
1B816
  8
0
 10
229.3731605205975939
 20
67.939063301073233
 30
0.0
 40
6.7206643279803213
 50
258.2590235683380229
 51
266.7870436264994964
  0
ARC
  5
1B817
  8
0
 10
229.5808352159029084
 20
71.638587096258405
 30
0.0
 40
10.4260125019326004
 50
266.7870436264994964
 51
270.6489872365285123
  0
ARC
  5
1B818
  8
0
 10
231.1258540097603031
 20
145.5200095125341875
 30
0.0
 40
84.3188408844552129
 50
269.0303382517965929
 51
269.4101860191127003
  0
LINE
  5
1B819
  8
0
 10
230.2578746704164132
 20
61.2056362422279392
 30
0.0
 11
231.5891553281165045
 21
61.1979081655049413
 31
0.0
  0
ARC
  5
1B81A
  8
0
 10
229.8075816561901092
 20
60.9686203749809579
 30
0.0
 40
0.2499493498337552
 50
43.8994762347926866
 51
75.5202518458867473
  0
ARC
  5
1B81B
  8
0
 10
229.8075103363212008
 20
60.9685517435932525
 30
0.0
 40
0.2500483285743231
 50
8.3759536768101057
 51
43.8994762347926866
  0
LINE
  5
1B81C
  8
0
 10
230.0548915381664017
 20
61.004975741127943
 30
0.0
 11
230.2367480950508991
 21
59.7698588772338866
 31
0.0
  0
ARC
  5
1B81D
  8
0
 10
230.2961381943269998
 20
59.778603376870393
 30
0.0
 40
0.060030410342662
 50
188.3759536768100986
 51
269.8462269730379148
  0
LINE
  5
1B81E
  8
0
 10
230.2959770821665018
 20
59.7185731827279369
 30
0.0
 11
232.8823245728727045
 21
59.7185731827279369
 31
0.0
  0
ARC
  5
1B81F
  8
0
 10
240.7157648668585068
 20
67.2180141934306903
 30
0.0
 40
0.2510594226280873
 50
90.2301434657484549
 51
174.1900668357550899
  0
ARC
  5
1B820
  8
0
 10
233.7998230151013104
 20
67.911757266136604
 30
0.0
 40
6.6995905347638729
 50
328.0632056420193976
 51
354.274843148879313
  0
ARC
  5
1B821
  8
0
 10
233.8177637239654985
 20
67.9005741670198262
 30
0.0
 40
6.678449798248689
 50
306.2930528106444967
 51
328.0632056420201934
  0
ARC
  5
1B822
  8
0
 10
233.797849471616388
 20
67.9276910271025827
 30
0.0
 40
6.7120935427990567
 50
294.7736655065730247
 51
306.2930528106444967
  0
ARC
  5
1B823
  8
0
 10
233.8154153531448003
 20
67.8896290417923183
 30
0.0
 40
6.670173679731211
 50
281.7409764316619203
 51
294.7736655065730247
  0
ARC
  5
1B824
  8
0
 10
233.8051411344414987
 20
67.939063301073233
 30
0.0
 40
6.7206643279803213
 50
273.2129563735005036
 51
281.7409764316619203
  0
ARC
  5
1B825
  8
0
 10
233.5974664391362978
 20
71.638587096258405
 30
0.0
 40
10.4260125019326004
 50
269.3510127634714877
 51
273.2129563735005036
  0
ARC
  5
1B826
  8
0
 10
232.0524476452789031
 20
145.5200095125341875
 30
0.0
 40
84.3188408844552129
 50
270.5898139808871861
 51
270.9696617482034071
  0
LINE
  5
1B827
  8
0
 10
232.9204269846227078
 20
61.2056362422279392
 30
0.0
 11
231.5891553281165045
 21
61.1979081655049413
 31
0.0
  0
ARC
  5
1B828
  8
0
 10
233.3707199988490117
 20
60.9686203749809579
 30
0.0
 40
0.2499493498337552
 50
104.5863194374283012
 51
136.1005237652072992
  0
ARC
  5
1B829
  8
0
 10
233.3707913187178917
 20
60.9685517435932525
 30
0.0
 40
0.2500483285743231
 50
136.1005237652072992
 51
171.6240463231899014
  0
LINE
  5
1B82A
  8
0
 10
233.1234101168726056
 20
61.004975741127943
 30
0.0
 11
232.9415535599881935
 21
59.7698588772338866
 31
0.0
  0
ARC
  5
1B82B
  8
0
 10
232.8821634607120927
 20
59.778603376870393
 30
0.0
 40
0.060030410342662
 50
270.1537730269620852
 51
351.624046323189873
  0
ENDSEC
  0
EOF
