  0
SECTION
  2
HEADER
  9
$ACADVER
  1
AC1009
  9
$INSBASE
 10
4473.7486291069154
 20
464.43904965490128
 30
0.0
  9
$EXTMIN
 10
4461.511001240523
 20
456.60285499045449
 30
-0.0000000349181948
  9
$EXTMAX
 10
4485.8111648132963
 20
464.90240296827551
 30
0.0000000814935746
  9
$LIMMIN
 10
0.0
 20
0.0
  9
$LIMMAX
 10
11.692913385800001
 20
8.2677165353999982
  9
$ORTHOMODE
 70
     0
  9
$REGENMODE
 70
     1
  9
$FILLMODE
 70
     1
  9
$QTEXTMODE
 70
     0
  9
$MIRRTEXT
 70
     0
  9
$DRAGMODE
 70
     2
  9
$LTSCALE
 40
0.6431102362
  9
$OSMODE
 70
    19
  9
$ATTMODE
 70
     1
  9
$TEXTSIZE
 40
0.2
  9
$TRACEWID
 40
0.05
  9
$TEXTSTYLE
  7
STANDARD
  9
$CLAYER
  8
0
  9
$CELTYPE
  6
BYLAYER
  9
$CECOLOR
 62
   256
  9
$DIMSCALE
 40
1.0
  9
$DIMASZ
 40
0.1875
  9
$DIMEXO
 40
0.0625
  9
$DIMDLI
 40
0.4443307087
  9
$DIMRND
 40
0.0
  9
$DIMDLE
 40
0.0
  9
$DIMEXE
 40
0.125
  9
$DIMTP
 40
0.01
  9
$DIMTM
 40
0.01
  9
$DIMTXT
 40
2.0
  9
$DIMCEN
 40
0.1052362205
  9
$DIMTSZ
 40
0.0
  9
$DIMTOL
 70
     1
  9
$DIMLIM
 70
     0
  9
$DIMTIH
 70
     1
  9
$DIMTOH
 70
     1
  9
$DIMSE1
 70
     0
  9
$DIMSE2
 70
     0
  9
$DIMTAD
 70
     0
  9
$DIMZIN
 70
     0
  9
$DIMBLK
  1

  9
$DIMASO
 70
     1
  9
$DIMSHO
 70
     1
  9
$DIMPOST
  1
\X
  9
$DIMAPOST
  1

  9
$DIMALT
 70
     1
  9
$DIMALTD
 70
     2
  9
$DIMALTF
 40
25.399999999999999
  9
$DIMLFAC
 40
1.0
  9
$DIMTOFL
 70
     0
  9
$DIMTVP
 40
0.0
  9
$DIMTIX
 70
     0
  9
$DIMSOXD
 70
     0
  9
$DIMSAH
 70
     0
  9
$DIMBLK1
  1

  9
$DIMBLK2
  1

  9
$DIMSTYLE
  2
STANDARD
  9
$DIMCLRD
 70
     0
  9
$DIMCLRE
 70
     0
  9
$DIMCLRT
 70
     0
  9
$DIMTFAC
 40
1.0
  9
$DIMGAP
 40
0.09
  9
$LUNITS
 70
     2
  9
$LUPREC
 70
     4
  9
$SKETCHINC
 40
0.1
  9
$FILLETRAD
 40
0.0
  9
$AUNITS
 70
     0
  9
$AUPREC
 70
     0
  9
$MENU
  1
.
  9
$ELEVATION
 40
0.0
  9
$PELEVATION
 40
0.0
  9
$THICKNESS
 40
0.0
  9
$LIMCHECK
 70
     0
  9
$BLIPMODE
 70
     0
  9
$CHAMFERA
 40
0.0
  9
$CHAMFERB
 40
0.0
  9
$SKPOLY
 70
     0
  9
$TDCREATE
 40
2458060.4683680669
  9
$TDUPDATE
 40
2459299.7357869912
  9
$TDINDWG
 40
1.4411570254999999
  9
$TDUSRTIMER
 40
1.4411570254999999
  9
$USRTIMER
 70
     1
  9
$ANGBASE
 50
0.0
  9
$ANGDIR
 70
     0
  9
$PDMODE
 70
     0
  9
$PDSIZE
 40
0.3125
  9
$PLINEWID
 40
0.0
  9
$COORDS
 70
     1
  9
$SPLFRAME
 70
     0
  9
$SPLINETYPE
 70
     6
  9
$SPLINESEGS
 70
     8
  9
$ATTDIA
 70
     1
  9
$ATTREQ
 70
     1
  9
$HANDLING
 70
     1
  9
$HANDSEED
  5
185B0
  9
$SURFTAB1
 70
     6
  9
$SURFTAB2
 70
     6
  9
$SURFTYPE
 70
     6
  9
$SURFU
 70
     6
  9
$SURFV
 70
     6
  9
$UCSNAME
  2

  9
$UCSORG
 10
0.0
 20
0.0
 30
0.0
  9
$UCSXDIR
 10
1.0
 20
0.0
 30
0.0
  9
$UCSYDIR
 10
0.0
 20
1.0
 30
0.0
  9
$PUCSNAME
  2

  9
$PUCSORG
 10
0.0
 20
0.0
 30
0.0
  9
$PUCSXDIR
 10
1.0
 20
0.0
 30
0.0
  9
$PUCSYDIR
 10
0.0
 20
1.0
 30
0.0
  9
$USERI1
 70
     0
  9
$USERI2
 70
     0
  9
$USERI3
 70
     0
  9
$USERI4
 70
     0
  9
$USERI5
 70
     0
  9
$USERR1
 40
0.0
  9
$USERR2
 40
0.0
  9
$USERR3
 40
0.0
  9
$USERR4
 40
0.0
  9
$USERR5
 40
0.0
  9
$WORLDVIEW
 70
     1
  9
$SHADEDGE
 70
     3
  9
$SHADEDIF
 70
    70
  9
$TILEMODE
 70
     1
  9
$MAXACTVP
 70
    64
  9
$PLIMCHECK
 70
     0
  9
$PEXTMIN
 10
1.0000000000000000E+020
 20
1.0000000000000000E+020
 30
1.0000000000000000E+020
  9
$PEXTMAX
 10
-1.0000000000000000E+020
 20
-1.0000000000000000E+020
 30
-1.0000000000000000E+020
  9
$PLIMMIN
 10
0.0
 20
0.0
  9
$PLIMMAX
 10
12.0
 20
9.0
  9
$UNITMODE
 70
     0
  9
$VISRETAIN
 70
     1
  9
$PLINEGEN
 70
     0
  9
$PSLTSCALE
 70
     1
  0
ENDSEC
  0
SECTION
  2
TABLES
  0
TABLE
  2
VPORT
 70
     1
  0
VPORT
  2
*ACTIVE
 70
     0
 10
0.0
 20
0.0
 11
1.0
 21
1.0
 12
562.29572658159657
 22
328.17302387682588
 13
0.0
 23
0.0
 14
1.0
 24
1.0
 15
0.0
 25
0.0
 16
0.0
 26
0.0
 36
60.496018696580158
 17
3911.365356445312
 27
132.57960510253901
 37
0.0
 40
10.13843603170365
 41
2.4075403949730689
 42
50.0
 43
0.0
 44
0.0
 50
0.0
 51
0.0
 71
     0
 72
   100
 73
     1
 74
     1
 75
     0
 76
     0
 77
     0
 78
     0
  0
ENDTAB
  0
TABLE
  2
LTYPE
 70
     2
  0
LTYPE
  2
CONTINUOUS
 70
     0
  3
Solid line
 72
    65
 73
     0
 40
0.0
  0
LTYPE
  2
PHANTOM2
 70
     0
  3
___ _ _ ___ _ _ ___ _ _ ___ _ _
 72
    65
 73
     6
 40
1.25
 49
0.625
 49
-0.125
 49
0.125
 49
-0.125
 49
0.125
 49
-0.125
  0
ENDTAB
  0
TABLE
  2
LAYER
 70
     2
  0
LAYER
  2
0
 70
     0
 62
   255
  6
CONTINUOUS
  0
LAYER
  2
DEFPOINTS
 70
     0
 62
     7
  6
CONTINUOUS
  0
ENDTAB
  0
TABLE
  2
STYLE
 70
     1
  0
STYLE
  2
STANDARD
 70
     0
 40
0.0
 41
0.8
 50
0.0
 71
     0
 42
0.2
  3
txt
  4

  0
ENDTAB
  0
TABLE
  2
VIEW
 70
     0
  0
ENDTAB
  0
TABLE
  2
UCS
 70
     0
  0
ENDTAB
  0
TABLE
  2
APPID
 70
    11
  0
APPID
  2
ACAD
 70
     0
  0
APPID
  2
ACAD_MLEADERVER
 70
     0
  0
APPID
  2
ACAD_EXEMPT_FROM_CAD_STANDARDS
 70
     0
  0
APPID
  2
ACAD_NAV_VCDISPLAY
 70
     0
  0
APPID
  2
ACAECLAYERSTANDARD
 70
     0
  0
APPID
  2
ACCMTRANSPARENCY
 70
     0
  0
APPID
  2
ACAD_DSTYLE_DIMJAG
 70
     0
  0
APPID
  2
ACAD_DSTYLE_DIMTALN
 70
     0
  0
APPID
  2
ACDBATTR
 70
     0
  0
APPID
  2
ACADANNOTATIVE
 70
     0
  0
APPID
  2
DCO15
 70
     0
  0
ENDTAB
  0
TABLE
  2
DIMSTYLE
 70
     1
  0
DIMSTYLE
  2
STANDARD
 70
     0
  3

  4

  5

  6

  7

 40
1.0
 41
0.1875
 42
0.0625
 43
0.38
 44
0.125
 45
0.0
 46
0.0
 47
0.01
 48
0.01
140
0.15625
141
0.09
142
0.0
143
25.399999999999999
144
1.0
145
0.0
146
1.0
147
0.09
 71
     1
 72
     0
 73
     1
 74
     1
 75
     0
 76
     0
 77
     0
 78
     4
170
     0
171
     2
172
     0
173
     0
174
     0
175
     0
176
     0
177
     0
178
     0
  0
ENDTAB
  0
ENDSEC
  0
SECTION
  2
BLOCKS
  0
BLOCK
  8
0
  2
$MODEL_SPACE
 70
     0
 10
0.0
 20
0.0
 30
0.0
  3
$MODEL_SPACE
  1

  0
ENDBLK
  5
21
  8
0
  0
BLOCK
 67
     1
  8
0
  2
$PAPER_SPACE
 70
     0
 10
0.0
 20
0.0
 30
0.0
  3
$PAPER_SPACE
  1

  0
ENDBLK
  5
1D
 67
     1
  8
0
  0
ENDSEC
  0
SECTION
  2
ENTITIES
  0
ATTDEF
  5
159BF
  8
DEFPOINTS
 10
4473.7486313580994
 20
464.44239509173502
 30
0.0
 40
0.001
  1
2220X
  3

  2
MODELNUMBER
 70
     0
1001
ACDBATTR
1070
     0
1070
     1
  0
ATTDEF
  5
159C0
  8
DEFPOINTS
 10
4473.7486313580994
 20
464.44072825135572
 30
0.0
 40
0.001
  1
VINTAGE
  3

  2
TRADENAME
 70
     0
1001
ACDBATTR
1070
     0
1070
     1
  0
ATTDEF
  5
159C1
  8
DEFPOINTS
 10
4473.7486313580994
 20
464.43906175840169
 30
0.0
 40
0.001
  1
BATHROOM SINK
  3

  2
PRODUCT
 70
     0
1001
ACDBATTR
1070
     0
1070
     1
  0
LINE
  5
18448
  8
0
 10
4462.2886344444241
 20
464.87904965490122
 30
0.0
 11
4485.2086237694048
 21
464.87904965490122
 31
0.0
  0
LINE
  5
18449
  8
0
 10
4474.5851145432644
 20
456.61133311950118
 30
0.0
 11
4472.9121436705664
 21
456.61133311950118
 31
0.0
  0
ARC
  5
1844A
  8
0
 10
4461.8607172206221
 20
464.48904923747341
 30
0.0
 40
0.0499989329572985
 50
179.9999999886725
 51
209.9345787717989
  0
LINE
  5
1844B
  8
0
 10
4461.8607181950638
 20
464.43904965490128
 30
0.0
 11
4485.636540018766
 21
464.43904965490128
 31
0.0
  0
ARC
  5
1844C
  8
0
 10
4461.8607839488877
 20
464.48916336493249
 30
0.0
 40
0.0501137531687537
 50
210.00958507401131
 51
269.92482268022911
  0
ARC
  5
1844D
  8
0
 10
4462.3149135358353
 20
464.30762576713749
 30
0.0
 40
0.5720278403647157
 50
92.633108127172477
 51
118.0803548021252
  0
ARC
  5
1844E
  8
0
 10
4462.2895660338163
 20
464.35513661982748
 30
0.0
 40
0.5181782630040333
 50
118.0803548021252
 51
142.7058076348915
  0
ARC
  5
1844F
  8
0
 10
4462.1386756189204
 20
464.47006014370538
 30
0.0
 40
0.3285066160771848
 50
142.705807634373
 51
176.68621061888399
  0
ARC
  5
18450
  8
0
 10
4462.7667598526514
 20
464.28904964982593
 30
0.0
 40
0.1500000051752437
 50
26.337823176405571
 51
90.000000529127036
  0
ARC
  5
18451
  8
0
 10
4472.7014114832009
 20
469.05966011391598
 30
0.0
 40
10.87071995990464
 50
205.64078818197839
 51
267.58901175297848
  0
ARC
  5
18452
  8
0
 10
4472.23366188623
 20
457.9488084938987
 30
0.0
 40
0.2499730763368245
 50
49.374217836689809
 51
87.604509084658716
  0
ARC
  5
18453
  8
0
 10
4696.5185634277777
 20
478.27909080382409
 30
0.0
 40
224.97604258314141
 50
183.5269399410235
 51
185.0818347381117
  0
ARC
  5
18454
  8
0
 10
4483.0593244528782
 20
459.29657426519037
 30
0.0
 40
10.674426541911719
 50
185.0818347381117
 51
192.61292224429991
  0
LINE
  5
18455
  8
0
 10
4472.6424981035652
 20
456.96567083370132
 30
0.0
 11
4472.6652226001579
 21
456.8222180969513
 31
0.0
  0
ARC
  5
18456
  8
0
 10
4472.9121436705645
 20
456.86133311950118
 30
0.0
 40
0.2499999999999993
 50
189.00148651800311
 51
270.00000000020839
  0
ARC
  5
18457
  8
0
 10
4346.3892573170087
 20
431.15094201916003
 30
0.0
 40
128.8653600967933
 50
11.71758026514318
 51
12.08836448101232
  0
ARC
  5
18458
  8
0
 10
4472.6979204608779
 20
456.93465163044812
 30
0.0
 40
0.0635124291814581
 50
113.49604251549179
 51
150.76480382596321
  0
ARC
  5
18459
  8
0
 10
4472.8770695115163
 20
457.1756006145157
 30
0.0
 40
0.2742050640446998
 50
221.78204779638841
 51
292.0085384937442
  0
ARC
  5
1845A
  8
0
 10
4485.6365409932068
 20
464.48904923747341
 30
0.0
 40
0.0499989329573563
 50
330.0654212282011
 51
0.0000000112948876
  0
ARC
  5
1845B
  8
0
 10
4485.6364742649421
 20
464.48916336493249
 30
0.0
 40
0.0501137531687537
 50
270.07517731977089
 51
329.99041492598872
  0
ARC
  5
1845C
  8
0
 10
4485.1823446779954
 20
464.30762576713749
 30
0.0
 40
0.5720278403647157
 50
61.919645197874722
 51
87.366891872827495
  0
ARC
  5
1845D
  8
0
 10
4485.2076921800144
 20
464.35513661982748
 30
0.0
 40
0.5181782630040333
 50
37.294192365108501
 51
61.919645197874722
  0
ARC
  5
1845E
  8
0
 10
4485.3585825949103
 20
464.47006014370538
 30
0.0
 40
0.3285066160771451
 50
3.3137893811160182
 51
37.294192365626998
  0
ARC
  5
1845F
  8
0
 10
4484.7304983611803
 20
464.28904964982593
 30
0.0
 40
0.1500000051752437
 50
89.999999470872936
 51
153.66217682359439
  0
ARC
  5
18460
  8
0
 10
4474.7958467306289
 20
469.05966011391598
 30
0.0
 40
10.87071995990464
 50
272.41098824702152
 51
334.35921181802149
  0
ARC
  5
18461
  8
0
 10
4475.2635963275998
 20
457.9488084938987
 30
0.0
 40
0.2499730763368245
 50
92.395490915341284
 51
130.8393247330803
  0
ARC
  5
18462
  8
0
 10
4250.978694786053
 20
478.27909080382409
 30
0.0
 40
224.97604258314141
 50
354.9181652618883
 51
356.47306005897639
  0
ARC
  5
18463
  8
0
 10
4464.4379337609525
 20
459.29657426519037
 30
0.0
 40
10.674426541911719
 50
347.38707775570009
 51
354.9181652618883
  0
LINE
  5
18464
  8
0
 10
4474.8547601102646
 20
456.96567083370132
 30
0.0
 11
4474.8320356136719
 21
456.8222180969513
 31
0.0
  0
ARC
  5
18465
  8
0
 10
4474.5851145432653
 20
456.86133311950118
 30
0.0
 40
0.2500000000000018
 50
269.99999999979161
 51
350.99851348199678
  0
ARC
  5
18466
  8
0
 10
4601.1080008968202
 20
431.15094201916003
 30
0.0
 40
128.8653600967933
 50
167.91163551898771
 51
168.2824197348568
  0
ARC
  5
18467
  8
0
 10
4474.7993377529529
 20
456.93465163044812
 30
0.0
 40
0.0635124291814581
 50
29.235196174036751
 51
66.503957484508149
  0
ARC
  5
18468
  8
0
 10
4474.6201896452458
 20
457.17559902399199
 30
0.0
 40
0.2742033011505219
 50
247.9911393361597
 51
318.21806874838251
  0
ARC
  5
18469
  8
0
 10
4473.7486302066354
 20
454.41681441787563
 30
0.0
 40
2.61990363812592
 50
72.935589237338206
 51
107.0644570954961
  0
ENDSEC
  0
EOF
