  0
SECTION
  2
HEADER
  9
$ACADVER
  1
AC1009
  9
$INSBASE
 10
4501.2845723665569
 20
461.55259654727121
 30
0.0
  9
$EXTMIN
 10
4489.2570230878082
 20
454.03482414338561
 30
-0.0015258207003583
  9
$EXTMAX
 10
4513.3602263138582
 20
469.06482341460497
 30
0.0000000349246037
  9
$LIMMIN
 10
0.0
 20
0.0
  9
$LIMMAX
 10
11.692913385800001
 20
8.2677165353999982
  9
$ORTHOMODE
 70
     0
  9
$REGENMODE
 70
     1
  9
$FILLMODE
 70
     1
  9
$QTEXTMODE
 70
     0
  9
$MIRRTEXT
 70
     0
  9
$DRAGMODE
 70
     2
  9
$LTSCALE
 40
0.6431102362
  9
$OSMODE
 70
    19
  9
$ATTMODE
 70
     1
  9
$TEXTSIZE
 40
0.2
  9
$TRACEWID
 40
0.05
  9
$TEXTSTYLE
  7
STANDARD
  9
$CLAYER
  8
0
  9
$CELTYPE
  6
BYLAYER
  9
$CECOLOR
 62
   256
  9
$DIMSCALE
 40
1.0
  9
$DIMASZ
 40
0.1875
  9
$DIMEXO
 40
0.0625
  9
$DIMDLI
 40
0.4443307087
  9
$DIMRND
 40
0.0
  9
$DIMDLE
 40
0.0
  9
$DIMEXE
 40
0.125
  9
$DIMTP
 40
0.01
  9
$DIMTM
 40
0.01
  9
$DIMTXT
 40
2.0
  9
$DIMCEN
 40
0.1052362205
  9
$DIMTSZ
 40
0.0
  9
$DIMTOL
 70
     1
  9
$DIMLIM
 70
     0
  9
$DIMTIH
 70
     1
  9
$DIMTOH
 70
     1
  9
$DIMSE1
 70
     0
  9
$DIMSE2
 70
     0
  9
$DIMTAD
 70
     0
  9
$DIMZIN
 70
     0
  9
$DIMBLK
  1

  9
$DIMASO
 70
     1
  9
$DIMSHO
 70
     1
  9
$DIMPOST
  1
\X
  9
$DIMAPOST
  1

  9
$DIMALT
 70
     1
  9
$DIMALTD
 70
     2
  9
$DIMALTF
 40
25.399999999999999
  9
$DIMLFAC
 40
1.0
  9
$DIMTOFL
 70
     0
  9
$DIMTVP
 40
0.0
  9
$DIMTIX
 70
     0
  9
$DIMSOXD
 70
     0
  9
$DIMSAH
 70
     0
  9
$DIMBLK1
  1

  9
$DIMBLK2
  1

  9
$DIMSTYLE
  2
STANDARD
  9
$DIMCLRD
 70
     0
  9
$DIMCLRE
 70
     0
  9
$DIMCLRT
 70
     0
  9
$DIMTFAC
 40
1.0
  9
$DIMGAP
 40
0.09
  9
$LUNITS
 70
     2
  9
$LUPREC
 70
     4
  9
$SKETCHINC
 40
0.1
  9
$FILLETRAD
 40
0.0
  9
$AUNITS
 70
     0
  9
$AUPREC
 70
     0
  9
$MENU
  1
.
  9
$ELEVATION
 40
0.0
  9
$PELEVATION
 40
0.0
  9
$THICKNESS
 40
0.0
  9
$LIMCHECK
 70
     0
  9
$BLIPMODE
 70
     0
  9
$CHAMFERA
 40
0.0
  9
$CHAMFERB
 40
0.0
  9
$SKPOLY
 70
     0
  9
$TDCREATE
 40
2458060.4683680669
  9
$TDUPDATE
 40
2459299.7355429172
  9
$TDINDWG
 40
1.4421851736
  9
$TDUSRTIMER
 40
1.4421851736
  9
$USRTIMER
 70
     1
  9
$ANGBASE
 50
0.0
  9
$ANGDIR
 70
     0
  9
$PDMODE
 70
     0
  9
$PDSIZE
 40
0.3125
  9
$PLINEWID
 40
0.0
  9
$COORDS
 70
     1
  9
$SPLFRAME
 70
     0
  9
$SPLINETYPE
 70
     6
  9
$SPLINESEGS
 70
     8
  9
$ATTDIA
 70
     1
  9
$ATTREQ
 70
     1
  9
$HANDLING
 70
     1
  9
$HANDSEED
  5
1875F
  9
$SURFTAB1
 70
     6
  9
$SURFTAB2
 70
     6
  9
$SURFTYPE
 70
     6
  9
$SURFU
 70
     6
  9
$SURFV
 70
     6
  9
$UCSNAME
  2

  9
$UCSORG
 10
0.0
 20
0.0
 30
0.0
  9
$UCSXDIR
 10
1.0
 20
0.0
 30
0.0
  9
$UCSYDIR
 10
0.0
 20
1.0
 30
0.0
  9
$PUCSNAME
  2

  9
$PUCSORG
 10
0.0
 20
0.0
 30
0.0
  9
$PUCSXDIR
 10
1.0
 20
0.0
 30
0.0
  9
$PUCSYDIR
 10
0.0
 20
1.0
 30
0.0
  9
$USERI1
 70
     0
  9
$USERI2
 70
     0
  9
$USERI3
 70
     0
  9
$USERI4
 70
     0
  9
$USERI5
 70
     0
  9
$USERR1
 40
0.0
  9
$USERR2
 40
0.0
  9
$USERR3
 40
0.0
  9
$USERR4
 40
0.0
  9
$USERR5
 40
0.0
  9
$WORLDVIEW
 70
     1
  9
$SHADEDGE
 70
     3
  9
$SHADEDIF
 70
    70
  9
$TILEMODE
 70
     1
  9
$MAXACTVP
 70
    64
  9
$PLIMCHECK
 70
     0
  9
$PEXTMIN
 10
1.0000000000000000E+020
 20
1.0000000000000000E+020
 30
1.0000000000000000E+020
  9
$PEXTMAX
 10
-1.0000000000000000E+020
 20
-1.0000000000000000E+020
 30
-1.0000000000000000E+020
  9
$PLIMMIN
 10
0.0
 20
0.0
  9
$PLIMMAX
 10
12.0
 20
9.0
  9
$UNITMODE
 70
     0
  9
$VISRETAIN
 70
     1
  9
$PLINEGEN
 70
     0
  9
$PSLTSCALE
 70
     1
  0
ENDSEC
  0
SECTION
  2
TABLES
  0
TABLE
  2
VPORT
 70
     1
  0
VPORT
  2
*ACTIVE
 70
     0
 10
0.0
 20
0.0
 11
1.0
 21
1.0
 12
589.94326825552071
 22
328.97021867645628
 13
0.0
 23
0.0
 14
1.0
 24
1.0
 15
0.0
 25
0.0
 16
0.0
 26
0.0
 36
60.496018696580158
 17
3911.365356445312
 27
132.57960510253901
 37
0.0
 40
15.19161216660882
 41
2.4075403949730689
 42
50.0
 43
0.0
 44
0.0
 50
0.0
 51
0.0
 71
     0
 72
   100
 73
     1
 74
     1
 75
     0
 76
     0
 77
     0
 78
     0
  0
ENDTAB
  0
TABLE
  2
LTYPE
 70
     2
  0
LTYPE
  2
CONTINUOUS
 70
     0
  3
Solid line
 72
    65
 73
     0
 40
0.0
  0
LTYPE
  2
PHANTOM2
 70
     0
  3
___ _ _ ___ _ _ ___ _ _ ___ _ _
 72
    65
 73
     6
 40
1.25
 49
0.625
 49
-0.125
 49
0.125
 49
-0.125
 49
0.125
 49
-0.125
  0
ENDTAB
  0
TABLE
  2
LAYER
 70
     2
  0
LAYER
  2
0
 70
     0
 62
   255
  6
CONTINUOUS
  0
LAYER
  2
DEFPOINTS
 70
     0
 62
     7
  6
CONTINUOUS
  0
ENDTAB
  0
TABLE
  2
STYLE
 70
     1
  0
STYLE
  2
STANDARD
 70
     0
 40
0.0
 41
0.8
 50
0.0
 71
     0
 42
0.2
  3
txt
  4

  0
ENDTAB
  0
TABLE
  2
VIEW
 70
     0
  0
ENDTAB
  0
TABLE
  2
UCS
 70
     0
  0
ENDTAB
  0
TABLE
  2
APPID
 70
    11
  0
APPID
  2
ACAD
 70
     0
  0
APPID
  2
ACAD_MLEADERVER
 70
     0
  0
APPID
  2
ACAD_EXEMPT_FROM_CAD_STANDARDS
 70
     0
  0
APPID
  2
ACAD_NAV_VCDISPLAY
 70
     0
  0
APPID
  2
ACAECLAYERSTANDARD
 70
     0
  0
APPID
  2
ACCMTRANSPARENCY
 70
     0
  0
APPID
  2
ACAD_DSTYLE_DIMJAG
 70
     0
  0
APPID
  2
ACAD_DSTYLE_DIMTALN
 70
     0
  0
APPID
  2
ACDBATTR
 70
     0
  0
APPID
  2
ACADANNOTATIVE
 70
     0
  0
APPID
  2
DCO15
 70
     0
  0
ENDTAB
  0
TABLE
  2
DIMSTYLE
 70
     1
  0
DIMSTYLE
  2
STANDARD
 70
     0
  3

  4

  5

  6

  7

 40
1.0
 41
0.1875
 42
0.0625
 43
0.38
 44
0.125
 45
0.0
 46
0.0
 47
0.01
 48
0.01
140
0.15625
141
0.09
142
0.0
143
25.399999999999999
144
1.0
145
0.0
146
1.0
147
0.09
 71
     1
 72
     0
 73
     1
 74
     1
 75
     0
 76
     0
 77
     0
 78
     4
170
     0
171
     2
172
     0
173
     0
174
     0
175
     0
176
     0
177
     0
178
     0
  0
ENDTAB
  0
ENDSEC
  0
SECTION
  2
BLOCKS
  0
BLOCK
  8
0
  2
$MODEL_SPACE
 70
     0
 10
0.0
 20
0.0
 30
0.0
  3
$MODEL_SPACE
  1

  0
ENDBLK
  5
21
  8
0
  0
BLOCK
 67
     1
  8
0
  2
$PAPER_SPACE
 70
     0
 10
0.0
 20
0.0
 30
0.0
  3
$PAPER_SPACE
  1

  0
ENDBLK
  5
1D
 67
     1
  8
0
  0
ENDSEC
  0
SECTION
  2
ENTITIES
  0
ATTDEF
  5
159BF
  8
DEFPOINTS
 10
4501.284572616577
 20
461.55592969193231
 30
0.0
 40
0.001
  1
2220X
  3

  2
MODELNUMBER
 70
     0
1001
ACDBATTR
1070
     0
1070
     1
  0
ATTDEF
  5
159C0
  8
DEFPOINTS
 10
4501.284572616577
 20
461.55426285155312
 30
0.0
 40
0.001
  1
VINTAGE
  3

  2
TRADENAME
 70
     0
1001
ACDBATTR
1070
     0
1070
     1
  0
ATTDEF
  5
159C1
  8
DEFPOINTS
 10
4501.284572616577
 20
461.55259635859898
 30
0.0
 40
0.001
  1
BATHROOM SINK
  3

  2
PRODUCT
 70
     0
1001
ACDBATTR
1070
     0
1070
     1
  0
ARC
  5
185A7
  8
0
 10
4494.3648058392591
 20
461.5525966705996
 30
0.0
 40
5.0181442919515531
 50
142.74317798847741
 51
217.25682201152259
  0
ARC
  5
185A8
  8
0
 10
4501.2845723665569
 20
450.40428478597443
 30
0.0
 40
18.646223250996851
 50
77.245118688933786
 51
102.7548813110662
  0
ARC
  5
185AA
  8
0
 10
4497.7598542242467
 20
459.05794735705842
 30
0.0
 40
9.2308611473613968
 50
114.7970792868244
 51
143.1761692482898
  0
ARC
  5
185AB
  8
0
 10
4500.4671960004925
 20
453.96184678285931
 30
0.0
 40
14.99599321035344
 50
102.709926593963
 51
116.0212899136738
  0
ARC
  5
185AC
  8
0
 10
4508.2043388938573
 20
461.5525966705996
 30
0.0
 40
5.0181442919515193
 50
322.74317798847738
 51
37.256822011522573
  0
ARC
  5
185AD
  8
0
 10
4504.8092905088688
 20
459.05794735705842
 30
0.0
 40
9.2308611473613968
 50
36.823830751710211
 51
65.202920713175544
  0
ARC
  5
185AE
  8
0
 10
4502.1019487326212
 20
453.96184678285931
 30
0.0
 40
14.99599321035344
 50
63.978710086326132
 51
77.290073406036953
  0
ARC
  5
185AF
  8
0
 10
4501.2845723665569
 20
472.7009083085681
 30
0.0
 40
18.64622325099684
 50
257.24511868893381
 51
282.75488131106619
  0
ARC
  5
185B0
  8
0
 10
4497.7598529343941
 20
464.04724366459112
 30
0.0
 40
9.2308587246196563
 50
216.8238240253406
 51
245.20292258485151
  0
ARC
  5
185B1
  8
0
 10
4500.4671960004925
 20
469.1433463116831
 30
0.0
 40
14.99599321035344
 50
243.9787100863262
 51
257.29007340603698
  0
ARC
  5
185B2
  8
0
 10
4504.8092917987206
 20
464.04724366459112
 30
0.0
 40
9.2308587246196137
 50
294.79707741514852
 51
323.17617597465937
  0
ARC
  5
185B3
  8
0
 10
4502.1019487326212
 20
469.1433463116831
 30
0.0
 40
14.99599321035344
 50
282.70992659396308
 51
296.02128991367391
  0
CIRCLE
  5
185B4
  8
0
 10
4501.2845723655082
 20
461.55259654727121
 30
0.0
 40
0.7912128741000011
  0
CIRCLE
  5
185B5
  8
0
 10
4501.2845723655082
 20
461.55259654727121
 30
0.0
 40
1.022418753499998
  0
ARC
  5
185B6
  8
0
 10
4500.2266113095466
 20
454.62532912909398
 30
0.0
 40
0.980103670294981
 50
76.598051953753142
 51
96.383749636291967
  0
ARC
  5
185B7
  8
0
 10
4500.3502462068755
 20
456.56523043680829
 30
0.0
 40
1.1346908218129781
 50
258.09405327822287
 51
275.07298121877682
  0
ARC
  5
185B8
  8
0
 10
4500.0050372426776
 20
455.53247521601901
 30
0.0
 40
0.031127578050396
 50
118.8987201220035
 51
240.54992139677589
  0
ARC
  5
185B9
  8
0
 10
4500.2123942672906
 20
455.87995641970718
 30
0.0
 40
0.4357673864070561
 50
239.27194963687811
 51
257.24075888176242
  0
ARC
  5
185BA
  8
0
 10
4500.1550636069624
 20
455.25342864083041
 30
0.0
 40
0.3479458222808259
 50
96.175027599909271
 51
118.3209773239861
  0
ARC
  5
185BB
  8
0
 10
4500.5670392642241
 20
455.49636991063181
 30
0.0
 40
0.0281911984619629
 50
300.41870662820583
 51
43.379349411462933
  0
ARC
  5
185BC
  8
0
 10
4500.3763267695849
 20
455.24087963871318
 30
0.0
 40
0.3466273232222013
 50
52.460582151920711
 51
77.088241965700107
  0
ARC
  5
185BD
  8
0
 10
4500.4233713440753
 20
455.7799577531768
 30
0.0
 40
0.3460448060194189
 50
274.5098103531335
 51
297.15629699519019
  0
ARC
  5
185BE
  8
0
 10
4501.0030928738961
 20
455.48478417807149
 30
0.0
 40
0.028520508473526
 50
129.86754960669541
 51
235.4818391498267
  0
ARC
  5
185BF
  8
0
 10
4501.1645525069489
 20
455.244046877784
 30
0.0
 40
0.31824571782202
 50
98.611757354164766
 51
124.3876462651116
  0
ARC
  5
185C0
  8
0
 10
4501.1636442288227
 20
455.75704031698422
 30
0.0
 40
0.3445269344517677
 50
239.14181443148479
 51
262.34682136388108
  0
ARC
  5
185C1
  8
0
 10
4502.3425334235681
 20
454.62532912909398
 30
0.0
 40
0.980103670294981
 50
83.616250363708048
 51
103.4019480462468
  0
ARC
  5
185C2
  8
0
 10
4502.218898526241
 20
456.56523043680829
 30
0.0
 40
1.1346908218129781
 50
264.92701878122318
 51
281.90594672177713
  0
ARC
  5
185C3
  8
0
 10
4502.564107490437
 20
455.53247521601901
 30
0.0
 40
0.031127578050396
 50
299.45007860322397
 51
61.101279877996461
  0
ARC
  5
185C4
  8
0
 10
4502.3567504658249
 20
455.87995641970718
 30
0.0
 40
0.4357673864070561
 50
282.75924111823758
 51
300.7280503631203
  0
ARC
  5
185C5
  8
0
 10
4502.4140811261532
 20
455.25342864083041
 30
0.0
 40
0.3479458222808259
 50
61.679022676013872
 51
83.824972400090743
  0
ARC
  5
185C6
  8
0
 10
4502.0021054688923
 20
455.49636991063181
 30
0.0
 40
0.0281911984619629
 50
136.62065058853699
 51
239.5812933717942
  0
ARC
  5
185C7
  8
0
 10
4502.1928179635306
 20
455.24087963871318
 30
0.0
 40
0.3466273232222013
 50
102.91175803429989
 51
127.5394178480793
  0
ARC
  5
185C8
  8
0
 10
4502.1457733890411
 20
455.7799577531768
 30
0.0
 40
0.3460448060194189
 50
242.84370300480981
 51
265.49018964686638
  0
ARC
  5
185C9
  8
0
 10
4501.5660518592194
 20
455.48478417807149
 30
0.0
 40
0.028520508473526
 50
304.51816085017327
 51
50.132450393304538
  0
ARC
  5
185CA
  8
0
 10
4501.4045922261657
 20
455.244046877784
 30
0.0
 40
0.31824571782202
 50
55.612353734888408
 51
81.388242645835234
  0
ARC
  5
185CB
  8
0
 10
4501.405496155714
 20
455.75704961839767
 30
0.0
 40
0.3445371496042403
 50
277.65369727075949
 51
300.85801297751448
  0
ARC
  5
185CC
  8
0
 10
4501.2845723665569
 20
454.5946324982948
 30
0.0
 40
0.9785445166763334
 50
80.133691133678511
 51
99.866308866321475
  0
ARC
  5
185CD
  8
0
 10
4501.2845737850239
 20
456.53511075888429
 30
0.0
 40
1.131887950713961
 50
261.52514508398559
 51
278.47471498556411
  0
ARC
  5
185CE
  8
0
 10
4507.9955321241023
 20
461.55259654727121
 30
0.0
 40
3.788116530295472
 50
325.67002848912853
 51
34.329971510871417
  0
ARC
  5
185CF
  8
0
 10
4501.2845723665569
 20
451.24563958009378
 30
0.0
 40
16.558078135978789
 50
73.29274634504074
 51
106.7072536549592
  0
ARC
  5
185D0
  8
0
 10
4503.6570713907404
 20
458.07047955447121
 30
0.0
 40
9.3444454361184341
 50
36.960305083611011
 51
75.195891830436977
  0
ARC
  5
185D1
  8
0
 10
4501.2845723665569
 20
471.85955351444858
 30
0.0
 40
16.558078135978722
 50
253.29274634504071
 51
286.70725365495929
  0
ARC
  5
185D2
  8
0
 10
4503.6570713907404
 20
465.03471354007121
 30
0.0
 40
9.3444454361184341
 50
284.80410816956299
 51
323.0396949163889
  0
ARC
  5
185D3
  8
0
 10
4494.5736126090133
 20
461.55259654727121
 30
0.0
 40
3.788116530295472
 50
145.67002848912861
 51
214.32997151087139
  0
ARC
  5
185D4
  8
0
 10
4498.9120733423752
 20
458.07047955447121
 30
0.0
 40
9.3444454361184341
 50
104.80410816956299
 51
143.03969491638901
  0
ARC
  5
185D5
  8
0
 10
4498.9120733423752
 20
465.03471354007121
 30
0.0
 40
9.3444454361184341
 50
216.96030508361099
 51
255.19589183043701
  0
ENDSEC
  0
EOF
