  0
SECTION
  2
HEADER
  9
$ACADVER
  1
AC1009
  9
$INSBASE
 10
3303.9985531870279374
 20
184.8224170242640128
 30
0.0
  9
$EXTMIN
 10
3290.4985531870279374
 20
184.8165633448114136
 30
0.0
  9
$EXTMAX
 10
3317.4986682226722223
 20
221.3257851743641993
 30
0.0
  9
$LIMMIN
 10
0.0
 20
0.0
  9
$LIMMAX
 10
11.6929133858000007
 20
8.2677165353999982
  9
$ORTHOMODE
 70
     1
  9
$REGENMODE
 70
     1
  9
$FILLMODE
 70
     1
  9
$QTEXTMODE
 70
     0
  9
$MIRRTEXT
 70
     0
  9
$DRAGMODE
 70
     2
  9
$LTSCALE
 40
0.6431102362
  9
$OSMODE
 70
  4095
  9
$ATTMODE
 70
     1
  9
$TEXTSIZE
 40
0.2
  9
$TRACEWID
 40
0.05
  9
$TEXTSTYLE
  7
STANDARD
  9
$CLAYER
  8
0
  9
$CELTYPE
  6
BYLAYER
  9
$CECOLOR
 62
   256
  9
$DIMSCALE
 40
1.0
  9
$DIMASZ
 40
0.1875
  9
$DIMEXO
 40
0.0625
  9
$DIMDLI
 40
0.4443307087
  9
$DIMRND
 40
0.0
  9
$DIMDLE
 40
0.0
  9
$DIMEXE
 40
0.125
  9
$DIMTP
 40
0.01
  9
$DIMTM
 40
0.01
  9
$DIMTXT
 40
2.0
  9
$DIMCEN
 40
0.1052362205
  9
$DIMTSZ
 40
0.0
  9
$DIMTOL
 70
     1
  9
$DIMLIM
 70
     0
  9
$DIMTIH
 70
     1
  9
$DIMTOH
 70
     1
  9
$DIMSE1
 70
     0
  9
$DIMSE2
 70
     0
  9
$DIMTAD
 70
     0
  9
$DIMZIN
 70
     0
  9
$DIMBLK
  1

  9
$DIMASO
 70
     1
  9
$DIMSHO
 70
     1
  9
$DIMPOST
  1
\X
  9
$DIMAPOST
  1

  9
$DIMALT
 70
     1
  9
$DIMALTD
 70
     2
  9
$DIMALTF
 40
25.3999999999999986
  9
$DIMLFAC
 40
1.0
  9
$DIMTOFL
 70
     0
  9
$DIMTVP
 40
0.0
  9
$DIMTIX
 70
     0
  9
$DIMSOXD
 70
     0
  9
$DIMSAH
 70
     0
  9
$DIMBLK1
  1

  9
$DIMBLK2
  1

  9
$DIMSTYLE
  2
STANDARD
  9
$DIMCLRD
 70
     0
  9
$DIMCLRE
 70
     0
  9
$DIMCLRT
 70
     0
  9
$DIMTFAC
 40
1.0
  9
$DIMGAP
 40
0.09
  9
$LUNITS
 70
     2
  9
$LUPREC
 70
     4
  9
$SKETCHINC
 40
0.1
  9
$FILLETRAD
 40
0.0
  9
$AUNITS
 70
     0
  9
$AUPREC
 70
     0
  9
$MENU
  1
.
  9
$ELEVATION
 40
0.0
  9
$PELEVATION
 40
0.0
  9
$THICKNESS
 40
0.0
  9
$LIMCHECK
 70
     0
  9
$BLIPMODE
 70
     0
  9
$CHAMFERA
 40
0.0
  9
$CHAMFERB
 40
0.0
  9
$SKPOLY
 70
     0
  9
$TDCREATE
 40
2458060.468368056230247
  9
$TDUPDATE
 40
2459014.3875694437883794
  9
$TDINDWG
 40
0.5082246528
  9
$TDUSRTIMER
 40
0.5082246528
  9
$USRTIMER
 70
     1
  9
$ANGBASE
 50
0.0
  9
$ANGDIR
 70
     0
  9
$PDMODE
 70
     0
  9
$PDSIZE
 40
0.3125
  9
$PLINEWID
 40
0.0
  9
$COORDS
 70
     1
  9
$SPLFRAME
 70
     0
  9
$SPLINETYPE
 70
     6
  9
$SPLINESEGS
 70
     8
  9
$ATTDIA
 70
     1
  9
$ATTREQ
 70
     1
  9
$HANDLING
 70
     1
  9
$HANDSEED
  5
92D1
  9
$SURFTAB1
 70
     6
  9
$SURFTAB2
 70
     6
  9
$SURFTYPE
 70
     6
  9
$SURFU
 70
     6
  9
$SURFV
 70
     6
  9
$UCSNAME
  2

  9
$UCSORG
 10
0.0
 20
0.0
 30
0.0
  9
$UCSXDIR
 10
1.0
 20
0.0
 30
0.0
  9
$UCSYDIR
 10
0.0
 20
1.0
 30
0.0
  9
$PUCSNAME
  2

  9
$PUCSORG
 10
0.0
 20
0.0
 30
0.0
  9
$PUCSXDIR
 10
1.0
 20
0.0
 30
0.0
  9
$PUCSYDIR
 10
0.0
 20
1.0
 30
0.0
  9
$USERI1
 70
     0
  9
$USERI2
 70
     0
  9
$USERI3
 70
     0
  9
$USERI4
 70
     0
  9
$USERI5
 70
     0
  9
$USERR1
 40
0.0
  9
$USERR2
 40
0.0
  9
$USERR3
 40
0.0
  9
$USERR4
 40
0.0
  9
$USERR5
 40
0.0
  9
$WORLDVIEW
 70
     1
  9
$SHADEDGE
 70
     3
  9
$SHADEDIF
 70
    70
  9
$TILEMODE
 70
     1
  9
$MAXACTVP
 70
    64
  9
$PLIMCHECK
 70
     0
  9
$PEXTMIN
 10
1.0000000000000000E+20
 20
1.0000000000000000E+20
 30
1.0000000000000000E+20
  9
$PEXTMAX
 10
-1.0000000000000000E+20
 20
-1.0000000000000000E+20
 30
-1.0000000000000000E+20
  9
$PLIMMIN
 10
0.0
 20
0.0
  9
$PLIMMAX
 10
12.0
 20
9.0
  9
$UNITMODE
 70
     0
  9
$VISRETAIN
 70
     1
  9
$PLINEGEN
 70
     0
  9
$PSLTSCALE
 70
     1
  0
ENDSEC
  0
SECTION
  2
TABLES
  0
TABLE
  2
VPORT
 70
     1
  0
VPORT
  2
*ACTIVE
 70
     0
 10
0.0
 20
0.0
 11
1.0
 21
1.0
 12
-2.2225671739352602
 22
0.1272914078457177
 13
0.0
 23
0.0
 14
1.0
 24
1.0
 15
0.0
 25
0.0
 16
0.0
 26
0.0
 36
96.5995694866707311
 17
3303.693115234375
 27
195.2615115758877096
 37
0.0
 40
241.3712871944794074
 41
2.6486111111111108
 42
50.0
 43
0.0
 44
0.0
 50
0.0
 51
0.0
 71
     0
 72
   100
 73
     1
 74
     1
 75
     0
 76
     0
 77
     0
 78
     0
  0
ENDTAB
  0
TABLE
  2
LTYPE
 70
     2
  0
LTYPE
  2
CONTINUOUS
 70
     0
  3
Solid line
 72
    65
 73
     0
 40
0.0
  0
LTYPE
  2
PHANTOM2
 70
     0
  3
___ _ _ ___ _ _ ___ _ _ ___ _ _
 72
    65
 73
     6
 40
1.25
 49
0.625
 49
-0.125
 49
0.125
 49
-0.125
 49
0.125
 49
-0.125
  0
ENDTAB
  0
TABLE
  2
LAYER
 70
     2
  0
LAYER
  2
0
 70
     0
 62
   255
  6
CONTINUOUS
  0
LAYER
  2
DEFPOINTS
 70
     0
 62
     7
  6
CONTINUOUS
  0
ENDTAB
  0
TABLE
  2
STYLE
 70
     1
  0
STYLE
  2
STANDARD
 70
     0
 40
0.0
 41
0.8
 50
0.0
 71
     0
 42
0.2
  3
txt
  4

  0
ENDTAB
  0
TABLE
  2
VIEW
 70
     0
  0
ENDTAB
  0
TABLE
  2
UCS
 70
     0
  0
ENDTAB
  0
TABLE
  2
APPID
 70
     9
  0
APPID
  2
ACAD
 70
     0
  0
APPID
  2
ACAD_MLEADERVER
 70
     0
  0
APPID
  2
ACAD_EXEMPT_FROM_CAD_STANDARDS
 70
     0
  0
APPID
  2
ACAD_NAV_VCDISPLAY
 70
     0
  0
APPID
  2
ACAECLAYERSTANDARD
 70
     0
  0
APPID
  2
ACCMTRANSPARENCY
 70
     0
  0
APPID
  2
ACAD_DSTYLE_DIMJAG
 70
     0
  0
APPID
  2
ACAD_DSTYLE_DIMTALN
 70
     0
  0
APPID
  2
ACDBATTR
 70
     0
  0
ENDTAB
  0
TABLE
  2
DIMSTYLE
 70
     1
  0
DIMSTYLE
  2
STANDARD
 70
     0
  3

  4

  5

  6

  7

 40
1.0
 41
0.1875
 42
0.0625
 43
0.38
 44
0.125
 45
0.0
 46
0.0
 47
0.01
 48
0.01
140
0.15625
141
0.09
142
0.0
143
25.3999999999999986
144
1.0
145
0.0
146
1.0
147
0.09
 71
     1
 72
     0
 73
     1
 74
     1
 75
     0
 76
     0
 77
     0
 78
     4
170
     0
171
     2
172
     0
173
     0
174
     0
175
     0
176
     0
177
     0
178
     0
  0
ENDTAB
  0
ENDSEC
  0
SECTION
  2
BLOCKS
  0
BLOCK
  8
0
  2
$MODEL_SPACE
 70
     0
 10
0.0
 20
0.0
 30
0.0
  3
$MODEL_SPACE
  1

  0
ENDBLK
  5
21
  8
0
  0
BLOCK
 67
     1
  8
0
  2
$PAPER_SPACE
 70
     0
 10
0.0
 20
0.0
 30
0.0
  3
$PAPER_SPACE
  1

  0
ENDBLK
  5
1D
 67
     1
  8
0
  0
ENDSEC
  0
SECTION
  2
ENTITIES
  0
ATTDEF
  5
8B59
  8
DEFPOINTS
 10
3303.994823362364059
 20
184.819896678144687
 30
0.0
 40
0.001
  1
K-2221T-8
  3

  2
MODELNUMBER
 70
     0
1001
ACDBATTR
1070
     0
1070
     1
  0
ATTDEF
  5
8B5A
  8
DEFPOINTS
 10
3303.994823362364059
 20
184.8182300114779935
 30
0.0
 40
0.001
  1
PORTRAIT
  3

  2
TRADENAME
 70
     0
1001
ACDBATTR
1070
     0
1070
     1
  0
ATTDEF
  5
8B5B
  8
DEFPOINTS
 10
3303.994823362364059
 20
184.8165633448114136
 30
0.0
 40
0.001
  1
BATHROOM SINK
  3

  2
PRODUCT
 70
     0
1001
ACDBATTR
1070
     0
1070
     1
  0
ARC
  5
90A6
  8
0
 10
3293.4842566755269218
 20
224.3894239078553028
 30
0.0
 40
5.0207794329700777
 50
281.7384627752583128
 51
295.6909485819533074
  0
ARC
  5
90A7
  8
0
 10
3293.4927142389601613
 20
224.3487214971264905
 30
0.0
 40
4.9792076081560026
 50
267.6688809966527174
 51
281.7384627752583128
  0
ARC
  5
90A8
  8
0
 10
3293.2850324666701454
 20
219.2212560801019947
 30
0.0
 40
0.1524655231672749
 50
88.0623694038298197
 51
122.1660345190200019
  0
ARC
  5
90A9
  8
0
 10
3293.891460466794797
 20
218.2009971785668938
 30
0.0
 40
1.33930247471801
 50
120.8905124761948997
 51
123.0151639869798004
  0
ARC
  5
90AA
  8
0
 10
3283.0554774323991296
 20
242.380533861093511
 30
0.0
 40
25.1741592482869194
 50
290.921714905984004
 51
293.6690629403269099
  0
ARC
  5
90AB
  8
0
 10
3288.8971752597708473
 20
227.7407500110051046
 30
0.0
 40
9.4163443488195515
 50
288.2341495472210795
 51
289.529395801409521
  0
ARC
  5
90AC
  8
0
 10
3291.8886449660121798
 20
218.6753190944301082
 30
0.0
 40
0.1299905773486969
 50
110.2939583237597958
 51
154.186456728734413
  0
ARC
  5
90AD
  8
0
 10
3290.8714184103168918
 20
219.1674082525757115
 30
0.0
 40
1.0000101330038691
 50
291.8765677158165772
 51
334.1840863925709755
  0
ARC
  5
90AE
  8
0
 10
3291.3185531719091159
 20
218.0538128034640124
 30
0.0
 40
0.1999999999999996
 50
111.8768867601958021
 51
177.551399371799306
  0
ARC
  5
90AF
  8
0
 10
3290.9189183919838797
 20
218.070902057626796
 30
0.0
 40
0.1999999999162713
 50
296.3139054376985086
 51
357.5513993805054724
  0
ARC
  5
90B0
  8
0
 10
3291.4513952413590232
 20
216.9945461641885061
 30
0.0
 40
1.0008636933768551
 50
116.3233246406744001
 51
159.4337221977654906
  0
ARC
  5
90B1
  8
0
 10
3290.7523883700951046
 20
217.2580724338612015
 30
0.0
 40
0.2538354169639315
 50
159.6992204504203983
 51
179.9222189636064968
  0
ARC
  5
90B2
  8
0
 10
3290.7485531364791314
 20
217.2584169854509923
 30
0.0
 40
0.249999949451348
 50
179.9999911047239891
 51
243.4794645357528111
  0
ARC
  5
90B3
  8
0
 10
3290.5486896932698073
 20
216.8554603501385998
 30
0.0
 40
0.1998010575918769
 50
0.941085471377287
 51
63.7934497126102329
  0
ARC
  5
90B4
  8
0
 10
3290.9481763160752052
 20
216.8621684056631125
 30
0.0
 40
0.1997419076705283
 50
180.9829258394508997
 51
254.7858186719998059
  0
ARC
  5
90B5
  8
0
 10
3290.6274679078628651
 20
215.7048129938389991
 30
0.0
 40
1.0012293734909541
 50
32.1985725803275074
 51
74.4570230293902995
  0
ARC
  5
90B6
  8
0
 10
3291.5600189065389714
 20
216.2921363737033005
 30
0.0
 40
0.1008596359431735
 50
212.2452589073976128
 51
262.1493974007295833
  0
ARC
  5
90B7
  8
0
 10
3291.4573942869501479
 20
215.5941718584143985
 30
0.0
 40
0.6046139327157367
 50
30.6999073830521709
 51
81.5497717224084653
  0
ARC
  5
90B8
  8
0
 10
3301.7875557738470889
 20
221.7373020364017862
 30
0.0
 40
11.4141334355499104
 50
210.7411347579007952
 51
245.7831958307488094
  0
ARC
  5
90B9
  8
0
 10
3314.5169558259030964
 20
224.4051498092671011
 30
0.0
 40
5.0367328094740849
 50
244.3444899620371018
 51
258.2521317705119941
  0
ARC
  5
90BA
  8
0
 10
3314.5043021878268519
 20
224.3490252242779093
 30
0.0
 40
4.9792076081560026
 50
258.2631936710682794
 51
272.3327754496918942
  0
ARC
  5
90BB
  8
0
 10
3314.7121321973249906
 20
219.2215658135681906
 30
0.0
 40
0.1524655231672749
 50
57.835621927309667
 51
91.9392870424871944
  0
ARC
  5
90BC
  8
0
 10
3314.1057336935878084
 20
218.2012893803577924
 30
0.0
 40
1.33930247471801
 50
56.9864924593499111
 51
59.1111439701275572
  0
ARC
  5
90BD
  8
0
 10
3324.9410176823539587
 20
242.3811393258428097
 30
0.0
 40
25.1741592482869194
 50
246.3325935060030076
 51
249.079941540336506
  0
ARC
  5
90BE
  8
0
 10
3319.099743100050091
 20
227.7411865958040096
 30
0.0
 40
9.4163443488195515
 50
250.4722606449346074
 51
251.7675068991005105
  0
ARC
  5
90BF
  8
0
 10
3316.1085354806791656
 20
218.6756691983048881
 30
0.0
 40
0.1299905773486969
 50
25.8151997176042585
 51
69.7076981225786056
  0
ARC
  5
90C0
  8
0
 10
3317.1257478094330509
 20
219.1677877647146033
 30
0.0
 40
1.0000101330038691
 50
205.817570053742287
 51
248.1250887305066044
  0
ARC
  5
90C1
  8
0
 10
3316.6788609117288615
 20
218.054452533920994
 30
0.0
 40
0.1996661911942752
 50
2.2689650860526189
 51
68.1529978323840311
  0
ARC
  5
90C2
  8
0
 10
3317.0799064799598455
 20
218.0720209569809924
 30
0.0
 40
0.2017674651861747
 50
182.7451956902235963
 51
243.3894994629862936
  0
ARC
  5
90C3
  8
0
 10
3316.5487148603860987
 20
216.9970411073421133
 30
0.0
 40
0.9972967471972417
 50
20.5140017891140616
 51
63.7677892817678327
  0
ARC
  5
90C4
  8
0
 10
3317.2486686875718078
 20
217.2588002133084046
 30
0.0
 40
0.249999535096084
 50
0.0016280262279634
 51
20.5435995803265286
  0
ARC
  5
90C5
  8
0
 10
3317.2486682724861566
 20
217.2588000510411916
 30
0.0
 40
0.2499999501859992
 50
296.5221919584525949
 51
0.0016652124322231
  0
ARC
  5
90C6
  8
0
 10
3317.4488279355418854
 20
216.8555322865859125
 30
0.0
 40
0.2002110939251044
 50
116.2412194179289031
 51
179.0819159708350981
  0
ARC
  5
90C7
  8
0
 10
3317.0484119023908534
 20
216.8625715625877035
 30
0.0
 40
0.2002672930889538
 50
285.3269509857087201
 51
358.9038077421038224
  0
ARC
  5
90C8
  8
0
 10
3317.367969467291914
 20
215.7068913832924011
 30
0.0
 40
0.9987803255888678
 50
105.4826851875286025
 51
147.8293078799212878
  0
ARC
  5
90C9
  8
0
 10
3316.4372304388798511
 20
216.292495979298792
 30
0.0
 40
0.1008596359431735
 50
277.8522590455954742
 51
327.7563975389330153
  0
ARC
  5
90CA
  8
0
 10
3316.5398752368901114
 20
215.5945344312247016
 30
0.0
 40
0.6046139327157367
 50
98.4518847239313573
 51
149.3017490632718989
  0
ARC
  5
90CB
  8
0
 10
3305.5744537649961785
 20
222.260887358584398
 30
0.0
 40
12.2282197088354092
 50
293.6001709386002858
 51
328.6731615147539856
  0
ARC
  5
90CC
  8
0
 10
3304.1034568651848531
 20
197.4511081267839927
 30
0.0
 40
23.7058161398500609
 50
90.2535478408417049
 51
99.0627554020822316
  0
ARC
  5
90CD
  8
0
 10
3303.4893612080059029
 20
202.6061147830210984
 30
0.0
 40
18.5195734230388815
 50
99.6987520057763561
 51
109.0730775643257005
  0
ARC
  5
90CE
  8
0
 10
3292.4519692267372193
 20
235.0283253001854007
 30
0.0
 40
15.7303191104783
 50
282.2639301262511822
 51
288.4784013535643794
  0
ARC
  5
90CF
  8
0
 10
3295.8033824341951004
 20
219.6092474642597097
 30
0.0
 40
0.0487798441656446
 50
101.8937907120586033
 51
120.3470184297623007
  0
ARC
  5
90D0
  8
0
 10
3287.7506606715242015
 20
233.7373264616427093
 30
0.0
 40
16.2131096844244098
 50
299.1867151034734889
 51
299.6802731564404212
  0
ARC
  5
90D1
  8
0
 10
3292.7882168572641604
 20
224.8716251208900871
 30
0.0
 40
6.0169015567084987
 50
289.9433979736808737
 51
298.4768896509395972
  0
ARC
  5
90D2
  8
0
 10
3290.1417914592320813
 20
232.6830872343595047
 30
0.0
 40
14.2636788414600097
 50
288.480220631221016
 51
289.2335725211696058
  0
ARC
  5
90D3
  8
0
 10
3297.3916822294268059
 20
210.8303558594712115
 30
0.0
 40
8.7603734439534584
 50
108.1480854461112955
 51
113.0582181288940973
  0
ARC
  5
90D4
  8
0
 10
3293.8473015828449206
 20
219.1224648666249948
 30
0.0
 40
0.2578235237025103
 50
266.4663175139107807
 51
296.0533293577062182
  0
ARC
  5
90D5
  8
0
 10
3293.6824918866659573
 20
216.9940679029024011
 30
0.0
 40
1.8769805213016
 50
85.449399748666977
 51
93.0290453117325882
  0
ARC
  5
90D6
  8
0
 10
3293.5970320073729454
 20
218.1080628504799961
 30
0.0
 40
0.7604870400505908
 50
91.0340259331379116
 51
113.5310168026090025
  0
LINE
  5
90D7
  8
0
 10
3296.5356999094328785
 20
218.8062194184325904
 30
0.0
 11
3311.4614064343841164
 21
218.806234076132597
 31
0.0
  0
ARC
  5
90D8
  8
0
 10
3296.7219030371188637
 20
228.5589981618182946
 30
0.0
 40
9.754556105851071
 50
263.7900603328703255
 51
268.9062237939982083
  0
ARC
  5
90D9
  8
0
 10
3295.1386562425718694
 20
200.14761825754249
 30
0.0
 40
18.7215107082082284
 50
88.3836403107721509
 51
88.8662384401073098
  0
LINE
  5
90DA
  8
0
 10
3295.5090909273089892
 20
218.8654637890639947
 30
0.0
 11
3294.8222104010210387
 21
218.8727543950394931
 31
0.0
  0
LINE
  5
90DB
  8
0
 10
3294.8222104010210387
 20
218.8727543950394931
 30
0.0
 11
3294.6630533253078283
 21
218.8721059518640004
 31
0.0
  0
ARC
  5
90DC
  8
0
 10
3294.6334165449120519
 20
218.7130254964006895
 30
0.0
 40
0.1618175826746063
 50
79.4467471311815245
 51
135.4173198910758913
  0
ARC
  5
90DD
  8
0
 10
3294.251585645103205
 20
220.4526518929677934
 30
0.0
 40
1.647747470854652
 50
268.7273336954385741
 51
279.3104276093866929
  0
LINE
  5
90DE
  8
0
 10
3294.2149885298049412
 20
218.8053108903640123
 30
0.0
 11
3291.9127145668498997
 21
218.8053108903640123
 31
0.0
  0
ARC
  5
90DF
  8
0
 10
3291.904554247147189
 20
215.4610751225141883
 30
0.0
 40
3.3442457238940642
 50
89.8601919891538614
 51
90.3318083731185766
  0
ARC
  5
90E0
  8
0
 10
3291.8886499477080179
 20
218.6753108903641021
 30
0.0
 40
0.1299999999999293
 50
91.526282787698463
 51
106.2296459102462052
  0
LINE
  5
90E1
  8
0
 10
3316.753574670216949
 20
218.2394105952743928
 30
0.0
 11
3291.2435316736009554
 21
218.2394105952743928
 31
0.0
  0
LINE
  5
90E2
  8
0
 10
3317.101347901617828
 20
216.6694271382131092
 30
0.0
 11
3290.8957584422000764
 21
216.6694271382131092
 31
0.0
  0
ARC
  5
90E3
  8
0
 10
3303.8936494786330513
 20
197.4511081267878012
 30
0.0
 40
23.7058161398462808
 50
80.9372445979177542
 51
89.7464521591843436
  0
ARC
  5
90E4
  8
0
 10
3304.5077451358120015
 20
202.6061147830212974
 30
0.0
 40
18.5195734230387004
 50
70.9269224356743138
 51
80.3012479942236439
  0
ARC
  5
90E5
  8
0
 10
3315.5451371170797756
 20
235.0283253001854007
 30
0.0
 40
15.7303191104783
 50
251.5215986464355922
 51
257.7360698737488747
  0
ARC
  5
90E6
  8
0
 10
3312.1937239096228041
 20
219.6092474642597097
 30
0.0
 40
0.0487798441656446
 50
59.6529815702377135
 51
78.1062092879413825
  0
ARC
  5
90E7
  8
0
 10
3320.246445672291884
 20
233.7373264616427093
 30
0.0
 40
16.2131096844244098
 50
240.3197268435596072
 51
240.8132848965265111
  0
ARC
  5
90E8
  8
0
 10
3315.2088894865519251
 20
224.8716251208900871
 30
0.0
 40
6.0169015567084987
 50
241.5231103490604028
 51
250.0566020263190978
  0
ARC
  5
90E9
  8
0
 10
3317.8553148845858232
 20
232.6830872343595047
 30
0.0
 40
14.2636788414600097
 50
250.7664274788305079
 51
251.5197793687790124
  0
ARC
  5
90EA
  8
0
 10
3310.6054241143901891
 20
210.8303558594712115
 30
0.0
 40
8.7603734439534584
 50
66.9417818711058601
 51
71.8519145538886619
  0
ARC
  5
90EB
  8
0
 10
3314.1498047609720743
 20
219.1224648666249948
 30
0.0
 40
0.2578235237025103
 50
243.9466706422938103
 51
273.5336824860892762
  0
ARC
  5
90EC
  8
0
 10
3314.3146144571510376
 20
216.9940679029024011
 30
0.0
 40
1.8769805213016
 50
86.9709546882673976
 51
94.5506002513330088
  0
ARC
  5
90ED
  8
0
 10
3314.400074336444959
 20
218.1080628504799961
 30
0.0
 40
0.7604870400505908
 50
66.4689831973910117
 51
88.9659740668620884
  0
ARC
  5
90EE
  8
0
 10
3311.2758354260759006
 20
228.5516696067060991
 30
0.0
 40
9.7472021770192008
 50
271.0908851374408073
 51
276.2109056450387925
  0
ARC
  5
90EF
  8
0
 10
3312.8584501012451256
 20
200.14761825754249
 30
0.0
 40
18.7215107082082284
 50
91.1337615598927044
 51
91.6163596892278491
  0
LINE
  5
90F0
  8
0
 10
3312.4880154165089152
 20
218.8654637890639947
 30
0.0
 11
3313.1748959427959562
 21
218.8727543950394931
 31
0.0
  0
LINE
  5
90F1
  8
0
 10
3313.1748959427959562
 20
218.8727543950394931
 30
0.0
 11
3313.3340530185091666
 21
218.8721059518640004
 31
0.0
  0
ARC
  5
90F2
  8
0
 10
3313.3636897989040335
 20
218.7130254964006895
 30
0.0
 40
0.1618175826746063
 50
44.58268010892413
 51
100.5532528688185039
  0
ARC
  5
90F3
  8
0
 10
3313.7455206987137899
 20
220.4526518929677934
 30
0.0
 40
1.647747470854652
 50
260.6895723906133071
 51
271.2726663045614259
  0
LINE
  5
90F4
  8
0
 10
3313.7821178140120537
 20
218.8053108903640123
 30
0.0
 11
3316.0843917769680047
 21
218.8053108903640123
 31
0.0
  0
ARC
  5
90F5
  8
0
 10
3316.0925520966698059
 20
215.4610751225141883
 30
0.0
 40
3.3442457238940642
 50
89.6681916268814092
 51
90.1398080108461244
  0
ARC
  5
90F6
  8
0
 10
3316.1061091141427823
 20
218.6495291904847988
 30
0.0
 40
0.1558439122730057
 50
75.5865334143340561
 51
87.8635045958777852
  0
ARC
  5
90F7
  8
0
 10
3303.4640148022608628
 20
202.3481248527698995
 30
0.0
 40
18.9770439317989208
 50
91.5121448783965548
 51
108.4366112581625003
  0
ARC
  5
90F8
  8
0
 10
3292.0609037740059648
 20
236.7857082574674052
 30
0.0
 40
17.2994494880053082
 50
282.010790731331781
 51
288.1940673115894924
  0
ARC
  5
90F9
  8
0
 10
3304.5333924892870527
 20
202.3498503876531913
 30
0.0
 40
18.9753110578949098
 50
71.5626096489662729
 51
88.4886260219737579
  0
ARC
  5
90FA
  8
0
 10
3315.9362002645389111
 20
236.7857082574674052
 30
0.0
 40
17.2994494880053082
 50
251.8059326884105076
 51
257.9892092686681053
  0
ARC
  5
90FB
  8
0
 10
3299.3791012540900738
 20
184.8676320171616112
 30
0.0
 40
1.0066037495172471
 50
133.5514589439007125
 51
182.574498877514003
  0
ARC
  5
90FC
  8
0
 10
3299.3757854495861466
 20
184.8711198670252998
 30
0.0
 40
1.001791301472575
 50
113.1056244085879996
 51
133.5514589439007125
  0
ARC
  5
90FD
  8
0
 10
3298.9316406273392204
 20
185.9121196520339083
 30
0.0
 40
0.1299971838536977
 50
293.105624408588028
 51
0.085276170326719
  0
ARC
  5
90FE
  8
0
 10
3336.2518103209831679
 20
185.9676651655850037
 30
0.0
 40
37.1902138453787074
 50
179.9305611334212074
 51
180.0852761703266935
  0
ARC
  5
90FF
  8
0
 10
3299.1916219100671697
 20
186.012576808689488
 30
0.0
 40
0.129998221267018
 50
132.0651370225837979
 51
179.9292446740321054
  0
ARC
  5
9100
  8
0
 10
3298.4429563577618865
 20
186.8403968585344899
 30
0.0
 40
0.9861497649599378
 50
312.1335969650497759
 51
352.3143941918605719
  0
ARC
  5
9101
  8
0
 10
3299.5531380425331918
 20
186.6893983816937066
 30
0.0
 40
0.1342581778125212
 50
96.6902064080547063
 51
171.8153286914972
  0
ARC
  5
9102
  8
0
 10
3299.6755776517861705
 20
185.6880995856548111
 30
0.0
 40
1.1430137748838189
 50
87.5438199014619158
 51
96.9385151244397321
  0
ARC
  5
9103
  8
0
 10
3299.6715283204071056
 20
186.948912150408205
 30
0.0
 40
0.1301445876610598
 50
294.0476977899597841
 51
359.7787915878720924
  0
ARC
  5
9104
  8
0
 10
3299.9517695511681268
 20
186.979032819498002
 30
0.0
 40
0.1531896525934089
 50
123.9376010582626009
 51
191.5313100473046006
  0
ARC
  5
9105
  8
0
 10
3299.3027866267848367
 20
187.9517344087180106
 30
0.0
 40
1.016139402892672
 50
303.6769212709074282
 51
359.1034871415963039
  0
LINE
  5
9106
  8
0
 10
3300.3188016406088536
 20
187.9358354214639917
 30
0.0
 11
3300.7515238563960338
 21
210.6396878033766882
 31
0.0
  0
ARC
  5
9107
  8
0
 10
3308.6180050767370631
 20
184.8676310557331988
 30
0.0
 40
1.0066037495172471
 50
357.4255559021839872
 51
46.4485291313511297
  0
ARC
  5
9108
  8
0
 10
3308.6213209783491038
 20
184.8711193479614963
 30
0.0
 40
1.001791301472575
 50
46.4485291313511297
 51
66.8943636666606238
  0
ARC
  5
9109
  8
0
 10
3309.0654659208739758
 20
185.9121185974771038
 30
0.0
 40
0.1299971838536977
 50
179.9147119049262074
 51
246.8943636666606096
  0
ARC
  5
910A
  8
0
 10
3271.7452962387910702
 20
185.9676718783292984
 30
0.0
 40
37.1902138453787074
 50
359.9147119049262074
 51
0.0694269418328563
  0
ARC
  5
910B
  8
0
 10
3308.8054897115630411
 20
186.0125768840889009
 30
0.0
 40
0.1299931674360745
 50
0.0702719608674715
 51
47.9372817002635827
  0
ARC
  5
910C
  8
0
 10
3309.5541573257078198
 20
186.8403979221585871
 30
0.0
 40
0.9861569415388798
 50
187.685667759786412
 51
227.8660342367593046
  0
ARC
  5
910D
  8
0
 10
3308.4439668290328882
 20
186.6893965993639881
 30
0.0
 40
0.1342601195301283
 50
8.184909745529076
 51
83.3092581962387868
  0
ARC
  5
910E
  8
0
 10
3308.3222896270808633
 20
185.7074039846947073
 30
0.0
 40
1.1237599362852371
 50
82.9810961040208355
 51
92.5371034765616542
  0
ARC
  5
910F
  8
0
 10
3308.3257677556789531
 20
186.9490345984337978
 30
0.0
 40
0.1303344322169789
 50
180.275099565334898
 51
245.8983872073542898
  0
ARC
  5
9110
  8
0
 10
3308.0539594119650246
 20
186.9827208219936949
 30
0.0
 40
0.1455768065613222
 50
346.3672913799234152
 51
59.5623524861332569
  0
ARC
  5
9111
  8
0
 10
3308.694008690642022
 20
187.9515641048205055
 30
0.0
 40
1.0158251497413
 50
180.8872265783840021
 51
236.1184474907485082
  0
LINE
  5
9112
  8
0
 10
3307.6783053287917937
 20
187.9358346556115862
 30
0.0
 11
3307.2455870682319983
 21
210.6397275299839862
 31
0.0
  0
LINE
  5
9113
  8
0
 10
3307.2448875199138456
 20
210.6396878033766882
 30
0.0
 11
3300.7522188239040588
 21
210.6396878033766882
 31
0.0
  0
LINE
  5
9114
  8
0
 10
3298.3735135090578297
 20
184.8224170242640128
 30
0.0
 11
3309.6235928649980451
 21
184.8224170242640128
 31
0.0
  0
ARC
  5
9115
  8
0
 10
3296.6602660233288589
 20
218.7226116032759933
 30
0.0
 40
0.0875792214847938
 50
107.320438459251406
 51
173.8949425422185868
  0
ARC
  5
9116
  8
0
 10
3295.6873010653280289
 20
218.9202789712238939
 30
0.0
 40
0.9056846048056461
 50
311.2558872694999081
 51
347.9967183970524047
  0
ARC
  5
9117
  8
0
 10
3296.4542413676322212
 20
218.0719081057659139
 30
0.0
 40
0.2384510479229206
 50
135.3752389308027944
 51
182.2954695223538977
  0
ARC
  5
9118
  8
0
 10
3295.9656722628469652
 20
218.0553200784700891
 30
0.0
 40
0.2504083062542421
 50
319.1784794620822936
 51
1.6104352039086121
  0
ARC
  5
9119
  8
0
 10
3296.903376754123201
 20
217.1821752519302891
 30
0.0
 40
1.0310853907727351
 50
136.5230276717286984
 51
170.8498820630217097
  0
ARC
  5
911A
  8
0
 10
3296.2340608542758673
 20
217.2591766471373944
 30
0.0
 40
0.3593310457854921
 50
165.9944899298986059
 51
219.5926475860501057
  0
ARC
  5
911B
  8
0
 10
3295.7508120307338686
 20
216.8674973490238074
 30
0.0
 40
0.2627573767680367
 50
358.0904751257501175
 51
38.2491942159079983
  0
ARC
  5
911C
  8
0
 10
3296.2385488216750673
 20
216.8424747614280932
 30
0.0
 40
0.2257122791143308
 50
175.8670899758367057
 51
230.0427299408661952
  0
ARC
  5
911D
  8
0
 10
3295.6865364216059788
 20
216.0377859367225994
 30
0.0
 40
0.7514706963797751
 50
15.4543701418802595
 51
57.2019513234420671
  0
ARC
  5
911E
  8
0
 10
3296.7104728568619976
 20
216.4589105071133872
 30
0.0
 40
0.3722497910045345
 50
216.3960737719498866
 51
225.7454252162947057
  0
ARC
  5
911F
  8
0
 10
3296.2891510013578227
 20
215.8021492069624969
 30
0.0
 40
0.4222630725238404
 50
13.8158806885806698
 51
67.5065895596409433
  0
ARC
  5
9120
  8
0
 10
3307.7976729146939761
 20
219.5551358740223975
 30
0.0
 40
11.6839358199670205
 50
198.2147021412064873
 51
213.6152995806845922
  0
ARC
  5
9121
  8
0
 10
3302.4262805749799554
 20
215.6249769526546913
 30
0.0
 40
5.0438774019397767
 50
210.2139318180697103
 51
261.2585812124445965
  0
ARC
  5
9122
  8
0
 10
3301.6983969787329443
 20
220.9842351993295892
 30
0.0
 40
10.3446196419513807
 50
264.7670763684217832
 51
269.7858650687674071
  0
ARC
  5
9123
  8
0
 10
3301.6733672736299923
 20
217.6164269244337959
 30
0.0
 40
6.994261786152884
 50
230.3023624737186026
 51
262.4544284301026096
  0
ARC
  5
9124
  8
0
 10
3304.6195528899152123
 20
221.0691901840955893
 30
0.0
 40
11.5329061289301205
 50
206.4432668028152023
 51
229.996991435428896
  0
ARC
  5
9125
  8
0
 10
3293.8706319906691533
 20
215.7387121537149142
 30
0.0
 40
0.4653455175663767
 50
24.739354336911191
 51
78.7845333396538052
  0
ARC
  5
9126
  8
0
 10
3293.9802330978618556
 20
216.2804846478547063
 30
0.0
 40
0.087423942256445
 50
206.7826167104248043
 51
257.3859919120762925
  0
ARC
  5
9127
  8
0
 10
3293.157440365965158
 20
215.9266371097052115
 30
0.0
 40
0.8084119256834309
 50
22.8908662637024811
 51
66.7738264407630879
  0
ARC
  5
9128
  8
0
 10
3293.5701154665930517
 20
216.8482133703543866
 30
0.0
 40
0.2018377394864622
 50
177.0098918054426065
 51
242.2853479495472868
  0
ARC
  5
9129
  8
0
 10
3293.1523289122201277
 20
216.8649956727950041
 30
0.0
 40
0.2163140236746649
 50
358.3433239435148039
 51
51.5769201709932972
  0
ARC
  5
912A
  8
0
 10
3293.4770916210782161
 20
217.2587571516741036
 30
0.0
 40
0.2941646549496518
 50
162.726781490477606
 51
229.6824362897561969
  0
ARC
  5
912B
  8
0
 10
3294.1276227560160805
 20
217.1197074731310011
 30
0.0
 40
0.95854822556087
 50
126.3607697555135019
 51
166.3384627107205063
  0
ARC
  5
912C
  8
0
 10
3293.4265695039448474
 20
218.0602947975314123
 30
0.0
 40
0.2146498507144202
 50
308.2067116305616992
 51
0.550580333037466
  0
ARC
  5
912D
  8
0
 10
3293.8498036504029187
 20
218.0661993353307935
 30
0.0
 40
0.2086295834491633
 50
123.8772729783792954
 51
181.0551589463289019
  0
ARC
  5
912E
  8
0
 10
3293.2717124512669216
 20
219.0036652257259107
 30
0.0
 40
0.8929402651470632
 50
301.1423002603984855
 51
342.282520458051124
  0
ARC
  5
912F
  8
0
 10
3294.2226943753162232
 20
218.7003118638552905
 30
0.0
 40
0.1052538717788304
 50
94.0383907718794916
 51
162.5228043216592084
  0
ARC
  5
9130
  8
0
 10
3311.3368474182211685
 20
218.7226051572446863
 30
0.0
 40
0.0875792214847938
 50
6.1050071285690963
 51
72.6795112115550666
  0
ARC
  5
9131
  8
0
 10
3312.3098125498540867
 20
218.9202716705298997
 30
0.0
 40
0.9056846048056461
 50
192.0032312737353095
 51
228.7440624012936894
  0
ARC
  5
9132
  8
0
 10
3311.5428715023340374
 20
218.071901478760708
 30
0.0
 40
0.2384510479229206
 50
357.704480148434584
 51
44.6247107399887213
  0
ARC
  5
9133
  8
0
 10
3312.0314405925469146
 20
218.0553130223005951
 30
0.0
 40
0.2504083062542421
 50
178.3895144668778983
 51
220.8214702087117871
  0
ARC
  5
9134
  8
0
 10
3311.0937353342919778
 20
217.1821690194506118
 30
0.0
 40
1.0310853907727351
 50
9.1500676077573502
 51
43.4769219990523084
  0
ARC
  5
9135
  8
0
 10
3311.7630513017770681
 20
217.2591698267235927
 30
0.0
 40
0.3593310457854921
 50
320.4073020847573048
 51
14.00545974088039
  0
ARC
  5
9136
  8
0
 10
3312.2462997812631329
 20
216.8674901041192129
 30
0.0
 40
0.2627573767680367
 50
141.750755454883091
 51
181.9094745450385062
  0
ARC
  5
9137
  8
0
 10
3311.7585629683430852
 20
216.8424679449566952
 30
0.0
 40
0.2257122791143308
 50
309.9572197299231107
 51
4.1328596949440293
  0
ARC
  5
9138
  8
0
 10
3312.3105746615651697
 20
216.0377786353581087
 30
0.0
 40
0.7514706963797751
 50
122.7979983473277059
 51
164.5455795289045113
  0
ARC
  5
9139
  8
0
 10
3311.2866385962288405
 20
216.4589041051852121
 30
0.0
 40
0.3722497910045345
 50
314.2545244544958223
 51
323.6038758988299264
  0
ARC
  5
913A
  8
0
 10
3311.7079598748277931
 20
215.802142434941004
 30
0.0
 40
0.4222630725238404
 50
112.4933601111364965
 51
166.1840689821983972
  0
ARC
  5
913B
  8
0
 10
3300.1994412581589131
 20
219.5551392112054998
 30
0.0
 40
11.6839358199670205
 50
326.3846500901166223
 51
341.7852475295730983
  0
ARC
  5
913C
  8
0
 10
3305.570837950744135
 20
215.6249682994451007
 30
0.0
 40
5.043866997542092
 50
278.7412969263857008
 51
329.7860446202765843
  0
ARC
  5
913D
  8
0
 10
3306.3237451962381783
 20
217.6164248819634963
 30
0.0
 40
6.994261786152884
 50
277.5455212406724854
 51
309.6975871970436742
  0
ARC
  5
913E
  8
0
 10
3303.3775626128967815
 20
221.0691907295841929
 30
0.0
 40
11.5329061289301205
 50
310.0029582353695901
 51
333.5566828679883997
  0
ARC
  5
913F
  8
0
 10
3314.1264788297921768
 20
215.7387032572410135
 30
0.0
 40
0.4653455175663767
 50
101.2154163311333974
 51
155.2605953338716915
  0
ARC
  5
9140
  8
0
 10
3314.0168781984971247
 20
216.2804758476553104
 30
0.0
 40
0.087423942256445
 50
282.6139577587082954
 51
333.2173329603609773
  0
ARC
  5
9141
  8
0
 10
3314.8396706195708248
 20
215.9266275867562115
 30
0.0
 40
0.8084119256834309
 50
113.226123230017393
 51
157.109083407101906
  0
ARC
  5
9142
  8
0
 10
3314.4269963284650657
 20
216.8482042099032014
 30
0.0
 40
0.2018377394864622
 50
297.7146017212382958
 51
2.9900578653447178
  0
ARC
  5
9143
  8
0
 10
3314.8447828975799894
 20
216.8649861453558003
 30
0.0
 40
0.2163140236746649
 50
128.423029499783496
 51
181.6566257272733935
  0
ARC
  5
9144
  8
0
 10
3314.5200205346059192
 20
217.2587479095097081
 30
0.0
 40
0.2941646549496518
 50
310.3175133810319153
 51
17.2731681803024593
  0
ARC
  5
9145
  8
0
 10
3313.8694892775260996
 20
217.1196988023999097
 30
0.0
 40
0.95854822556087
 50
13.6614869600809392
 51
53.6391799152774169
  0
ARC
  5
9146
  8
0
 10
3314.5705433558191544
 20
218.0602855109873985
 30
0.0
 40
0.2146498507144202
 50
179.4493693377494026
 51
231.7932380401963997
  0
ARC
  5
9147
  8
0
 10
3314.1473092145461123
 20
218.06619042056019
 30
0.0
 40
0.2086295834491633
 50
358.9447907244597786
 51
56.1226766924041911
  0
ARC
  5
9148
  8
0
 10
3314.7254012371640783
 20
219.003655803153606
 30
0.0
 40
0.8929402651470632
 50
197.7174292127521085
 51
238.8576494103757
  0
ARC
  5
9149
  8
0
 10
3313.7744190466451073
 20
218.7003032766355091
 30
0.0
 40
0.1052538717788304
 50
17.4771453491199509
 51
85.9615588989048831
  0
LINE
  5
914A
  8
0
 10
3291.5899044955817772
 20
216.1840863032639959
 30
0.0
 11
3316.4057611145581177
 21
216.1840863032639959
 31
0.0
  0
ARC
  5
914B
  8
0
 10
3305.8633509939181749
 20
217.6979705393891038
 30
0.0
 40
7.1494727118874053
 50
279.1608731268983092
 51
281.1208552171780184
  0
LINE
  5
914C
  8
0
 10
3306.3373708361518766
 20
210.6396878033766882
 30
0.0
 11
3306.4915535333088883
 21
187.9358354241639972
 31
0.0
  0
ARC
  5
914D
  8
0
 10
3307.5485853467171182
 20
187.8858886496844036
 30
0.0
 40
1.058211195763159
 50
177.2946770879217979
 51
227.9710986395311068
  0
ARC
  5
914E
  8
0
 10
3306.7178180902901659
 20
186.9780778514295037
 30
0.0
 40
0.1725719758810422
 50
359.9899558401559148
 51
44.8766839260460628
  0
ARC
  5
914F
  8
0
 10
3307.0330372974049169
 20
186.9500839181201002
 30
0.0
 40
0.1453623086626122
 50
168.908738945552102
 51
238.3868259769407132
  0
LINE
  5
9150
  8
0
 10
3306.9568410310080253
 20
186.8262924411639858
 30
0.0
 11
3307.0467795345089144
 21
186.8247282416639905
 31
0.0
  0
ARC
  5
9151
  8
0
 10
3307.0100278163531584
 20
186.7180534519418984
 30
0.0
 40
0.1128281859716985
 50
357.1095549778592044
 51
70.9900885874740197
  0
ARC
  5
9152
  8
0
 10
3308.4644370234482267
 20
186.8073087060188868
 30
0.0
 40
1.345079668119084
 50
184.0476875846104861
 51
211.2797311411572991
  0
LINE
  5
9153
  8
0
 10
3299.5374968342771353
 20
186.8227423388640034
 30
0.0
 11
3308.4596095095412238
 21
186.8227423388640034
 31
0.0
  0
LINE
  5
9154
  8
0
 10
3299.8693976649678916
 20
187.1082343760135132
 30
0.0
 11
3308.1277086788491033
 21
187.1082343760135132
 31
0.0
  0
LINE
  5
9155
  8
0
 10
3298.9579250071651586
 20
185.7816019268416881
 30
0.0
 11
3309.0391813366532006
 21
185.7816019268416881
 31
0.0
  0
LINE
  5
9156
  8
0
 10
3299.1045285310287909
 20
186.1090853614639968
 30
0.0
 11
3308.892577812788204
 21
186.1090853614639968
 31
0.0
  0
ARC
  5
9157
  8
0
 10
3307.1548091264107825
 20
186.0141617885859944
 30
0.0
 40
0.1860126874439122
 50
359.5748281991404269
 51
30.6252824304579896
  0
ARC
  5
9158
  8
0
 10
3309.6610785279331139
 20
185.9955633046535866
 30
0.0
 40
2.3203257207944219
 50
179.5748281991421038
 51
182.0530571504513944
  0
ARC
  5
9159
  8
0
 10
3307.5234827986141681
 20
185.9189348777908037
 30
0.0
 40
0.1813569464059518
 50
182.0530571504513944
 51
229.222555157745802
  0
ARC
  5
915A
  8
0
 10
3306.514466101933067
 20
184.9089930815981973
 30
0.0
 40
1.2468192510373111
 50
356.0183197340668926
 51
44.4164113428119123
  0
LINE
  5
915B
  8
0
 10
3307.0015973980548551
 20
210.6396878033766882
 30
0.0
 11
3307.0851266690187913
 21
187.9358353051642894
 31
0.0
  0
ARC
  5
915C
  8
0
 10
3308.1334103263939141
 20
187.9396920237396955
 30
0.0
 40
1.048290751937172
 50
180.210794758260505
 51
232.4813899701019864
  0
ARC
  5
915D
  8
0
 10
3307.4819979478720597
 20
186.9648055135160121
 30
0.0
 40
0.1440152937439057
 50
348.3440052887074216
 51
84.8276327264725154
  0
ARC
  5
915E
  8
0
 10
3307.7873519125259918
 20
186.9720897810572922
 30
0.0
 40
0.1682879175416748
 50
192.4847428513413945
 51
277.8093443967881058
  0
ARC
  5
915F
  8
0
 10
3307.7558917999867845
 20
186.6930726242154037
 30
0.0
 40
0.1247414186221097
 50
1.291012772955169
 51
64.1820147256648852
  0
ARC
  5
9160
  8
0
 10
3309.0940457842298201
 20
186.8000311698206986
 30
0.0
 40
1.2179054636358779
 50
184.9055867291509969
 51
214.5637621190427922
  0
ARC
  5
9161
  8
0
 10
3307.7705249522291524
 20
185.9628496223139962
 30
0.0
 40
0.3523596063489246
 50
351.8488804386253719
 51
24.5204786375485
  0
ARC
  5
9162
  8
0
 10
3308.2584723389882129
 20
185.9028403750569112
 30
0.0
 40
0.139509945504304
 50
175.8689045449704906
 51
240.346214002757506
  0
ARC
  5
9163
  8
0
 10
3307.4352646611000637
 20
184.9188828241138935
 30
0.0
 40
1.1458960710621551
 50
355.1708175023786112
 51
48.8402341693143498
  0
ARC
  5
9164
  8
0
 10
3300.4485190775230876
 20
187.8858886496844036
 30
0.0
 40
1.058211195763159
 50
312.0289013604689217
 51
2.7053229120782141
  0
ARC
  5
9165
  8
0
 10
3301.2792863339509495
 20
186.9780778514295037
 30
0.0
 40
0.1725719758810422
 50
135.1233160739539017
 51
180.0100441598424084
  0
ARC
  5
9166
  8
0
 10
3300.9640671268348342
 20
186.9500839181201002
 30
0.0
 40
0.1453623086626122
 50
301.6131740230591731
 51
11.0912610544478696
  0
LINE
  5
9167
  8
0
 10
3301.0402633932321805
 20
186.8262924411639858
 30
0.0
 11
3300.950324889732201
 21
186.8247282416639905
 31
0.0
  0
ARC
  5
9168
  8
0
 10
3300.9870766078888664
 20
186.7180534519418984
 30
0.0
 40
0.1128281859716985
 50
109.0099114125259945
 51
182.8904450221407956
  0
ARC
  5
9169
  8
0
 10
3299.5326674007928887
 20
186.8073087060188868
 30
0.0
 40
1.345079668119084
 50
328.7202688588428146
 51
355.9523124153828917
  0
ARC
  5
916A
  8
0
 10
3300.8422952978298781
 20
186.0141617885859944
 30
0.0
 40
0.1860126874439122
 50
149.374717569542014
 51
180.4251718008578962
  0
ARC
  5
916B
  8
0
 10
3298.3360258963080014
 20
185.9955633046535866
 30
0.0
 40
2.3203257207944219
 50
357.9469428495485772
 51
0.4251718008579381
  0
ARC
  5
916C
  8
0
 10
3300.4736216256269472
 20
185.9189348777908037
 30
0.0
 40
0.1813569464059518
 50
310.7774448422542264
 51
357.9469428495485772
  0
ARC
  5
916D
  8
0
 10
3301.4826383223071389
 20
184.9089930815981973
 30
0.0
 40
1.2468192510373111
 50
135.5835886571881019
 51
183.9816802659331074
  0
ARC
  5
916E
  8
0
 10
3299.8636940978472012
 20
187.9396920237396955
 30
0.0
 40
1.048290751937172
 50
307.5186100298980136
 51
359.7892052417395234
  0
ARC
  5
916F
  8
0
 10
3300.5151064763690556
 20
186.9648055135160121
 30
0.0
 40
0.1440152937439057
 50
95.1723672735274988
 51
191.6559947112924931
  0
ARC
  5
9170
  8
0
 10
3300.2097525117142141
 20
186.9720897810572922
 30
0.0
 40
0.1682879175416748
 50
262.1906556032118942
 51
347.5152571486585771
  0
ARC
  5
9171
  8
0
 10
3300.2412126242538761
 20
186.6930726242154037
 30
0.0
 40
0.1247414186221097
 50
115.8179852743351006
 51
178.708987227044787
  0
ARC
  5
9172
  8
0
 10
3298.9030586400108405
 20
186.8000311698206986
 30
0.0
 40
1.2179054636358779
 50
325.4362378809572078
 51
355.0944132708489747
  0
ARC
  5
9173
  8
0
 10
3300.2265794720119629
 20
185.9628496223139962
 30
0.0
 40
0.3523596063489246
 50
155.4795213624499866
 51
188.151119561374486
  0
ARC
  5
9174
  8
0
 10
3299.7386320852529025
 20
185.9028403750569112
 30
0.0
 40
0.139509945504304
 50
299.6537859972423803
 51
4.1310954550294143
  0
ARC
  5
9175
  8
0
 10
3300.5618397631410517
 20
184.9188828241138935
 30
0.0
 40
1.1458960710621551
 50
131.1597658306855863
 51
184.829182497619712
  0
LINE
  5
9176
  8
0
 10
3301.6597352105268328
 20
210.6396878033766882
 30
0.0
 11
3301.5055527995600642
 21
187.9358353911839004
 31
0.0
  0
LINE
  5
9177
  8
0
 10
3300.9955086344630217
 20
210.6396877636491922
 30
0.0
 11
3300.9119796638501612
 21
187.9358352643317005
 31
0.0
  0
ARC
  5
9178
  8
0
 10
3305.8918488051649547
 20
259.6385715684165802
 30
0.0
 40
49.2677739582257601
 50
260.7386373172295748
 51
264.0111786023002765
  0
ARC
  5
9179
  8
0
 10
3297.9508238787047958
 20
210.9397257364796872
 30
0.0
 40
0.0742716240705327
 50
80.7386373172296175
 51
116.5987683812403048
  0
ARC
  5
917A
  8
0
 10
3297.7385682832168641
 20
211.3636131247095875
 30
0.0
 40
0.3997884519918123
 50
279.9619896575422899
 51
296.5987683812404043
  0
ARC
  5
917B
  8
0
 10
3297.7535857418070009
 20
211.1372715941222964
 30
0.0
 40
0.1759566676263278
 50
218.9201209207965064
 51
287.9213618582991216
  0
ARC
  5
917C
  8
0
 10
3297.63142906360099
 20
211.2271254592290859
 30
0.0
 40
0.2009377141545116
 50
238.7083880467660038
 51
265.7927763201759035
  0
ARC
  5
917D
  8
0
 10
3303.6803476972258977
 20
221.0457385165283881
 30
0.0
 40
11.7332617123626797
 50
235.9198278970048932
 51
238.3700633641311981
  0
ARC
  5
917E
  8
0
 10
3302.1052575386529497
 20
259.6385715684165802
 30
0.0
 40
49.2677739582257601
 50
275.9888213977258147
 51
279.2613626827442204
  0
ARC
  5
917F
  8
0
 10
3310.0462824651121991
 20
210.9397257364796872
 30
0.0
 40
0.0742716240705327
 50
63.4012316187596099
 51
99.2613626827441493
  0
ARC
  5
9180
  8
0
 10
3310.2585380606001308
 20
211.3636131247095875
 30
0.0
 40
0.3997884519918123
 50
243.4012316187595957
 51
260.0380103424577101
  0
ARC
  5
9181
  8
0
 10
3310.2435206020109035
 20
211.1372715941222964
 30
0.0
 40
0.1759566676263278
 50
252.0786381416737072
 51
321.0798790791668011
  0
ARC
  5
9182
  8
0
 10
3310.3656772802160049
 20
211.2271254592290859
 30
0.0
 40
0.2009377141545116
 50
274.2072236797980054
 51
301.2916119532341099
  0
ARC
  5
9183
  8
0
 10
3302.5918304916572197
 20
348.720839152285123
 30
0.0
 40
127.4028204033826057
 50
270.167027711110677
 51
270.632646201040302
  0
ARC
  5
9184
  8
0
 10
3305.4052758505167731
 20
348.7208391523033129
 30
0.0
 40
127.4028204033826057
 50
269.3673537996892264
 51
269.832972289644772
  0
ENDSEC
  0
EOF
