  0
SECTION
  2
HEADER
  9
$ACADVER
  1
AC1009
  9
$INSBASE
 10
3309.8595895926900994
 20
184.7089032803887108
 30
0.0
  9
$EXTMIN
 10
3290.2713349860919152
 20
184.6905234322209139
 30
-0.0000000349181948
  9
$EXTMAX
 10
3309.9681110438559699
 20
221.2147762400126112
 30
0.0000000814935746
  9
$LIMMIN
 10
0.0
 20
0.0
  9
$LIMMAX
 10
11.6929133858000007
 20
8.2677165353999982
  9
$ORTHOMODE
 70
     0
  9
$REGENMODE
 70
     1
  9
$FILLMODE
 70
     1
  9
$QTEXTMODE
 70
     0
  9
$MIRRTEXT
 70
     0
  9
$DRAGMODE
 70
     2
  9
$LTSCALE
 40
0.6431102362
  9
$OSMODE
 70
  4095
  9
$ATTMODE
 70
     1
  9
$TEXTSIZE
 40
0.2
  9
$TRACEWID
 40
0.05
  9
$TEXTSTYLE
  7
STANDARD
  9
$CLAYER
  8
0
  9
$CELTYPE
  6
BYLAYER
  9
$CECOLOR
 62
   256
  9
$DIMSCALE
 40
1.0
  9
$DIMASZ
 40
0.1875
  9
$DIMEXO
 40
0.0625
  9
$DIMDLI
 40
0.4443307087
  9
$DIMRND
 40
0.0
  9
$DIMDLE
 40
0.0
  9
$DIMEXE
 40
0.125
  9
$DIMTP
 40
0.01
  9
$DIMTM
 40
0.01
  9
$DIMTXT
 40
2.0
  9
$DIMCEN
 40
0.1052362205
  9
$DIMTSZ
 40
0.0
  9
$DIMTOL
 70
     1
  9
$DIMLIM
 70
     0
  9
$DIMTIH
 70
     1
  9
$DIMTOH
 70
     1
  9
$DIMSE1
 70
     0
  9
$DIMSE2
 70
     0
  9
$DIMTAD
 70
     0
  9
$DIMZIN
 70
     0
  9
$DIMBLK
  1

  9
$DIMASO
 70
     1
  9
$DIMSHO
 70
     1
  9
$DIMPOST
  1
\X
  9
$DIMAPOST
  1

  9
$DIMALT
 70
     1
  9
$DIMALTD
 70
     2
  9
$DIMALTF
 40
25.3999999999999986
  9
$DIMLFAC
 40
1.0
  9
$DIMTOFL
 70
     0
  9
$DIMTVP
 40
0.0
  9
$DIMTIX
 70
     0
  9
$DIMSOXD
 70
     0
  9
$DIMSAH
 70
     0
  9
$DIMBLK1
  1

  9
$DIMBLK2
  1

  9
$DIMSTYLE
  2
STANDARD
  9
$DIMCLRD
 70
     0
  9
$DIMCLRE
 70
     0
  9
$DIMCLRT
 70
     0
  9
$DIMTFAC
 40
1.0
  9
$DIMGAP
 40
0.09
  9
$LUNITS
 70
     2
  9
$LUPREC
 70
     4
  9
$SKETCHINC
 40
0.1
  9
$FILLETRAD
 40
0.0
  9
$AUNITS
 70
     0
  9
$AUPREC
 70
     0
  9
$MENU
  1
.
  9
$ELEVATION
 40
0.0
  9
$PELEVATION
 40
0.0
  9
$THICKNESS
 40
0.0
  9
$LIMCHECK
 70
     0
  9
$BLIPMODE
 70
     0
  9
$CHAMFERA
 40
0.0
  9
$CHAMFERB
 40
0.0
  9
$SKPOLY
 70
     0
  9
$TDCREATE
 40
2458060.468368056230247
  9
$TDUPDATE
 40
2459014.3873379630967975
  9
$TDINDWG
 40
0.5056783565
  9
$TDUSRTIMER
 40
0.5056783565
  9
$USRTIMER
 70
     1
  9
$ANGBASE
 50
0.0
  9
$ANGDIR
 70
     0
  9
$PDMODE
 70
     0
  9
$PDSIZE
 40
0.3125
  9
$PLINEWID
 40
0.0
  9
$COORDS
 70
     1
  9
$SPLFRAME
 70
     0
  9
$SPLINETYPE
 70
     6
  9
$SPLINESEGS
 70
     8
  9
$ATTDIA
 70
     1
  9
$ATTREQ
 70
     1
  9
$HANDLING
 70
     1
  9
$HANDSEED
  5
93C1
  9
$SURFTAB1
 70
     6
  9
$SURFTAB2
 70
     6
  9
$SURFTYPE
 70
     6
  9
$SURFU
 70
     6
  9
$SURFV
 70
     6
  9
$UCSNAME
  2

  9
$UCSORG
 10
0.0
 20
0.0
 30
0.0
  9
$UCSXDIR
 10
1.0
 20
0.0
 30
0.0
  9
$UCSYDIR
 10
0.0
 20
1.0
 30
0.0
  9
$PUCSNAME
  2

  9
$PUCSORG
 10
0.0
 20
0.0
 30
0.0
  9
$PUCSXDIR
 10
1.0
 20
0.0
 30
0.0
  9
$PUCSYDIR
 10
0.0
 20
1.0
 30
0.0
  9
$USERI1
 70
     0
  9
$USERI2
 70
     0
  9
$USERI3
 70
     0
  9
$USERI4
 70
     0
  9
$USERI5
 70
     0
  9
$USERR1
 40
0.0
  9
$USERR2
 40
0.0
  9
$USERR3
 40
0.0
  9
$USERR4
 40
0.0
  9
$USERR5
 40
0.0
  9
$WORLDVIEW
 70
     1
  9
$SHADEDGE
 70
     3
  9
$SHADEDIF
 70
    70
  9
$TILEMODE
 70
     1
  9
$MAXACTVP
 70
    64
  9
$PLIMCHECK
 70
     0
  9
$PEXTMIN
 10
1.0000000000000000E+20
 20
1.0000000000000000E+20
 30
1.0000000000000000E+20
  9
$PEXTMAX
 10
-1.0000000000000000E+20
 20
-1.0000000000000000E+20
 30
-1.0000000000000000E+20
  9
$PLIMMIN
 10
0.0
 20
0.0
  9
$PLIMMAX
 10
12.0
 20
9.0
  9
$UNITMODE
 70
     0
  9
$VISRETAIN
 70
     1
  9
$PLINEGEN
 70
     0
  9
$PSLTSCALE
 70
     1
  0
ENDSEC
  0
SECTION
  2
TABLES
  0
TABLE
  2
VPORT
 70
     1
  0
VPORT
  2
*ACTIVE
 70
     0
 10
0.0
 20
0.0
 11
1.0
 21
1.0
 12
-3.5733922194012839
 22
7.6911382602290237
 13
0.0
 23
0.0
 14
1.0
 24
1.0
 15
0.0
 25
0.0
 16
0.0
 26
0.0
 36
96.5995694866707311
 17
3303.693115234375
 27
195.2615115758877096
 37
0.0
 40
36.8281994330992006
 41
2.6486111111111108
 42
50.0
 43
0.0
 44
0.0
 50
0.0
 51
0.0
 71
     0
 72
   100
 73
     1
 74
     1
 75
     0
 76
     0
 77
     0
 78
     0
  0
ENDTAB
  0
TABLE
  2
LTYPE
 70
     2
  0
LTYPE
  2
CONTINUOUS
 70
     0
  3
Solid line
 72
    65
 73
     0
 40
0.0
  0
LTYPE
  2
PHANTOM2
 70
     0
  3
___ _ _ ___ _ _ ___ _ _ ___ _ _
 72
    65
 73
     6
 40
1.25
 49
0.625
 49
-0.125
 49
0.125
 49
-0.125
 49
0.125
 49
-0.125
  0
ENDTAB
  0
TABLE
  2
LAYER
 70
     2
  0
LAYER
  2
0
 70
     0
 62
   255
  6
CONTINUOUS
  0
LAYER
  2
DEFPOINTS
 70
     0
 62
     7
  6
CONTINUOUS
  0
ENDTAB
  0
TABLE
  2
STYLE
 70
     1
  0
STYLE
  2
STANDARD
 70
     0
 40
0.0
 41
0.8
 50
0.0
 71
     0
 42
0.2
  3
txt
  4

  0
ENDTAB
  0
TABLE
  2
VIEW
 70
     0
  0
ENDTAB
  0
TABLE
  2
UCS
 70
     0
  0
ENDTAB
  0
TABLE
  2
APPID
 70
     9
  0
APPID
  2
ACAD
 70
     0
  0
APPID
  2
ACAD_MLEADERVER
 70
     0
  0
APPID
  2
ACAD_EXEMPT_FROM_CAD_STANDARDS
 70
     0
  0
APPID
  2
ACAD_NAV_VCDISPLAY
 70
     0
  0
APPID
  2
ACAECLAYERSTANDARD
 70
     0
  0
APPID
  2
ACCMTRANSPARENCY
 70
     0
  0
APPID
  2
ACAD_DSTYLE_DIMJAG
 70
     0
  0
APPID
  2
ACAD_DSTYLE_DIMTALN
 70
     0
  0
APPID
  2
ACDBATTR
 70
     0
  0
ENDTAB
  0
TABLE
  2
DIMSTYLE
 70
     1
  0
DIMSTYLE
  2
STANDARD
 70
     0
  3

  4

  5

  6

  7

 40
1.0
 41
0.1875
 42
0.0625
 43
0.38
 44
0.125
 45
0.0
 46
0.0
 47
0.01
 48
0.01
140
0.15625
141
0.09
142
0.0
143
25.3999999999999986
144
1.0
145
0.0
146
1.0
147
0.09
 71
     1
 72
     0
 73
     1
 74
     1
 75
     0
 76
     0
 77
     0
 78
     4
170
     0
171
     2
172
     0
173
     0
174
     0
175
     0
176
     0
177
     0
178
     0
  0
ENDTAB
  0
ENDSEC
  0
SECTION
  2
BLOCKS
  0
BLOCK
  8
0
  2
$MODEL_SPACE
 70
     0
 10
0.0
 20
0.0
 30
0.0
  3
$MODEL_SPACE
  1

  0
ENDBLK
  5
21
  8
0
  0
BLOCK
 67
     1
  8
0
  2
$PAPER_SPACE
 70
     0
 10
0.0
 20
0.0
 30
0.0
  3
$PAPER_SPACE
  1

  0
ENDBLK
  5
1D
 67
     1
  8
0
  0
ENDSEC
  0
SECTION
  2
ENTITIES
  0
ATTDEF
  5
8B59
  8
DEFPOINTS
 10
3309.8552002438232194
 20
184.706666633157198
 30
0.0
 40
0.001
  1
K-2221T-8
  3

  2
MODELNUMBER
 70
     0
1001
ACDBATTR
1070
     0
1070
     1
  0
ATTDEF
  5
8B5A
  8
DEFPOINTS
 10
3309.8552002438232194
 20
184.7049999664905044
 30
0.0
 40
0.001
  1
PORTRAIT
  3

  2
TRADENAME
 70
     0
1001
ACDBATTR
1070
     0
1070
     1
  0
ATTDEF
  5
8B5B
  8
DEFPOINTS
 10
3309.8552002438232194
 20
184.7033332998238109
 30
0.0
 40
0.001
  1
BATHROOM SINK
  3

  2
PRODUCT
 70
     0
1001
ACDBATTR
1070
     0
1070
     1
  0
LINE
  5
91EE
  8
0
 10
3309.8595895926900994
 20
221.2122714304886983
 30
0.0
 11
3309.8595895926900994
 21
210.9634523290887103
 31
0.0
  0
ARC
  5
91EF
  8
0
 10
3307.9243353977408333
 20
227.0062333868291944
 30
0.0
 40
16.1590851494032108
 50
275.2130550770523882
 51
276.8784022677753001
  0
ARC
  5
91F0
  8
0
 10
3309.3835449097869059
 20
211.0090443484801881
 30
0.0
 40
0.095482443084448
 50
252.295226133927514
 51
275.4066899406819857
  0
ARC
  5
91F1
  8
0
 10
3307.9350556968038291
 20
225.1321447039674126
 30
0.0
 40
14.2847595709412101
 50
273.7604875913472142
 51
275.7027937006089928
  0
ARC
  5
91F2
  8
0
 10
3307.8801779363780042
 20
228.6778604232175951
 30
0.0
 40
17.8273268857457587
 50
267.3650929328600228
 51
273.1890769767518918
  0
ARC
  5
91F3
  8
0
 10
3306.3356722582079783
 20
202.6498048465188901
 30
0.0
 40
8.2514847498300679
 50
84.9596360999863265
 51
96.1703978237581651
  0
LINE
  5
91F4
  8
0
 10
3301.045251684060986
 20
210.5668187882527889
 30
0.0
 11
3299.6102475007901376
 21
210.5261740595013009
 31
0.0
  0
ARC
  5
91F5
  8
0
 10
3300.0482018727370814
 20
219.4231531984947026
 30
0.0
 40
8.9077517832274928
 50
204.4696077032027972
 51
267.1818862861161961
  0
ARC
  5
91F6
  8
0
 10
3291.39443772582581
 20
215.4848953044194104
 30
0.0
 40
0.6000086883461448
 50
24.4741906292795193
 51
77.4516515623720778
  0
ARC
  5
91F7
  8
0
 10
3291.5489193349831112
 20
216.1715185926800018
 30
0.0
 40
0.1037889794483707
 50
212.4526456570048083
 51
256.560942810163624
  0
ARC
  5
91F8
  8
0
 10
3290.6094206121661045
 20
215.5921498032714112
 30
0.0
 40
1.000000026081743
 50
31.5791120965375889
 51
74.5285465933359887
  0
ARC
  5
91F9
  8
0
 10
3290.9295304959441637
 20
216.7486660052433081
 30
0.0
 40
0.2000000002166398
 50
180.9849074494387935
 51
254.528546851247512
  0
ARC
  5
91FA
  8
0
 10
3290.5295895927602032
 20
216.7417903930906959
 30
0.0
 40
0.1999999998866146
 50
0.9849073488921398
 51
63.6122000413812572
  0
ARC
  5
91FB
  8
0
 10
3290.7295895926499725
 20
217.1449032803948
 30
0.0
 40
0.2499999999656849
 50
159.4580664351232997
 51
243.6122000477506901
  0
ARC
  5
91FC
  8
0
 10
3291.4319013143908705
 20
216.8817336670454097
 30
0.0
 40
0.999999999888382
 50
116.3139054479016039
 51
159.4580664380202961
  0
ARC
  5
91FD
  8
0
 10
3290.8999548126898844
 20
217.957388313788698
 30
0.0
 40
0.2000000000000021
 50
296.313905505192281
 51
357.5513993719013115
  0
ARC
  5
91FE
  8
0
 10
3291.2995895926760568
 20
217.9402990596055076
 30
0.0
 40
0.199999999979545
 50
111.8765305407731034
 51
177.5513993752990132
  0
ARC
  5
91FF
  8
0
 10
3290.852460362435977
 20
219.0538858106760927
 30
0.0
 40
1.0000000003104059
 50
291.8765305521721984
 51
334.184369474776588
  0
ARC
  5
9200
  8
0
 10
3291.872054834795108
 20
218.5596748974834895
 30
0.0
 40
0.13305918705764
 50
91.0199242407762483
 51
153.8058502731761052
  0
ARC
  5
9201
  8
0
 10
3303.7121823664160729
 20
-85450495.4562218636274338
 30
0.0
 40
85450714.148018941283226
 50
90.0000003638074304
 51
90.0000036993297243
  0
ARC
  5
9202
  8
0
 10
3303.217414267976892
 20
257.0476517140148758
 30
0.0
 40
38.3549685306225712
 50
269.9285535306585189
 51
273.2797750087834174
  0
ARC
  5
9203
  8
0
 10
3302.9809093249309626
 20
260.7839372808168719
 30
0.0
 40
42.0986711058384628
 50
273.3102048341835939
 51
278.1158188329665109
  0
ARC
  5
9204
  8
0
 10
3305.122759581181981
 20
219.9086838831237003
 30
0.0
 40
3.8850470840351852
 50
348.089831019154019
 51
353.8228644882278786
  0
ARC
  5
9205
  8
0
 10
3302.362380932655924
 20
221.1377754939748002
 30
0.0
 40
6.824620249566923
 50
346.0336747512961892
 51
350.6014252008691869
  0
ARC
  5
9206
  8
0
 10
3326.2940077055309303
 20
217.4252450425692018
 30
0.0
 40
17.3937460661923993
 50
167.9462065122006038
 51
171.4097262983202086
  0
ARC
  5
9207
  8
0
 10
3309.4732740044528327
 20
220.9838496395186951
 30
0.0
 40
0.2033517687354634
 50
94.0477904848549144
 51
158.7414713473879999
  0
LINE
  5
9208
  8
0
 10
3309.4589197042901105
 20
221.1866941511887035
 30
0.0
 11
3309.8595895926900994
 21
221.2122714304886983
 31
0.0
  0
LINE
  5
9209
  8
0
 10
3290.8761788502702075
 20
216.5559133087886892
 30
0.0
 11
3309.8595895926900994
 21
216.5559133087886892
 31
0.0
  0
LINE
  5
920A
  8
0
 10
3291.2250680543588714
 20
218.1258968513990908
 30
0.0
 11
3309.8595895926900994
 21
218.1258968513990908
 31
0.0
  0
ARC
  5
920B
  8
0
 10
3304.1198016403291149
 20
187.7831063499963022
 30
0.0
 40
22.8689912138476394
 50
91.5500092636756335
 51
91.7611224706894149
  0
ARC
  5
920C
  8
0
 10
3303.5001676339329606
 20
210.728098161303393
 30
0.0
 40
0.0843748566841605
 50
270.7062554911835832
 51
283.6377583990275184
  0
ARC
  5
920D
  8
0
 10
3303.7521053923460386
 20
209.5720354068826055
 30
0.0
 40
1.0988465271336041
 50
90.0042531584405054
 51
102.190937501101601
  0
ARC
  5
920E
  8
0
 10
3304.3991511291919778
 20
182.3730903644963917
 30
0.0
 40
28.3051900062659492
 50
89.3642911025904993
 51
91.3100386973966351
  0
ARC
  5
920F
  8
0
 10
3304.747392987017065
 20
211.4204814772157022
 30
0.0
 40
0.7447288441607839
 50
267.3681885263982849
 51
285.2319924730372236
  0
ARC
  5
9210
  8
0
 10
3304.8639161463761411
 20
210.9221185491207962
 30
0.0
 40
0.2339923455328151
 50
289.7676970592808061
 51
308.1328733944351939
  0
ARC
  5
9211
  8
0
 10
3305.4582248147739847
 20
209.7973150629453016
 30
0.0
 40
1.0427603014051361
 50
99.5823518553110318
 51
115.5548922020831952
  0
ARC
  5
9212
  8
0
 10
3305.924999000103071
 20
207.5624600613298014
 30
0.0
 40
3.3253056226921318
 50
98.2340976258362559
 51
101.102860970487896
  0
ARC
  5
9213
  8
0
 10
3292.9096898346570015
 20
460.5512470306305772
 30
0.0
 40
250.1167761871923005
 50
271.8639916912915169
 51
272.3527999662417756
  0
ARC
  5
9214
  8
0
 10
3303.1264725886480846
 20
208.3197952946605938
 30
0.0
 40
2.3260894906318699
 50
85.3559136775332234
 51
88.7399135702791568
  0
LINE
  5
9215
  8
0
 10
3303.4169793198389016
 20
210.6412952529883
 30
0.0
 11
3303.3148064560909916
 21
210.6382479408887036
 31
0.0
  0
ARC
  5
9216
  8
0
 10
3300.964359707686981
 20
206.1535035777941971
 30
0.0
 40
4.4140564856719982
 50
88.9499390591092691
 51
90.2857354211774918
  0
ARC
  5
9217
  8
0
 10
3301.0348883915589795
 20
211.8246150679443929
 30
0.0
 40
1.2580567623369501
 50
259.5021490550851126
 51
273.63150003817168
  0
ARC
  5
9218
  8
0
 10
3301.6898478056668864
 20
215.4900890208242004
 30
0.0
 40
4.9815668679502831
 50
232.9821112670769878
 51
259.7764375776638985
  0
ARC
  5
9219
  8
0
 10
3305.2893768717490275
 20
219.6388726313826112
 30
0.0
 40
10.4680632945119108
 50
201.3963330110267975
 51
230.9225757815478062
  0
ARC
  5
921A
  8
0
 10
3295.156351531376913
 20
215.6875009605275864
 30
0.0
 40
0.4084958259874881
 50
18.9182760125148199
 51
74.7746413763253344
  0
ARC
  5
921B
  8
0
 10
3295.2763955785749204
 20
216.1438105117645136
 30
0.0
 40
0.0634493900131295
 50
194.8236525249899955
 51
258.392505961932784
  0
ARC
  5
921C
  8
0
 10
3294.4829602511181292
 20
215.8490393745875053
 30
0.0
 40
0.7832945677162862
 50
20.8300953815050818
 51
64.4802338742484125
  0
ARC
  5
921D
  8
0
 10
3294.9253782340770158
 20
216.732534760408214
 30
0.0
 40
0.2054536117808841
 50
176.4581039443442023
 51
239.2791717048501994
  0
ARC
  5
921E
  8
0
 10
3294.4966633752178495
 20
216.7529368865270953
 30
0.0
 40
0.2237865234592483
 50
358.0257471170812096
 51
48.6577745960614081
  0
ARC
  5
921F
  8
0
 10
3294.8575823065848454
 20
217.1454975696256895
 30
0.0
 40
0.3095658120644452
 50
163.6529237294703023
 51
226.4988396162387971
  0
ARC
  5
9220
  8
0
 10
3295.5053563630049211
 20
217.0261319120556891
 30
0.0
 40
0.967127283843957
 50
128.9640548573676142
 51
167.6716773961871922
  0
ARC
  5
9221
  8
0
 10
3294.7515322727840612
 20
217.9451137210589877
 30
0.0
 40
0.2216010148234853
 50
311.0958114407574726
 51
0.9644498242229026
  0
ARC
  5
9222
  8
0
 10
3295.1870844492459582
 20
217.9546283088515963
 30
0.0
 40
0.2140607287585396
 50
126.8608725720498995
 51
181.5485003277478882
  0
ARC
  5
9223
  8
0
 10
3294.5673151654691537
 20
218.8636665235059979
 30
0.0
 40
0.8864187312534241
 50
303.663905716330305
 51
343.937539366653823
  0
ARC
  5
9224
  8
0
 10
3295.5043605089308585
 20
218.6070166078494879
 30
0.0
 40
0.0859896580569924
 50
94.7333246087058853
 51
172.3876485641964962
  0
ARC
  5
9225
  8
0
 10
3300.2028648356931626
 20
229.02643471174909
 30
0.0
 40
18.4737349152738695
 50
270.789202787480292
 51
272.2940160283591808
  0
ARC
  5
9226
  8
0
 10
3301.2733925190091213
 20
219.0756129791965066
 30
0.0
 40
8.5601494397532587
 50
202.5747139973657056
 51
264.5375146463081251
  0
ARC
  5
9227
  8
0
 10
3292.9083643699082131
 20
215.5874592788424025
 30
0.0
 40
0.5031004916474764
 50
23.6746559414217614
 51
77.5747958474793222
  0
ARC
  5
9228
  8
0
 10
3293.0280018325947822
 20
216.1547043510618096
 30
0.0
 40
0.0767775780443539
 50
203.152273927349512
 51
261.4702494438719782
  0
ARC
  5
9229
  8
0
 10
3292.1785112967531859
 20
215.7367201093360904
 30
0.0
 40
0.8700955035994162
 50
26.4678068688693102
 51
70.3046715595095719
  0
ARC
  5
922A
  8
0
 10
3292.5469163700809077
 20
216.7391577907552005
 30
0.0
 40
0.1980620796005707
 50
178.2439105961371979
 51
247.6965856990651957
  0
ARC
  5
922B
  8
0
 10
3292.1428039055440422
 20
216.7485499963298139
 30
0.0
 40
0.206170182507646
 50
359.0765797787149722
 51
56.7925705136999923
  0
ARC
  5
922C
  8
0
 10
3292.4074677678868284
 20
217.1439107855067903
 30
0.0
 40
0.2696192501222611
 50
160.7892947525147065
 51
235.7481383945340951
  0
ARC
  5
922D
  8
0
 10
3293.0749003810228714
 20
216.9635562266583122
 30
0.0
 40
0.9604964314529466
 50
122.0030036139773983
 51
163.7315985760160117
  0
ARC
  5
922E
  8
0
 10
3292.4533443730579165
 20
217.9502793212745075
 30
0.0
 40
0.2057090950012665
 50
303.1630633781394977
 51
359.6001320679321225
  0
ARC
  5
922F
  8
0
 10
3292.8611534470728657
 20
217.9486700055587107
 30
0.0
 40
0.2021050633166271
 50
118.7286358377461966
 51
179.9507622580350983
  0
ARC
  5
9230
  8
0
 10
3292.3453411686709842
 20
218.9461825028130875
 30
0.0
 40
0.9209511484542801
 50
297.0394587469385215
 51
339.151086890443878
  0
ARC
  5
9231
  8
0
 10
3293.313078430323003
 20
218.5786985896405952
 30
0.0
 40
0.1142144935883343
 50
93.3918925542002967
 51
159.6530217893684949
  0
ARC
  5
9232
  8
0
 10
3305.4503337296901009
 20
218.721699237607595
 30
0.0
 40
0.0516588411652978
 50
5.2872369949497129
 51
47.5516095560466781
  0
ARC
  5
9233
  8
0
 10
3305.0504496774060499
 20
218.6235618826956113
 30
0.0
 40
0.462904381052247
 50
6.3033183470175862
 51
12.8433986661629902
  0
ARC
  5
9234
  8
0
 10
3334.7086793749749631
 20
217.6204603142973895
 30
0.0
 40
29.2171386066854595
 50
177.9327701511134876
 51
178.6849296478760891
  0
ARC
  5
9235
  8
0
 10
3306.0211214174669294
 20
218.2773376219014096
 30
0.0
 40
0.5220639293289717
 50
178.5001619889881113
 51
196.8627858747040023
  0
ARC
  5
9236
  8
0
 10
3304.8545674618972043
 20
217.9635481835622102
 30
0.0
 40
0.6864130883010398
 50
358.7725029174429778
 51
13.6810975074799597
  0
ARC
  5
9237
  8
0
 10
3306.2824536899570376
 20
217.9370645696097029
 30
0.0
 40
0.741724195716933
 50
179.0900633013247045
 51
192.3745054101960079
  0
ARC
  5
9238
  8
0
 10
3302.9340630755718848
 20
217.1343540380611898
 30
0.0
 40
2.7017156739555879
 50
2.084541630459201
 51
13.7849090059963899
  0
ARC
  5
9239
  8
0
 10
3304.4664696982808891
 20
217.1472461507472929
 30
0.0
 40
1.170638925502417
 50
348.8540712321758974
 51
4.1825709004437526
  0
ARC
  5
923A
  8
0
 10
3306.3559655147041667
 20
216.7600421058137101
 30
0.0
 40
0.7582085499582354
 50
167.7473209325355867
 51
181.119518303543714
  0
ARC
  5
923B
  8
0
 10
3304.9714824171501277
 20
216.7239674600689057
 30
0.0
 40
0.626779970801231
 50
344.4529889141978742
 51
1.9438788554983091
  0
ARC
  5
923C
  8
0
 10
3306.4041244554900913
 20
216.2044140261072869
 30
0.0
 40
0.900274979223205
 50
157.0143246292545882
 51
185.2872441901814966
  0
ARC
  5
923D
  8
0
 10
3306.2935681978478897
 20
215.7713681547627971
 30
0.0
 40
0.8603376870016363
 50
155.9886524201558018
 51
180.257887832073493
  0
ARC
  5
923E
  8
0
 10
3099.0647171879968482
 20
214.8386265029620859
 30
0.0
 40
206.3706124576416983
 50
358.8913061764881718
 51
0.2578878320734939
  0
LINE
  5
923F
  8
0
 10
3291.8696863684899654
 20
218.6927130034073059
 30
0.0
 11
3303.2652419857631685
 21
218.6927130034073059
 31
0.0
  0
LINE
  5
9240
  8
0
 10
3306.6089892243799113
 20
184.7089032803887108
 30
0.0
 11
3297.860784716021044
 21
184.7089032803887108
 31
0.0
  0
LINE
  5
9241
  8
0
 10
3299.7995646026151917
 20
187.822321715188707
 30
0.0
 11
3305.8595895647899852
 21
187.822321715188707
 31
0.0
  0
ARC
  5
9242
  8
0
 10
3298.8599315063020185
 20
184.7577851875772978
 30
0.0
 40
1.000341816270889
 50
114.4762946719287982
 51
182.8008966040432028
  0
ARC
  5
9243
  8
0
 10
3298.3919151891141155
 20
185.7858802691123117
 30
0.0
 40
0.1292681915771889
 50
294.4762946719288266
 51
0.1635743936071401
  0
ARC
  5
9244
  8
0
 10
3317.8085796973550714
 20
185.8413132831790051
 30
0.0
 40
19.2874754448990906
 50
179.8364083344804101
 51
180.1635743936070924
  0
ARC
  5
9245
  8
0
 10
3298.6519892218311725
 20
185.8960095816538001
 30
0.0
 40
0.1308068845253445
 50
130.4293561976533056
 51
179.8364083344804101
  0
ARC
  5
9246
  8
0
 10
3297.9152225032739807
 20
186.7608094258326901
 30
0.0
 40
1.005284647026949
 50
310.4293561976533056
 51
350.8160290008082143
  0
ARC
  5
9247
  8
0
 10
3299.0442725862171756
 20
186.5782673480690903
 30
0.0
 40
0.1384267238821629
 50
84.9977386042049545
 51
170.816029000806509
  0
LINE
  5
9248
  8
0
 10
3299.0563427128900003
 20
186.7161668401886914
 30
0.0
 11
3299.2193106684899249
 21
186.7227712791886916
 31
0.0
  0
ARC
  5
9249
  8
0
 10
3299.1655279964111287
 20
186.8419140190075041
 30
0.0
 40
0.1307194257465335
 50
294.2950713666061802
 51
359.2303464594943989
  0
ARC
  5
924A
  8
0
 10
3296.8537546095949438
 20
186.8729699120376893
 30
0.0
 40
2.4427014024238929
 50
359.2303464594943989
 51
0.3054833844124333
  0
ARC
  5
924B
  8
0
 10
3299.4260595117398225
 20
186.8866847765519026
 30
0.0
 40
0.1296400615164205
 50
123.249577822804298
 51
180.3054833844124119
  0
ARC
  5
924C
  8
0
 10
3298.8153589890639523
 20
187.8181728419461933
 30
0.0
 40
0.9841934737882754
 50
303.2495778228043264
 51
359.9668618685390129
  0
LINE
  5
924D
  8
0
 10
3299.7995522982400871
 20
187.8176036144886893
 30
0.0
 11
3299.8587924881931031
 21
210.5331956312575983
 31
0.0
  0
ARC
  5
924E
  8
0
 10
3304.6095895699118046
 20
184.7579032820862039
 30
0.0
 40
1.999999994613451
 50
358.5961128784089738
 51
25.4559116190344383
  0
ARC
  5
924F
  8
0
 10
3306.859577586360956
 20
187.8223181004534865
 30
0.0
 40
0.9999880215770534
 50
179.999791270302012
 51
213.7100667071439943
  0
LINE
  5
9250
  8
0
 10
3305.8595895647899852
 20
187.8223217434303933
 30
0.0
 11
3305.8596734146681229
 21
210.8389032806360035
 31
0.0
  0
LINE
  5
9251
  8
0
 10
3305.8596734146681229
 20
210.8389032806360035
 30
0.0
 11
3305.3570400984472144
 21
210.8389032807885997
 31
0.0
  0
LINE
  5
9252
  8
0
 10
3291.524793609756216
 20
216.0705725593886939
 30
0.0
 11
3309.8595895926900994
 21
216.0705725593886939
 31
0.0
  0
LINE
  5
9253
  8
0
 10
3298.9994271885711896
 20
186.7092285949887014
 30
0.0
 11
3306.1567034819918263
 21
186.7092285949887014
 31
0.0
  0
LINE
  5
9254
  8
0
 10
3299.3544019967280292
 20
186.9947206321382112
 30
0.0
 11
3306.0495895647909492
 21
186.9947206321382112
 31
0.0
  0
LINE
  5
9255
  8
0
 10
3298.4451638533128062
 20
185.6680881829663861
 30
0.0
 11
3306.3904779507138301
 21
185.6680881829663861
 31
0.0
  0
LINE
  5
9256
  8
0
 10
3298.5671491249440805
 20
185.9955716175886948
 30
0.0
 11
3306.2871346257338701
 21
185.9955716175886948
 31
0.0
  0
LINE
  5
9257
  8
0
 10
3301.1145727061389152
 20
210.5690844122964052
 30
0.0
 11
3301.0331905791022109
 21
187.8223217113724104
 31
0.0
  0
ARC
  5
9258
  8
0
 10
3300.1812135648319781
 20
187.7632076016066947
 30
0.0
 40
0.854025357244989
 50
292.0824338632630202
 51
3.9690852502477409
  0
ARC
  5
9259
  8
0
 10
3300.5664407858880622
 20
186.8417541495551859
 30
0.0
 40
0.1450410048610041
 50
116.2565079540371045
 51
188.3708694868498981
  0
ARC
  5
925A
  8
0
 10
3298.9959159852360244
 20
186.6995798999745944
 30
0.0
 40
1.1461980312733191
 50
322.1218812458467937
 51
354.0630939606513152
  0
ARC
  5
925B
  8
0
 10
3300.0237417464268219
 20
185.9016751934973115
 30
0.0
 40
0.1549897314778424
 50
142.5903851860146005
 51
180.8717802340080141
  0
ARC
  5
925C
  8
0
 10
-82539.1567791258275975
 20
464.7751717124343145
 30
0.0
 40
85839.478557119218749
 50
359.8137900642483942
 51
359.8138567724653853
  0
ARC
  5
925D
  8
0
 10
3299.7296673504120008
 20
185.7931442674446032
 30
0.0
 40
0.1389177283317799
 50
295.8134097201199211
 51
2.5713333782843129
  0
ARC
  5
925E
  8
0
 10
3300.4479324973308394
 20
184.7934290369774999
 30
0.0
 40
1.0943929800645511
 50
126.9444581125661955
 51
184.4296717455468979
  0
LINE
  5
925F
  8
0
 10
3300.45851771928983
 20
210.5543374002886878
 30
0.0
 11
3300.3675170230499134
 21
187.822321715188707
 31
0.0
  0
ARC
  5
9260
  8
0
 10
3299.3936554133410937
 20
187.8262202733172046
 30
0.0
 40
0.9738694130215957
 50
300.2008928522620863
 51
359.770635035289672
  0
ARC
  5
9261
  8
0
 10
3299.9562463502238643
 20
186.8596269093764022
 30
0.0
 40
0.1445273383496598
 50
120.200892852262001
 51
188.2604888164148065
  0
ARC
  5
9262
  8
0
 10
3299.615446207847981
 20
186.5927423521040964
 30
0.0
 40
0.1174480332469361
 50
97.3375620138437654
 51
178.0263760955980956
  0
ARC
  5
9263
  8
0
 10
3298.4108320004938832
 20
186.7049103387915068
 30
0.0
 40
1.0925989193996619
 50
319.5089815447516912
 51
354.3207376392221022
  0
ARC
  5
9264
  8
0
 10
3299.353186865340831
 20
185.9014773566673
 30
0.0
 40
0.1457641405486353
 50
139.8553479265808051
 51
180.8338981340484963
  0
ARC
  5
9265
  8
0
 10
3305.4570328233680812
 20
185.8743148360933048
 30
0.0
 40
6.2496448280852084
 50
179.770426397845398
 51
180.6899086805258889
  0
ARC
  5
9266
  8
0
 10
3299.0715669921000881
 20
185.794554540427896
 30
0.0
 40
0.1363486424334577
 50
291.9482320823838108
 51
1.8951079804783539
  0
ARC
  5
9267
  8
0
 10
3299.6981886257372025
 20
184.7883306290873122
 30
0.0
 40
1.051359301815427
 50
123.1982473536352956
 51
184.3326690508837942
  0
ARC
  5
9268
  8
0
 10
3305.9166162163960507
 20
187.194267251449304
 30
0.0
 40
0.1329859069566706
 50
0.1905500024005241
 51
33.3281541443184182
  0
LINE
  5
9269
  8
0
 10
3306.0496013879119346
 20
187.1947095251802864
 30
0.0
 11
3306.0496013879119346
 21
186.9947206321382112
 31
0.0
  0
ARC
  5
926A
  8
0
 10
3306.6384258412272175
 20
186.9778242191895004
 30
0.0
 40
0.5890786443402546
 50
178.3563723598838919
 51
186.5648827090184909
  0
ARC
  5
926B
  8
0
 10
3306.3700180546111369
 20
186.9584274252802913
 30
0.0
 40
0.3204166666999092
 50
188.6068609825709075
 51
222.8124562595754981
  0
ARC
  5
926C
  8
0
 10
3305.974076093335043
 20
186.6226070748705865
 30
0.0
 40
0.1995618325956647
 50
348.3492725515837947
 51
36.2721079815385323
  0
ARC
  5
926D
  8
0
 10
3249.1609349076238686
 20
186.4841820780611954
 30
0.0
 40
57.0086758607087702
 50
359.9671316170130808
 51
0.0986186757600391
  0
ARC
  5
926E
  8
0
 10
3307.1696013870719071
 20
186.4514791465705059
 30
0.0
 40
0.9999999991594894
 50
180.0000429368930099
 51
207.7539335075512952
  0
ARC
  5
926F
  8
0
 10
3306.0442366057059189
 20
185.894464850661393
 30
0.0
 40
0.2571757336161208
 50
353.1965184364468087
 51
20.803366736295839
  0
ARC
  5
9270
  8
0
 10
3307.8784431742678862
 20
186.4539573301767064
 30
0.0
 40
1.6854650885034801
 50
200.4889787435652977
 51
209.7712017537565998
  0
ARC
  5
9271
  8
0
 10
3300.2903598235898244
 20
186.5650551057271969
 30
0.0
 40
0.155218400353135
 50
111.7448630523262949
 51
174.2725945809353902
  0
ARC
  5
9272
  8
0
 10
3300.2841330197929892
 20
186.8128066403853893
 30
0.0
 40
0.1390185660198936
 50
311.835208077101413
 51
3.0333923772584241
  0
ARC
  5
9273
  8
0
 10
3299.686634900675017
 20
186.8315656285925002
 30
0.0
 40
0.1267936842364912
 50
285.2360879527028032
 51
3.2989749410999711
  0
ENDSEC
  0
EOF
