  0
SECTION
  2
HEADER
  9
$ACADVER
  1
AC1009
  9
$INSBASE
 10
4166.9954269225663666
 20
99.9754507165004753
 30
0.0
  9
$EXTMIN
 10
4158.6502332513737201
 20
99.9684827196045944
 30
-0.0000000000112498
  9
$EXTMAX
 10
4175.429702662308955
 20
129.3569700943718885
 30
0.0000000000002956
  9
$LIMMIN
 10
0.0
 20
0.0
  9
$LIMMAX
 10
11.6929133858000007
 20
8.2677165353999982
  9
$ORTHOMODE
 70
     0
  9
$REGENMODE
 70
     1
  9
$FILLMODE
 70
     1
  9
$QTEXTMODE
 70
     0
  9
$MIRRTEXT
 70
     0
  9
$DRAGMODE
 70
     2
  9
$LTSCALE
 40
0.6431102362
  9
$OSMODE
 70
  4095
  9
$ATTMODE
 70
     1
  9
$TEXTSIZE
 40
0.2
  9
$TRACEWID
 40
0.05
  9
$TEXTSTYLE
  7
STANDARD
  9
$CLAYER
  8
0
  9
$CELTYPE
  6
BYLAYER
  9
$CECOLOR
 62
   256
  9
$DIMSCALE
 40
1.0
  9
$DIMASZ
 40
0.1875
  9
$DIMEXO
 40
0.0625
  9
$DIMDLI
 40
0.4443307087
  9
$DIMRND
 40
0.0
  9
$DIMDLE
 40
0.0
  9
$DIMEXE
 40
0.125
  9
$DIMTP
 40
0.01
  9
$DIMTM
 40
0.01
  9
$DIMTXT
 40
2.0
  9
$DIMCEN
 40
0.1052362205
  9
$DIMTSZ
 40
0.0
  9
$DIMTOL
 70
     1
  9
$DIMLIM
 70
     0
  9
$DIMTIH
 70
     1
  9
$DIMTOH
 70
     1
  9
$DIMSE1
 70
     0
  9
$DIMSE2
 70
     0
  9
$DIMTAD
 70
     0
  9
$DIMZIN
 70
     0
  9
$DIMBLK
  1

  9
$DIMASO
 70
     1
  9
$DIMSHO
 70
     1
  9
$DIMPOST
  1
\X
  9
$DIMAPOST
  1

  9
$DIMALT
 70
     1
  9
$DIMALTD
 70
     2
  9
$DIMALTF
 40
25.3999999999999986
  9
$DIMLFAC
 40
1.0
  9
$DIMTOFL
 70
     0
  9
$DIMTVP
 40
0.0
  9
$DIMTIX
 70
     0
  9
$DIMSOXD
 70
     0
  9
$DIMSAH
 70
     0
  9
$DIMBLK1
  1

  9
$DIMBLK2
  1

  9
$DIMSTYLE
  2
STANDARD
  9
$DIMCLRD
 70
     0
  9
$DIMCLRE
 70
     0
  9
$DIMCLRT
 70
     0
  9
$DIMTFAC
 40
1.0
  9
$DIMGAP
 40
0.09
  9
$LUNITS
 70
     2
  9
$LUPREC
 70
     4
  9
$SKETCHINC
 40
0.1
  9
$FILLETRAD
 40
0.0
  9
$AUNITS
 70
     0
  9
$AUPREC
 70
     0
  9
$MENU
  1
.
  9
$ELEVATION
 40
0.0
  9
$PELEVATION
 40
0.0
  9
$THICKNESS
 40
0.0
  9
$LIMCHECK
 70
     0
  9
$BLIPMODE
 70
     0
  9
$CHAMFERA
 40
0.0
  9
$CHAMFERB
 40
0.0
  9
$SKPOLY
 70
     0
  9
$TDCREATE
 40
2458060.468368056230247
  9
$TDUPDATE
 40
2459523.6823495370335877
  9
$TDINDWG
 40
0.3835024306
  9
$TDUSRTIMER
 40
0.3835024306
  9
$USRTIMER
 70
     1
  9
$ANGBASE
 50
0.0
  9
$ANGDIR
 70
     0
  9
$PDMODE
 70
     0
  9
$PDSIZE
 40
0.3125
  9
$PLINEWID
 40
0.0
  9
$COORDS
 70
     1
  9
$SPLFRAME
 70
     0
  9
$SPLINETYPE
 70
     6
  9
$SPLINESEGS
 70
     8
  9
$ATTDIA
 70
     1
  9
$ATTREQ
 70
     1
  9
$HANDLING
 70
     1
  9
$HANDSEED
  5
11137
  9
$SURFTAB1
 70
     6
  9
$SURFTAB2
 70
     6
  9
$SURFTYPE
 70
     6
  9
$SURFU
 70
     6
  9
$SURFV
 70
     6
  9
$UCSNAME
  2

  9
$UCSORG
 10
0.0
 20
0.0
 30
0.0
  9
$UCSXDIR
 10
1.0
 20
0.0
 30
0.0
  9
$UCSYDIR
 10
0.0
 20
1.0
 30
0.0
  9
$PUCSNAME
  2

  9
$PUCSORG
 10
0.0
 20
0.0
 30
0.0
  9
$PUCSXDIR
 10
1.0
 20
0.0
 30
0.0
  9
$PUCSYDIR
 10
0.0
 20
1.0
 30
0.0
  9
$USERI1
 70
     0
  9
$USERI2
 70
     0
  9
$USERI3
 70
     0
  9
$USERI4
 70
     0
  9
$USERI5
 70
     0
  9
$USERR1
 40
0.0
  9
$USERR2
 40
0.0
  9
$USERR3
 40
0.0
  9
$USERR4
 40
0.0
  9
$USERR5
 40
0.0
  9
$WORLDVIEW
 70
     1
  9
$SHADEDGE
 70
     3
  9
$SHADEDIF
 70
    70
  9
$TILEMODE
 70
     1
  9
$MAXACTVP
 70
    64
  9
$PLIMCHECK
 70
     0
  9
$PEXTMIN
 10
1.0000000000000000E+20
 20
1.0000000000000000E+20
 30
1.0000000000000000E+20
  9
$PEXTMAX
 10
-1.0000000000000000E+20
 20
-1.0000000000000000E+20
 30
-1.0000000000000000E+20
  9
$PLIMMIN
 10
0.0
 20
0.0
  9
$PLIMMAX
 10
12.0
 20
9.0
  9
$UNITMODE
 70
     0
  9
$VISRETAIN
 70
     1
  9
$PLINEGEN
 70
     0
  9
$PSLTSCALE
 70
     1
  0
ENDSEC
  0
SECTION
  2
TABLES
  0
TABLE
  2
VPORT
 70
     1
  0
VPORT
  2
*ACTIVE
 70
     0
 10
0.0
 20
0.0
 11
1.0
 21
1.0
 12
-97.9663796994082077
 22
10.35871410840425
 13
0.0
 23
0.0
 14
1.0
 24
1.0
 15
0.0
 25
0.0
 16
0.0
 26
0.0
 36
122.0237731519760018
 17
4265.00634765625
 27
104.3040122985839986
 37
0.0
 40
29.6338375351774097
 41
2.0410052910052912
 42
50.0
 43
0.0
 44
0.0
 50
0.0
 51
0.0
 71
     0
 72
   100
 73
     1
 74
     1
 75
     0
 76
     0
 77
     0
 78
     0
  0
ENDTAB
  0
TABLE
  2
LTYPE
 70
     2
  0
LTYPE
  2
CONTINUOUS
 70
     0
  3
Solid line
 72
    65
 73
     0
 40
0.0
  0
LTYPE
  2
PHANTOM2
 70
     0
  3
___ _ _ ___ _ _ ___ _ _ ___ _ _
 72
    65
 73
     6
 40
1.25
 49
0.625
 49
-0.125
 49
0.125
 49
-0.125
 49
0.125
 49
-0.125
  0
ENDTAB
  0
TABLE
  2
LAYER
 70
     2
  0
LAYER
  2
0
 70
     0
 62
   255
  6
CONTINUOUS
  0
LAYER
  2
DEFPOINTS
 70
     0
 62
     7
  6
CONTINUOUS
  0
ENDTAB
  0
TABLE
  2
STYLE
 70
     1
  0
STYLE
  2
STANDARD
 70
     0
 40
0.0
 41
0.8
 50
0.0
 71
     0
 42
0.2
  3
txt
  4

  0
ENDTAB
  0
TABLE
  2
VIEW
 70
     0
  0
ENDTAB
  0
TABLE
  2
UCS
 70
     0
  0
ENDTAB
  0
TABLE
  2
APPID
 70
     9
  0
APPID
  2
ACAD
 70
     0
  0
APPID
  2
ACAD_MLEADERVER
 70
     0
  0
APPID
  2
ACAD_EXEMPT_FROM_CAD_STANDARDS
 70
     0
  0
APPID
  2
ACAD_NAV_VCDISPLAY
 70
     0
  0
APPID
  2
ACAECLAYERSTANDARD
 70
     0
  0
APPID
  2
ACCMTRANSPARENCY
 70
     0
  0
APPID
  2
ACAD_DSTYLE_DIMJAG
 70
     0
  0
APPID
  2
ACAD_DSTYLE_DIMTALN
 70
     0
  0
APPID
  2
ACDBATTR
 70
     0
  0
ENDTAB
  0
TABLE
  2
DIMSTYLE
 70
     1
  0
DIMSTYLE
  2
STANDARD
 70
     0
  3

  4

  5

  6

  7

 40
1.0
 41
0.1875
 42
0.0625
 43
0.38
 44
0.125
 45
0.0
 46
0.0
 47
0.01
 48
0.01
140
0.15625
141
0.09
142
0.0
143
25.3999999999999986
144
1.0
145
0.0
146
1.0
147
0.09
 71
     1
 72
     0
 73
     1
 74
     1
 75
     0
 76
     0
 77
     0
 78
     4
170
     0
171
     2
172
     0
173
     0
174
     0
175
     0
176
     0
177
     0
178
     0
  0
ENDTAB
  0
ENDSEC
  0
SECTION
  2
BLOCKS
  0
BLOCK
  8
0
  2
$MODEL_SPACE
 70
     0
 10
0.0
 20
0.0
 30
0.0
  3
$MODEL_SPACE
  1

  0
ENDBLK
  5
21
  8
0
  0
BLOCK
 67
     1
  8
0
  2
$PAPER_SPACE
 70
     0
 10
0.0
 20
0.0
 30
0.0
  3
$PAPER_SPACE
  1

  0
ENDBLK
  5
1D
 67
     1
  8
0
  0
ENDSEC
  0
SECTION
  2
ENTITIES
  0
ATTDEF
  5
FDB2
  8
DEFPOINTS
 10
4166.9890077812060554
 20
99.9726146334303536
 30
0.0
 40
0.001
  1
K-22245K-C
  3

  2
MODELNUMBER
 70
     0
1001
ACDBATTR
1070
     0
1070
     1
  0
ATTDEF
  5
FDB3
  8
DEFPOINTS
 10
4166.9890077812060554
 20
99.9709479667636884
 30
0.0
 40
0.001
  1
ADARI
  3

  2
TRADENAME
 70
     0
1001
ACDBATTR
1070
     0
1070
     1
  0
ATTDEF
  5
FDB4
  8
DEFPOINTS
 10
4166.9890077812060554
 20
99.9692813000970233
 30
0.0
 40
0.001
  1
TOILET
  3

  2
PRODUCT
 70
     0
1001
ACDBATTR
1070
     0
1070
     1
  0
ARC
  5
1100B
  8
0
 10
4163.3242862693286952
 20
403.5062161196674992
 30
0.0
 40
285.3495772020993968
 50
270.1347473893773099
 51
270.7371543020689728
  0
ARC
  5
1100C
  8
0
 10
4164.1485688822403972
 20
111.0967691004833995
 30
0.0
 40
7.0623208314852439
 50
91.2430089918559588
 51
114.9538824163086019
  0
ARC
  5
1100D
  8
0
 10
4161.6425808231151677
 20
116.4821908096845959
 30
0.0
 40
1.1223929583193979
 50
114.9538824163086019
 51
127.8745377139849069
  0
ARC
  5
1100E
  8
0
 10
4159.3420743657161438
 20
119.4400323298919062
 30
0.0
 40
2.6247601502679609
 50
300.3556182818983871
 51
307.8745377139437096
  0
ARC
  5
1100F
  8
0
 10
4163.9566593157296666
 20
111.5606852221523013
 30
0.0
 40
6.5064229661271114
 50
120.3556182818987992
 51
124.503593406576698
  0
ARC
  5
11010
  8
0
 10
4160.3398372950368866
 20
116.8224869242509953
 30
0.0
 40
0.121443821166579
 50
124.503593406576698
 51
168.4531650418300046
  0
LINE
  5
11011
  8
0
 10
4160.220851325687363
 20
116.846796198149093
 30
0.0
 11
4160.1478809656673548
 21
116.5745813886538969
 31
0.0
  0
ARC
  5
11012
  8
0
 10
4160.231788302620771
 20
116.5751906035299044
 30
0.0
 40
0.0839095485482397
 50
180.4159925596219978
 51
255.8415965857917911
  0
ARC
  5
11013
  8
0
 10
4160.2142343276700558
 20
116.1989571191185036
 30
0.0
 40
0.1622280054782153
 50
89.7661909359883623
 51
171.5829755190999037
  0
ARC
  5
11014
  8
0
 10
4160.27009998675112
 20
115.2487060832849011
 30
0.0
 40
0.2502555917277962
 50
14.8653444606732794
 51
45.9293690967788706
  0
ARC
  5
11015
  8
0
 10
4160.270691153134976
 20
115.2493167457038936
 30
0.0
 40
0.2494056586224854
 50
45.9293690967788706
 51
74.1193156849198118
  0
ARC
  5
11016
  8
0
 10
4160.2720359241429833
 20
115.2540436485412982
 30
0.0
 40
0.244491188203513
 50
74.1193156849198118
 51
88.2185402404337964
  0
ARC
  5
11017
  8
0
 10
4160.6086775428966575
 20
115.3385302299128057
 30
0.0
 40
0.1000344932040102
 50
194.8403652465619018
 51
269.9895626876740948
  0
LINE
  5
11018
  8
0
 10
4160.6086583311671347
 20
115.2384957383685986
 30
0.0
 11
4161.9763786581770546
 21
115.238495971554002
 31
0.0
  0
ARC
  5
11019
  8
0
 10
4159.9405489847476929
 20
115.5589086045894049
 30
0.0
 40
0.0604129969212675
 50
180.3913400059917933
 51
270.1191821212257764
  0
LINE
  5
1101A
  8
0
 10
4160.053758213492074
 20
116.2227035626545018
 30
0.0
 11
4159.8801373969909037
 21
115.5584959766619022
 31
0.0
  0
LINE
  5
1101B
  8
0
 10
4161.1188007674172695
 20
115.238495971554002
 30
0.0
 11
4161.1188007674172695
 21
115.1785129681539956
 31
0.0
  0
LINE
  5
1101C
  8
0
 10
4162.0540025398267971
 20
115.2754520741674042
 30
0.0
 11
4162.0953400205726211
 21
115.3263495574475002
 31
0.0
  0
ARC
  5
1101D
  8
0
 10
4161.9763786581770546
 20
115.3384959715538969
 30
0.0
 40
0.1
 50
270.0
 51
320.9174833380881182
  0
ARC
  5
1101E
  8
0
 10
4161.7153148917132057
 20
135.327728018601988
 30
0.0
 40
18.8938584196934691
 50
265.4341215954689233
 51
269.4725649436322215
  0
ARC
  5
1101F
  8
0
 10
4161.5515998258943
 20
112.0056872323243056
 30
0.0
 40
4.4289946687560011
 50
87.1979380356213625
 51
90.1320752866694619
  0
ARC
  5
11020
  8
0
 10
4156.5972186333783611
 20
-132.065615565873486
 30
0.0
 40
248.5487964465644097
 50
88.6777645440956945
 51
88.8079126355076909
  0
ARC
  5
11021
  8
0
 10
4147.0205751392659295
 20
-586.6562030989017558
 30
0.0
 40
703.2399201779022633
 50
88.6722053572533326
 51
88.7523725184216943
  0
ARC
  5
11022
  8
0
 10
4165.1323907680307457
 20
192.9665525752876931
 30
0.0
 40
76.5931995873704352
 50
268.641318981623499
 51
269.9894823980882279
  0
ARC
  5
11023
  8
0
 10
4165.1200399343515528
 20
116.6203405270481994
 30
0.0
 40
0.2469921621511051
 50
269.6035221756856117
 51
313.6806761347817201
  0
ARC
  5
11024
  8
0
 10
4165.6860918880120153
 20
116.0784637840714026
 30
0.0
 40
0.5369806747022254
 50
129.9403266327861104
 51
137.4314950964528066
  0
ARC
  5
11025
  8
0
 10
4165.8837684146010361
 20
-216.015279416267191
 30
0.0
 40
334.1973835741137009
 50
89.3037307299961185
 51
89.8094136538797727
  0
ARC
  5
11026
  8
0
 10
4169.7916967716928411
 20
111.0967691004833995
 30
0.0
 40
7.0623208314852439
 50
65.0461175836913554
 51
88.7569910080919158
  0
ARC
  5
11027
  8
0
 10
4172.2976848308189801
 20
116.4821908096845959
 30
0.0
 40
1.1223929583193979
 50
52.1254622860151002
 51
65.0461175836913554
  0
ARC
  5
11028
  8
0
 10
4175.1920521338288381
 20
120.3166641174570941
 30
0.0
 40
3.681981825617878
 50
233.2058770073709866
 51
238.5639669967360987
  0
ARC
  5
11029
  8
0
 10
4169.9836063382026623
 20
111.5606852221523013
 30
0.0
 40
6.5064229661271114
 50
55.4964065934228401
 51
59.6443817181011724
  0
ARC
  5
1102A
  8
0
 10
4173.6004283588981707
 20
116.8224869242509953
 30
0.0
 40
0.121443821166579
 50
11.5468349581691392
 51
55.4964065934228401
  0
LINE
  5
1102B
  8
0
 10
4173.7194143282458754
 20
116.846796198149093
 30
0.0
 11
4173.843263300603212
 21
116.5745813886538969
 31
0.0
  0
ARC
  5
1102C
  8
0
 10
4173.716004699327641
 20
116.6334350254034007
 30
0.0
 40
0.1402087805993247
 50
275.3189010330568181
 51
335.1807443242196882
  0
ARC
  5
1102D
  8
0
 10
4173.7171619400833151
 20
116.1886454785768024
 30
0.0
 40
0.1727363643905017
 50
11.3714002248119694
 51
87.2880682995319148
  0
ARC
  5
1102E
  8
0
 10
4173.6701656671830278
 20
115.2487060832849011
 30
0.0
 40
0.2502555917277962
 50
134.0706309032210868
 51
165.134655539326701
  0
ARC
  5
1102F
  8
0
 10
4173.6695745007991718
 20
115.2493167457038936
 30
0.0
 40
0.2494056586224854
 50
105.8806843150801029
 51
134.0706309032210868
  0
ARC
  5
11030
  8
0
 10
4173.6682297297902551
 20
115.2540436485412982
 30
0.0
 40
0.244491188203513
 50
91.7814597595662178
 51
105.8806843150801029
  0
ARC
  5
11031
  8
0
 10
4173.3081701968358175
 20
115.3725534138577018
 30
0.0
 40
0.134109066983626
 50
268.4101682060618259
 51
333.5928011005850067
  0
LINE
  5
11032
  8
0
 10
4173.3044494428568214
 20
115.238495971554002
 30
0.0
 11
4171.9638869957561838
 21
115.238495971554002
 31
0.0
  0
LINE
  5
11033
  8
0
 10
4173.8865074404420739
 20
116.2227035626545018
 30
0.0
 11
4174.1107298825445469
 21
115.5584959766619022
 31
0.0
  0
LINE
  5
11034
  8
0
 10
4172.8214648865159688
 20
115.238495971554002
 30
0.0
 11
4172.8214648865159688
 21
115.1785129681539956
 31
0.0
  0
ARC
  5
11035
  8
0
 10
4171.9641228295940891
 20
115.3400808634023065
 30
0.0
 40
0.101585165597317
 50
215.113835420680914
 51
269.8669855422455157
  0
ARC
  5
11036
  8
0
 10
4172.2249507622200326
 20
135.327728018601988
 30
0.0
 40
18.8938584196934691
 50
270.5274350563677785
 51
274.5658784045310767
  0
ARC
  5
11037
  8
0
 10
4172.3886658280398478
 20
112.0056872323243056
 30
0.0
 40
4.4289946687560011
 50
89.8679247133305239
 51
92.8020619643786802
  0
ARC
  5
11038
  8
0
 10
4177.3430470205548772
 20
-132.065615565873486
 30
0.0
 40
248.5487964465644097
 50
91.1920873644922949
 51
91.3222354559042913
  0
ARC
  5
11039
  8
0
 10
4186.9196905146682184
 20
-586.6562030989017558
 30
0.0
 40
703.2399201779022633
 50
91.2476274815783057
 51
91.3277946427466674
  0
ARC
  5
1103A
  8
0
 10
4168.8078748859015832
 20
192.9665525752876931
 30
0.0
 40
76.5931995873704352
 50
270.0443226662411007
 51
271.358681018376501
  0
ARC
  5
1103B
  8
0
 10
4160.5520929771137162
 20
113.5507396081527958
 30
0.0
 40
2.8306007622586908
 50
91.1331376052202558
 51
96.8409312625679632
  0
ARC
  5
1103C
  8
0
 10
4160.1042387125580717
 20
136.1930149267074057
 30
0.0
 40
19.8161033035321097
 50
271.1331376052203268
 51
272.9058970513672193
  0
ARC
  5
1103D
  8
0
 10
4161.5843644774777204
 20
107.0342966423401947
 30
0.0
 40
9.3801571465164049
 50
89.9548456804860166
 51
92.9058970513671056
  0
ARC
  5
1103E
  8
0
 10
4161.5949822777720328
 20
120.5070944907512001
 30
0.0
 40
4.0926448857940807
 50
269.9548456804860166
 51
272.4681877551087155
  0
ARC
  5
1103F
  8
0
 10
4161.7826348498938387
 20
116.1536781602839028
 30
0.0
 40
0.2648139188538752
 50
89.0504273012028733
 51
92.468187755108687
  0
ARC
  5
11040
  8
0
 10
4161.8620962370323468
 20
116.3851955321705987
 30
0.0
 40
0.0667054600507352
 50
265.5190706499524254
 51
271.6783965158588785
  0
ARC
  5
11041
  8
0
 10
4161.8615554813086419
 20
116.3782952164010993
 30
0.0
 40
0.0597839880634343
 50
184.8250005170469024
 51
265.5190706499524254
  0
ARC
  5
11042
  8
0
 10
4159.0455527610429272
 20
116.140591413078397
 30
0.0
 40
2.766233424950765
 50
4.8250005170469112
 51
5.1749990116934006
  0
ARC
  5
11043
  8
0
 10
4161.7557671091126394
 20
116.3862042925792935
 30
0.0
 40
0.0449127888017945
 50
4.9762902787616401
 51
74.0429344945786312
  0
ARC
  5
11044
  8
0
 10
4162.46532493790437
 20
7989.7872819578942654
 30
0.0
 40
7873.4687862262971976
 50
269.9956244804595826
 51
270.0004473240297784
  0
ARC
  5
11045
  8
0
 10
4162.5267948251757844
 20
116.378496482786403
 30
0.0
 40
0.0600005112342846
 50
270.0004473240297784
 51
354.999549366327301
  0
ARC
  5
11046
  8
0
 10
1742.1556234129550376
 20
328.1527175478825029
 30
0.0
 40
2429.678268493079031
 50
354.999549366327301
 51
355.0004508191249215
  0
ARC
  5
11047
  8
0
 10
4160.2713074805178621
 20
116.9204564436383009
 30
0.0
 40
0.00195582143929
 50
131.4463456127380141
 51
214.4184646147512012
  0
ARC
  5
11048
  8
0
 10
4161.098188099044819
 20
123.6998307707123956
 30
0.0
 40
6.8309083569717961
 50
263.0336687968537035
 51
269.349842280108021
  0
ARC
  5
11049
  8
0
 10
4168.0452911990432767
 20
355.6498339586735824
 30
0.0
 40
238.8837769795804036
 50
268.314917853973725
 51
269.7481914154636229
  0
ARC
  5
1104A
  8
0
 10
4157.3237375662129125
 20
897.4003337069555073
 30
0.0
 40
780.6918814113879534
 50
270.7098333797559917
 51
271.0877302674055045
  0
ARC
  5
1104B
  8
0
 10
4171.8957169629684358
 20
140.9395720138369086
 30
0.0
 40
24.0917173466065684
 50
270.5901826552182001
 51
274.1626072820006925
  0
ARC
  5
1104C
  8
0
 10
4173.6216747255948576
 20
117.054065231241097
 30
0.0
 40
0.1444678314174344
 50
279.0784703169064187
 51
287.5411323193441717
  0
ARC
  5
1104D
  8
0
 10
4173.6580935488491377
 20
116.9351312648573042
 30
0.0
 40
0.0201191207562408
 50
290.7328513847566001
 51
308.3190391219695243
  0
ARC
  5
1104E
  8
0
 10
4173.6693361780316991
 20
116.9203935007137005
 30
0.0
 40
0.0016168829674125
 50
319.6387038124386777
 51
14.3515482614415806
  0
ARC
  5
1104F
  8
0
 10
4173.6673032746994068
 20
116.9190642656032963
 30
0.0
 40
0.0039935085195232
 50
25.6712129519835592
 51
49.36587893023259
  0
ARC
  5
11050
  8
0
 10
4177.3430530703562908
 20
-132.065615565873486
 30
0.0
 40
248.5487964465644097
 50
91.1920873644922949
 51
91.3222354559042913
  0
ARC
  5
11051
  8
0
 10
4171.7454179435617334
 20
83.6106757295952292
 30
0.0
 40
32.8103055498195602
 50
86.5404209794744332
 51
89.2602176013608641
  0
ARC
  5
11052
  8
0
 10
4172.1576368538399038
 20
116.1536781602839028
 30
0.0
 40
0.2648139188538752
 50
87.5318122448913414
 51
90.9495726987971267
  0
ARC
  5
11053
  8
0
 10
4172.0781754667013956
 20
116.3851955321705987
 30
0.0
 40
0.0667054600507352
 50
268.3216034841411215
 51
274.4809293500475746
  0
ARC
  5
11054
  8
0
 10
4172.0787162224251006
 20
116.3782952164010993
 30
0.0
 40
0.0597839880634343
 50
274.4809293500475746
 51
355.1749994829531261
  0
ARC
  5
11055
  8
0
 10
4174.8947189426908153
 20
116.140591413078397
 30
0.0
 40
2.766233424950765
 50
174.8250009883066127
 51
175.1749994829530976
  0
ARC
  5
11056
  8
0
 10
4172.1845045946201935
 20
116.3862042925792935
 30
0.0
 40
0.0449127888017945
 50
105.9570655054212978
 51
175.0237097212383901
  0
ARC
  5
11057
  8
0
 10
4171.4749467658311914
 20
7989.7872819578942654
 30
0.0
 40
7873.4687862262971976
 50
269.9995526759702216
 51
270.0043755195404174
  0
ARC
  5
11058
  8
0
 10
4171.4134768785579581
 20
116.378496482786403
 30
0.0
 40
0.0600005112342846
 50
185.000450633672699
 51
269.9995526759702216
  0
ARC
  5
11059
  8
0
 10
6591.7846482907780228
 20
328.1527175478825029
 30
0.0
 40
2429.678268493079031
 50
184.9995491808751069
 51
185.000450633672699
  0
ARC
  5
1105A
  8
0
 10
4160.3271112901620654
 20
111.9280406516931947
 30
0.0
 40
3.8295029415884252
 50
58.0806253406840582
 51
68.78779687989352
  0
ARC
  5
1105B
  8
0
 10
4162.3134356546152048
 20
115.4136430102778945
 30
0.0
 40
0.0868568194002117
 50
3.2298470901080658
 51
76.0478732788574092
  0
ARC
  5
1105C
  8
0
 10
4165.3578753367655736
 20
115.5854445573922931
 30
0.0
 40
2.9624264980123058
 50
183.2298470901079952
 51
185.9392898978169058
  0
ARC
  5
1105D
  8
0
 10
4162.5218759284271073
 20
115.2895255487653969
 30
0.0
 40
0.1110338203750881
 50
185.486947690514512
 51
269.5130523133490215
  0
ARC
  5
1105E
  8
0
 10
4163.7124286007247065
 20
115.2884957383233058
 30
0.0
 40
0.1100000000657645
 50
270.0
 51
354.9999987206849141
  0
LINE
  5
1105F
  8
0
 10
4163.8220100175658445
 20
115.2789086065686064
 30
0.0
 11
4163.8411417966017325
 21
115.4975858414571945
 31
0.0
  0
ARC
  5
11060
  8
0
 10
4171.6268360492704232
 20
115.4136430102778945
 30
0.0
 40
0.0868568194002117
 50
103.952126721142605
 51
176.7701529098918911
  0
ARC
  5
11061
  8
0
 10
4168.582396367119145
 20
115.5854445573922931
 30
0.0
 40
2.9624264980123058
 50
354.0607101021823269
 51
356.7701529098919764
  0
ARC
  5
11062
  8
0
 10
4171.4183957754576113
 20
115.2895255487653969
 30
0.0
 40
0.1110338203750881
 50
270.4869476866509785
 51
354.513052309485488
  0
ARC
  5
11063
  8
0
 10
4170.2278431031600121
 20
115.2884957383233058
 30
0.0
 40
0.1100000000657645
 50
185.0000012793150006
 51
270.0
  0
LINE
  5
11064
  8
0
 10
4170.1182616863188741
 20
115.2789086065686064
 30
0.0
 11
4170.0991299072838956
 21
115.4975858414571945
 31
0.0
  0
LINE
  5
11065
  8
0
 10
4174.1979240308883163
 20
115.1784957387005051
 30
0.0
 11
4159.7929298142453263
 21
115.1784957387004056
 31
0.0
  0
LINE
  5
11066
  8
0
 10
4174.0501791941678675
 20
115.4984957383686037
 30
0.0
 11
4159.9406746509648656
 21
115.4984957383686037
 31
0.0
  0
LINE
  5
11067
  8
0
 10
4174.1107298825445469
 20
115.5734957383686066
 30
0.0
 11
4174.1107298825445469
 21
115.5392359082725022
 31
0.0
  0
ARC
  5
11068
  8
0
 10
4173.570907927171902
 20
112.0226201024267993
 30
0.0
 40
3.7259959812965029
 50
111.1130450027412024
 51
122.1143859211490934
  0
ARC
  5
11069
  8
0
 10
4171.6661005578771437
 20
115.1297517002686988
 30
0.0
 40
0.2631829575615831
 50
35.2506167980838327
 51
47.5863485630120095
  0
LINE
  5
1106A
  8
0
 10
4165.5018533286920501
 20
116.5484957383686009
 30
0.0
 11
4168.4890005164415925
 21
116.5484957383686009
 31
0.0
  0
ARC
  5
1106B
  8
0
 10
4165.5018533286920501
 20
116.2984957383687004
 30
0.0
 40
0.25
 50
90.0
 51
129.9403266328307893
  0
LINE
  5
1106C
  8
0
 10
4161.9988956684674122
 20
99.9754507165004753
 30
0.0
 11
4171.9919581766662304
 21
99.9754507165004753
 31
0.0
  0
ARC
  5
1106D
  8
0
 10
4159.9983756773772257
 20
114.9814957387005023
 30
0.0
 40
0.197
 50
90.0
 51
170.1290257313642087
  0
LINE
  5
1106E
  8
0
 10
4174.4854287382258917
 20
113.2977004205908003
 30
0.0
 11
4159.5054251069068414
 21
113.2977004205908003
 31
0.0
  0
LINE
  5
1106F
  8
0
 10
4174.3238735578170235
 20
113.0263787740504995
 30
0.0
 11
4159.6669802873157096
 21
113.0263787740504995
 31
0.0
  0
LINE
  5
11070
  8
0
 10
4158.8478379554662752
 20
129.3519760536005094
 30
0.0
 11
4175.1430158896655485
 21
129.3519760536005094
 31
0.0
  0
LINE
  5
11071
  8
0
 10
4158.7686379554670566
 20
128.2377240851004956
 30
0.0
 11
4175.2222158896656765
 21
128.2377240851004956
 31
0.0
  0
LINE
  5
11072
  8
0
 10
4158.650737955466866
 20
129.1548760536003897
 30
0.0
 11
4158.650737955466866
 21
128.3556240851004873
 31
0.0
  0
ARC
  5
11073
  8
0
 10
4158.8478379554662752
 20
129.1548760536003897
 30
0.0
 40
0.1971
 50
90.0
 51
180.0
  0
ARC
  5
11074
  8
0
 10
4158.7686379554670566
 20
128.3556240851004873
 30
0.0
 40
0.1179
 50
179.9999999999984084
 51
270.0
  0
LINE
  5
11075
  8
0
 10
4158.9876734236659104
 20
128.2377240851004956
 30
0.0
 11
4159.3931344130578509
 21
115.5657036634412975
 31
0.0
  0
ARC
  5
11076
  8
0
 10
4159.7929298142453263
 20
115.5784957387004965
 30
0.0
 40
0.4
 50
181.8326422832597018
 51
270.0
  0
LINE
  5
11077
  8
0
 10
4159.5054251069068414
 20
113.2977004205908003
 30
0.0
 11
4159.8042920066536681
 21
115.015267454057593
 31
0.0
  0
ARC
  5
11078
  8
0
 10
4159.750123943381368
 20
113.2600989111340937
 30
0.0
 40
0.2475709879717861
 50
171.2640087747527957
 51
250.1062521850124938
  0
ARC
  5
11079
  8
0
 10
4159.5202191872222102
 20
112.8527196758114997
 30
0.0
 40
0.2273682099632718
 50
1.169478366786175
 51
50.1601495702560101
  0
ARC
  5
1107A
  8
0
 10
4160.9748034727472259
 20
112.9795785951943969
 30
0.0
 40
1.2333340480698269
 50
185.6871119448983052
 51
189.3110609594876053
  0
ARC
  5
1107B
  8
0
 10
4165.7326562600901525
 20
114.0630250043316067
 30
0.0
 40
6.1093137942055371
 50
192.1179155377724896
 51
239.0107531050194041
  0
LINE
  5
1107C
  8
0
 10
4162.6296215992670113
 20
108.7778670365160991
 30
0.0
 11
4161.9988956684674122
 21
99.9754507165004753
 31
0.0
  0
ARC
  5
1107D
  8
0
 10
4162.499344025532082
 20
108.7049672512927998
 30
0.0
 40
0.149287055379243
 50
29.2301891033032497
 51
53.9918616509802334
  0
ARC
  5
1107E
  8
0
 10
4162.8083278739195521
 20
108.761068654540594
 30
0.0
 40
0.1794940618433149
 50
174.6299786317937048
 51
223.5703188955700114
  0
ARC
  5
1107F
  8
0
 10
4162.8457752038511899
 20
108.7970902762850045
 30
0.0
 40
0.2314536160312845
 50
223.6416995019976923
 51
274.1487938849072066
  0
ARC
  5
11080
  8
0
 10
4161.4568754227648242
 20
155.0513334917930024
 30
0.0
 40
46.5063378334162891
 50
271.7320172088410004
 51
274.4322619087632802
  0
ARC
  5
11081
  8
0
 10
4166.8306031986248854
 20
6.464750746887673
 30
0.0
 40
102.2348185881676983
 50
89.9076418295410065
 51
90.9974520226827082
  0
ARC
  5
11082
  8
0
 10
4173.9924781677536885
 20
114.9814957387005023
 30
0.0
 40
0.197
 50
9.8709742686357345
 51
90.0
  0
LINE
  5
11083
  8
0
 10
4175.3401158896667766
 20
129.1548760536003897
 30
0.0
 11
4175.3401158896667766
 21
128.3556240851004873
 31
0.0
  0
ARC
  5
11084
  8
0
 10
4175.1430158896655485
 20
129.1548760536003897
 30
0.0
 40
0.1971
 50
0.0
 51
90.0
  0
ARC
  5
11085
  8
0
 10
4175.2222158896656765
 20
128.3556240851004873
 30
0.0
 40
0.1179
 50
270.0
 51
0.0000000000016284
  0
LINE
  5
11086
  8
0
 10
4175.0031804214668227
 20
128.2377240851004956
 30
0.0
 11
4174.5977194320757917
 21
115.5657036634412975
 31
0.0
  0
ARC
  5
11087
  8
0
 10
4174.1979240308883163
 20
115.5784957387004965
 30
0.0
 40
0.4
 50
270.0
 51
358.1673577167402982
  0
LINE
  5
11088
  8
0
 10
4174.4854287382258917
 20
113.2977004205908003
 30
0.0
 11
4174.186561838479065
 21
115.015267454057593
 31
0.0
  0
ARC
  5
11089
  8
0
 10
4174.2407299017522746
 20
113.2600989111340937
 30
0.0
 40
0.2475709879717861
 50
289.8937478149874778
 51
8.7359912252471315
  0
ARC
  5
1108A
  8
0
 10
4174.4706346579096135
 20
112.8527196758114997
 30
0.0
 40
0.2273682099632718
 50
129.8398504297439899
 51
178.8305216332138059
  0
ARC
  5
1108B
  8
0
 10
4173.0160503723845977
 20
112.9795785951943969
 30
0.0
 40
1.2333340480698269
 50
350.6889390405124232
 51
354.3128880551016096
  0
ARC
  5
1108C
  8
0
 10
4168.2581975850425806
 20
114.0630250043316067
 30
0.0
 40
6.1093137942055371
 50
300.9892468949806243
 51
347.8820844622275104
  0
LINE
  5
1108D
  8
0
 10
4171.3612322458657218
 20
108.7778670365160991
 30
0.0
 11
4171.9919581766662304
 21
99.9754507165004753
 31
0.0
  0
ARC
  5
1108E
  8
0
 10
4171.4915098196006511
 20
108.7049672512927998
 30
0.0
 40
0.1492870553792989
 50
126.0081383490217064
 51
150.7698108966932011
  0
ARC
  5
1108F
  8
0
 10
4171.1825259712140905
 20
108.761068654540594
 30
0.0
 40
0.1794940618433149
 50
316.4296811044300171
 51
5.3700213682062934
  0
ARC
  5
11090
  8
0
 10
4171.1450786412824527
 20
108.7970902762850045
 30
0.0
 40
0.2314536160312845
 50
265.8512061150926797
 51
316.3583004980022793
  0
ARC
  5
11091
  8
0
 10
4172.5339784223669994
 20
155.0513334917930024
 30
0.0
 40
46.5063378334162891
 50
265.5677380912367198
 51
268.2679827911589996
  0
ARC
  5
11092
  8
0
 10
4167.1602389398549349
 20
6.4638256344242961
 30
0.0
 40
102.2357437642379949
 50
89.002550442920608
 51
90.092379864227297
  0
ARC
  5
11093
  8
0
 10
4168.8708139107802708
 20
116.6203405270481994
 30
0.0
 40
0.2469921621511051
 50
226.3193238652177968
 51
269.1443701680670983
  0
ARC
  5
11094
  8
0
 10
4168.3047619571198084
 20
116.0784637840714026
 30
0.0
 40
0.5369806747022254
 50
42.5685049035472289
 51
50.0596733672138683
  0
ARC
  5
11095
  8
0
 10
4168.4890005164415925
 20
116.2984957383687004
 30
0.0
 40
0.25
 50
50.0596733671692107
 51
90.0
  0
LINE
  5
11097
  8
0
 10
4159.6868422502657268
 20
126.9470469072004022
 30
0.0
 11
4159.6868422502657268
 21
126.845503348200495
 31
0.0
  0
LINE
  5
11098
  8
0
 10
4159.7066086595668821
 20
126.825503348200499
 30
0.0
 11
4159.8832650259673755
 21
126.8145607054004955
 31
0.0
  0
LINE
  5
11099
  8
0
 10
4159.8832650259673755
 20
126.8145607054004955
 30
0.0
 11
4160.9071459461483755
 21
126.8145607054004955
 31
0.0
  0
ARC
  5
1109A
  8
0
 10
4160.8624842797553356
 20
127.0253630682539949
 30
0.0
 40
0.0648289204414101
 50
315.7169366357829858
 51
350.7192451268530817
  0
ARC
  5
1109B
  8
0
 10
4160.8771696205558328
 20
127.0121294122091058
 30
0.0
 40
0.0450826625325217
 50
269.8485371321232265
 51
314.7661660456370782
  0
ARC
  5
1109C
  8
0
 10
4161.5665408724125882
 20
126.9035844804210029
 30
0.0
 40
0.6496826467667387
 50
147.9831000159159942
 51
170.1336765358707055
  0
ARC
  5
1109D
  8
0
 10
4161.4872468006487907
 20
126.9531654426146048
 30
0.0
 40
0.5561635490974682
 50
90.7423278755577911
 51
147.9831000159159942
  0
ARC
  5
1109E
  8
0
 10
4161.4853629028757496
 20
127.0985639319796974
 30
0.0
 40
0.4107528556101436
 50
64.3008916357942581
 51
90.7423278755577911
  0
ARC
  5
1109F
  8
0
 10
4161.3942339545192226
 20
126.9092044222754936
 30
0.0
 40
0.620899254922895
 50
1.1347709981414891
 51
64.3008916357942581
  0
ARC
  5
110A0
  8
0
 10
4161.349391380878842
 20
126.9083161769806054
 30
0.0
 40
0.6657506249182646
 50
300.6177608125062193
 51
1.1347709981414891
  0
ARC
  5
110A1
  8
0
 10
4161.4907446956358399
 20
126.6694697848834039
 30
0.0
 40
0.3882107924422088
 50
264.6392647192345748
 51
300.6177608125062193
  0
ARC
  5
110A2
  8
0
 10
4161.5113382079889561
 20
126.888931534923401
 30
0.0
 40
0.608636635940028
 50
225.2193578161725043
 51
264.6392647192345748
  0
ARC
  5
110A3
  8
0
 10
4161.4608064152880615
 20
126.8380113297125007
 30
0.0
 40
0.5368987145005264
 50
186.3859700091331888
 51
225.2193578161725043
  0
ARC
  5
110A4
  8
0
 10
4160.8736356720610274
 20
126.7722951634063975
 30
0.0
 40
0.0539380617881994
 50
6.3859700091340814
 51
68.158522601409274
  0
ARC
  5
110A5
  8
0
 10
4160.8770846139932473
 20
126.7809000624490068
 30
0.0
 40
0.0446677064561214
 50
68.158522601409274
 51
86.9224455276200842
  0
LINE
  5
110A6
  8
0
 10
4159.7068422502670728
 20
126.825503348200499
 30
0.0
 11
4160.8794827174506281
 21
126.825503348200499
 31
0.0
  0
LINE
  5
110A7
  8
0
 10
4159.7068422502670728
 20
126.9670469072004977
 30
0.0
 11
4160.8770504434223767
 21
126.9670469072004977
 31
0.0
  0
LINE
  5
110A8
  8
0
 10
4160.9066130625469668
 20
126.9779895501005029
 30
0.0
 11
4159.8832650259673755
 21
126.9779895501005029
 31
0.0
  0
LINE
  5
110A9
  8
0
 10
4159.7061141895028413
 20
126.9670469072004977
 30
0.0
 11
4159.8832650259673755
 21
126.9779895501005029
 31
0.0
  0
ARC
  5
110AA
  8
0
 10
4159.7068422502670728
 20
126.9470469072004022
 30
0.0
 40
0.02
 50
90.0
 51
179.9999999999893987
  0
ARC
  5
110AB
  8
0
 10
4159.7068422502670728
 20
126.845503348200495
 30
0.0
 40
0.02
 50
180.0
 51
270.0
  0
ARC
  5
110AC
  8
0
 10
4161.651191562045824
 20
126.948009426682404
 30
0.0
 40
0.573622435332907
 50
63.9572929705409408
 51
87.934264327366634
  0
ARC
  5
110AD
  8
0
 10
4161.5968094403597206
 20
126.9120509545686986
 30
0.0
 40
0.6306737160153667
 50
358.564007546774917
 51
60.9512532629105692
  0
ARC
  5
110AE
  8
0
 10
4161.804274698338304
 20
123.6775408234232998
 30
0.0
 40
3.8459981115660149
 50
91.9729134424571839
 51
94.9660778087328055
  0
ARC
  5
110AF
  8
0
 10
4161.651191562045824
 20
126.8444828981184997
 30
0.0
 40
0.573622435332907
 50
272.0657356726334228
 51
296.042707029459109
  0
ARC
  5
110B0
  8
0
 10
4161.5968094403597206
 20
126.8804413702322051
 30
0.0
 40
0.6306737160153753
 50
299.0487467370894024
 51
1.4359924532250641
  0
ARC
  5
110B1
  8
0
 10
4161.804274698338304
 20
130.1149515013777034
 30
0.0
 40
3.8459981115660149
 50
265.4078593822736138
 51
268.0270865575427024
  0
ARC
  5
110B2
  8
0
 10
4174.050809992446375
 20
115.5584123663909963
 30
0.0
 40
0.059919948431568
 50
269.3968161245289821
 51
0.0799486202192643
  0
ENDSEC
  0
EOF
