  0
SECTION
  2
HEADER
  9
$ACADVER
  1
AC1009
  9
$INSBASE
 10
276.7280170738204106
 20
8.7521640242007663
 30
0.0
  9
$EXTMIN
 10
275.2126888923501724
 20
7.7116927552070251
 30
-0.0015258207003583
  9
$EXTMAX
 10
278.2270663148167955
 20
9.7387000256167475
 30
0.0000000349246037
  9
$LIMMIN
 10
0.0
 20
0.0
  9
$LIMMAX
 10
11.6929133858000007
 20
8.2677165353999982
  9
$ORTHOMODE
 70
     0
  9
$REGENMODE
 70
     1
  9
$FILLMODE
 70
     1
  9
$QTEXTMODE
 70
     0
  9
$MIRRTEXT
 70
     0
  9
$DRAGMODE
 70
     2
  9
$LTSCALE
 40
0.6431102362
  9
$OSMODE
 70
  4095
  9
$ATTMODE
 70
     1
  9
$TEXTSIZE
 40
0.2
  9
$TRACEWID
 40
0.05
  9
$TEXTSTYLE
  7
STANDARD
  9
$CLAYER
  8
0
  9
$CELTYPE
  6
BYLAYER
  9
$CECOLOR
 62
   256
  9
$DIMSCALE
 40
1.0
  9
$DIMASZ
 40
0.1875
  9
$DIMEXO
 40
0.0625
  9
$DIMDLI
 40
0.4443307087
  9
$DIMRND
 40
0.0
  9
$DIMDLE
 40
0.0
  9
$DIMEXE
 40
0.125
  9
$DIMTP
 40
0.01
  9
$DIMTM
 40
0.01
  9
$DIMTXT
 40
0.15625
  9
$DIMCEN
 40
0.1052362205
  9
$DIMTSZ
 40
0.0
  9
$DIMTOL
 70
     1
  9
$DIMLIM
 70
     0
  9
$DIMTIH
 70
     1
  9
$DIMTOH
 70
     1
  9
$DIMSE1
 70
     0
  9
$DIMSE2
 70
     0
  9
$DIMTAD
 70
     0
  9
$DIMZIN
 70
     0
  9
$DIMBLK
  1

  9
$DIMASO
 70
     1
  9
$DIMSHO
 70
     1
  9
$DIMPOST
  1
\X
  9
$DIMAPOST
  1

  9
$DIMALT
 70
     1
  9
$DIMALTD
 70
     2
  9
$DIMALTF
 40
25.3999999999999986
  9
$DIMLFAC
 40
1.0
  9
$DIMTOFL
 70
     0
  9
$DIMTVP
 40
0.0
  9
$DIMTIX
 70
     0
  9
$DIMSOXD
 70
     0
  9
$DIMSAH
 70
     0
  9
$DIMBLK1
  1

  9
$DIMBLK2
  1

  9
$DIMSTYLE
  2
STANDARD
  9
$DIMCLRD
 70
     0
  9
$DIMCLRE
 70
     0
  9
$DIMCLRT
 70
     0
  9
$DIMTFAC
 40
1.0
  9
$DIMGAP
 40
0.09
  9
$LUNITS
 70
     2
  9
$LUPREC
 70
     4
  9
$SKETCHINC
 40
0.1
  9
$FILLETRAD
 40
0.0
  9
$AUNITS
 70
     0
  9
$AUPREC
 70
     0
  9
$MENU
  1
.
  9
$ELEVATION
 40
0.0
  9
$PELEVATION
 40
0.0
  9
$THICKNESS
 40
0.0
  9
$LIMCHECK
 70
     0
  9
$BLIPMODE
 70
     0
  9
$CHAMFERA
 40
0.0
  9
$CHAMFERB
 40
0.0
  9
$SKPOLY
 70
     0
  9
$TDCREATE
 40
2458018.639108797069639
  9
$TDUPDATE
 40
2460182.5643518520519137
  9
$TDINDWG
 40
0.3594092593
  9
$TDUSRTIMER
 40
0.3594092593
  9
$USRTIMER
 70
     1
  9
$ANGBASE
 50
0.0
  9
$ANGDIR
 70
     0
  9
$PDMODE
 70
     0
  9
$PDSIZE
 40
0.3125
  9
$PLINEWID
 40
0.0
  9
$COORDS
 70
     1
  9
$SPLFRAME
 70
     0
  9
$SPLINETYPE
 70
     6
  9
$SPLINESEGS
 70
     8
  9
$ATTDIA
 70
     1
  9
$ATTREQ
 70
     1
  9
$HANDLING
 70
     1
  9
$HANDSEED
  5
ADBB
  9
$SURFTAB1
 70
     6
  9
$SURFTAB2
 70
     6
  9
$SURFTYPE
 70
     6
  9
$SURFU
 70
     6
  9
$SURFV
 70
     6
  9
$UCSNAME
  2

  9
$UCSORG
 10
0.0
 20
0.0
 30
0.0
  9
$UCSXDIR
 10
1.0
 20
0.0
 30
0.0
  9
$UCSYDIR
 10
0.0
 20
1.0
 30
0.0
  9
$PUCSNAME
  2

  9
$PUCSORG
 10
0.0
 20
0.0
 30
0.0
  9
$PUCSXDIR
 10
1.0
 20
0.0
 30
0.0
  9
$PUCSYDIR
 10
0.0
 20
1.0
 30
0.0
  9
$USERI1
 70
     0
  9
$USERI2
 70
     0
  9
$USERI3
 70
     0
  9
$USERI4
 70
     0
  9
$USERI5
 70
     0
  9
$USERR1
 40
0.0
  9
$USERR2
 40
0.0
  9
$USERR3
 40
0.0
  9
$USERR4
 40
0.0
  9
$USERR5
 40
0.0
  9
$WORLDVIEW
 70
     1
  9
$SHADEDGE
 70
     3
  9
$SHADEDIF
 70
    70
  9
$TILEMODE
 70
     1
  9
$MAXACTVP
 70
    64
  9
$PLIMCHECK
 70
     0
  9
$PEXTMIN
 10
1.0000000000000000E+20
 20
1.0000000000000000E+20
 30
1.0000000000000000E+20
  9
$PEXTMAX
 10
-1.0000000000000000E+20
 20
-1.0000000000000000E+20
 30
-1.0000000000000000E+20
  9
$PLIMMIN
 10
0.0
 20
0.0
  9
$PLIMMAX
 10
12.0
 20
9.0
  9
$UNITMODE
 70
     0
  9
$VISRETAIN
 70
     1
  9
$PLINEGEN
 70
     0
  9
$PSLTSCALE
 70
     1
  0
ENDSEC
  0
SECTION
  2
TABLES
  0
TABLE
  2
VPORT
 70
     1
  0
VPORT
  2
*ACTIVE
 70
     0
 10
0.0
 20
0.0
 11
1.0
 21
1.0
 12
181.3956166058457882
 22
1.6888643791890461
 13
0.0
 23
0.0
 14
1.0
 24
1.0
 15
0.0
 25
0.0
 16
-0.0000000000000142
 26
0.0
 36
39.3282560748450578
 17
95.3242609977377526
 27
7.0363320112228394
 37
0.0
 40
2.0451867078124999
 41
2.8368263473053892
 42
50.0
 43
0.0
 44
0.0
 50
0.0
 51
0.0
 71
     0
 72
   100
 73
     1
 74
     1
 75
     0
 76
     0
 77
     0
 78
     0
  0
ENDTAB
  0
TABLE
  2
LTYPE
 70
     2
  0
LTYPE
  2
CONTINUOUS
 70
     0
  3
Solid line
 72
    65
 73
     0
 40
0.0
  0
LTYPE
  2
PHANTOM2
 70
     0
  3
___ _ _ ___ _ _ ___ _ _ ___ _ _
 72
    65
 73
     6
 40
1.25
 49
0.625
 49
-0.125
 49
0.125
 49
-0.125
 49
0.125
 49
-0.125
  0
ENDTAB
  0
TABLE
  2
LAYER
 70
     2
  0
LAYER
  2
0
 70
     0
 62
   255
  6
CONTINUOUS
  0
LAYER
  2
DEFPOINTS
 70
     0
 62
     7
  6
CONTINUOUS
  0
ENDTAB
  0
TABLE
  2
STYLE
 70
     1
  0
STYLE
  2
STANDARD
 70
     0
 40
0.0
 41
0.8
 50
0.0
 71
     0
 42
0.2
  3
txt
  4

  0
ENDTAB
  0
TABLE
  2
VIEW
 70
     0
  0
ENDTAB
  0
TABLE
  2
UCS
 70
     0
  0
ENDTAB
  0
TABLE
  2
APPID
 70
    10
  0
APPID
  2
ACAD
 70
     0
  0
APPID
  2
ACAD_MLEADERVER
 70
     0
  0
APPID
  2
ACAD_DSTYLE_DIMJAG
 70
     0
  0
APPID
  2
ACAD_DSTYLE_DIMTALN
 70
     0
  0
APPID
  2
ACAD_NAV_VCDISPLAY
 70
     0
  0
APPID
  2
ACAD_EXEMPT_FROM_CAD_STANDARDS
 70
     0
  0
APPID
  2
ACAECLAYERSTANDARD
 70
     0
  0
APPID
  2
ACCMTRANSPARENCY
 70
     0
  0
APPID
  2
DCO15
 70
     0
  0
APPID
  2
ACDBATTR
 70
     0
  0
ENDTAB
  0
TABLE
  2
DIMSTYLE
 70
     1
  0
DIMSTYLE
  2
STANDARD
 70
     0
  3

  4

  5

  6

  7

 40
1.0
 41
0.1875
 42
0.0625
 43
0.38
 44
0.125
 45
0.0
 46
0.0
 47
0.01
 48
0.01
140
0.15625
141
0.09
142
0.0
143
25.3999999999999986
144
1.0
145
0.0
146
1.0
147
0.09
 71
     1
 72
     0
 73
     1
 74
     1
 75
     0
 76
     0
 77
     0
 78
     4
170
     0
171
     2
172
     0
173
     0
174
     0
175
     0
176
     0
177
     0
178
     0
  0
ENDTAB
  0
ENDSEC
  0
SECTION
  2
BLOCKS
  0
BLOCK
  8
0
  2
$MODEL_SPACE
 70
     0
 10
0.0
 20
0.0
 30
0.0
  3
$MODEL_SPACE
  1

  0
ENDBLK
  5
21
  8
0
  0
BLOCK
 67
     1
  8
0
  2
$PAPER_SPACE
 70
     0
 10
0.0
 20
0.0
 30
0.0
  3
$PAPER_SPACE
  1

  0
ENDBLK
  5
1D
 67
     1
  8
0
  0
BLOCK
  8
0
  2
_FILLED
 70
     0
 10
0.0
 20
0.0
 30
0.0
  3
_FILLED
  1

  0
SOLID
  5
A58D
  8
0
  6
BYBLOCK
 62
     0
 10
0.0
 20
0.0
 30
0.0
 11
-1.0
 21
0.1666666667
 31
0.0
 12
-1.0
 22
-0.1666666667
 32
0.0
 13
-1.0
 23
-0.1666666667
 33
0.0
  0
ENDBLK
  5
A58E
  8
0
  6
BYBLOCK
 62
     0
  0
ENDSEC
  0
SECTION
  2
ENTITIES
  0
ATTDEF
  5
7A6E
  8
DEFPOINTS
 10
276.7282373961980966
 20
8.7506051623842591
 30
0.0
 40
0.001
  1
K-22308IN
  3

  2
MODELNUMBER
 70
     0
1001
ACDBATTR
1070
     0
1070
     1
  0
ATTDEF
  5
7A6F
  8
DEFPOINTS
 10
276.7282373961980966
 20
8.7489384957175957
 30
0.0
 40
0.001
  1
MODERNLIFE
  3

  2
TRADENAME
 70
     0
1001
ACDBATTR
1070
     0
1070
     1
  0
ATTDEF
  5
7A70
  8
DEFPOINTS
 10
276.7282373961980966
 20
8.7472718290509306
 30
0.0
 40
0.001
  1
SHOWER ARM
  3

  2
PRODUCT
 70
     0
1001
ACDBATTR
1070
     0
1070
     1
  0
LINE
  5
A878
  8
0
 10
278.1630933768703926
 20
9.7384293036507685
 30
0.0
 11
275.2929407707703717
 21
9.7384293036507685
 31
0.0
  0
LINE
  5
A879
  8
0
 10
276.4343413224519281
 20
7.711787808964349
 30
0.0
 11
276.1025786287178789
 21
7.711787808964349
 31
0.0
  0
LINE
  5
A87A
  8
0
 10
277.5444400924346837
 20
8.5155490370124411
 30
0.0
 11
276.7834904941702803
 21
8.5155490370124411
 31
0.0
  0
LINE
  5
A87B
  8
0
 10
276.6725436534704841
 20
8.5155490370124411
 30
0.0
 11
275.9115940552060806
 21
8.5155490370124411
 31
0.0
  0
LINE
  5
A87C
  8
0
 10
276.3193851223658157
 20
8.5388475410897016
 30
0.0
 11
276.2715488814399123
 21
8.5388475410897016
 31
0.0
  0
LINE
  5
A87D
  8
0
 10
277.6135288848703908
 20
8.6301401583507662
 30
0.0
 11
275.8425052627703735
 21
8.6301401583507662
 31
0.0
  0
LINE
  5
A87E
  8
0
 10
277.6135288848702771
 20
9.4174218081507668
 30
0.0
 11
275.8425052627704872
 21
9.4174218081507668
 31
0.0
  0
LINE
  5
A87F
  8
0
 10
275.2299407707703836
 20
9.6754293036507661
 30
0.0
 11
275.2299407707703836
 21
7.8288987447507639
 31
0.0
  0
ARC
  5
A880
  8
0
 10
275.2929407707703717
 20
9.6754293036507661
 30
0.0
 40
0.063
 50
90.0
 51
179.9999999999992042
  0
LINE
  5
A881
  8
0
 10
278.1630933768703926
 20
7.7658987447507641
 30
0.0
 11
277.5313529039698892
 21
7.7658987447507641
 31
0.0
  0
LINE
  5
A882
  8
0
 10
275.9246812436708751
 20
7.7658987447507641
 30
0.0
 11
275.2929407707703717
 21
7.7658987447507641
 31
0.0
  0
ARC
  5
A883
  8
0
 10
275.2929407707703717
 20
7.8288987447507639
 30
0.0
 40
0.063
 50
180.0
 51
270.0
  0
LINE
  5
A884
  8
0
 10
275.8225052627703917
 20
8.3387806776090354
 30
0.0
 11
275.8225052627703917
 21
9.3974218081507672
 31
0.0
  0
ARC
  5
A885
  8
0
 10
275.8425052627703735
 20
8.6501401583507693
 30
0.0
 40
0.02
 50
179.9999999999949125
 51
270.0
  0
ARC
  5
A886
  8
0
 10
275.8425052627704872
 20
9.3974218081507672
 30
0.0
 40
0.02
 50
90.0
 51
179.9999999999974136
  0
LINE
  5
A887
  8
0
 10
275.9251867560112146
 20
7.7369423745857411
 30
0.0
 11
275.9115940552060806
 21
8.5155490370124411
 31
0.0
  0
LINE
  5
A888
  8
0
 10
276.6600423039133148
 20
7.7366355681668111
 30
0.0
 11
276.6715369205713273
 21
8.5072879038695355
 31
0.0
  0
ARC
  5
A889
  8
0
 10
276.2342751086125077
 20
13.7563697027049496
 30
0.0
 40
6.0460163937053082
 50
267.2493027455852825
 51
268.7518642342932935
  0
ARC
  5
A88A
  8
0
 10
275.9451837089861215
 20
7.7372914758867131
 30
0.0
 40
0.02
 50
181.0001523504201089
 51
266.9657917560350029
  0
ARC
  5
A88B
  8
0
 10
276.43120491170572
 20
11.9710397914836797
 30
0.0
 40
4.2592531373079083
 50
270.0421912267149764
 51
272.8237223331756809
  0
ARC
  5
A88C
  8
0
 10
276.6400445282449141
 20
7.7369338437376109
 30
0.0
 40
0.02
 50
272.8237223331854011
 51
359.1454717535920054
  0
LINE
  5
A88D
  8
0
 10
276.7107325608812971
 20
8.5459032837507678
 30
0.0
 11
276.7453015867594104
 21
8.5459032837507678
 31
0.0
  0
ARC
  5
A88E
  8
0
 10
276.7107325608812971
 20
8.5067032837507686
 30
0.0
 40
0.0392
 50
90.0
 51
179.1454717535968939
  0
LINE
  5
A88F
  8
0
 10
276.1569284482091007
 20
8.5514119968007698
 30
0.0
 11
275.8225052627703917
 21
8.5514119968007698
 31
0.0
  0
LINE
  5
A890
  8
0
 10
276.4328854285154762
 20
8.5514119968007698
 30
0.0
 11
277.0231487191252882
 21
8.5514119968007698
 31
0.0
  0
LINE
  5
A891
  8
0
 10
277.2991056994317205
 20
8.5514119968007698
 30
0.0
 11
277.6335288848703726
 21
8.5514119968007698
 31
0.0
  0
ARC
  5
A892
  8
0
 10
275.8729955126328264
 20
8.5146478485478774
 30
0.0
 40
0.0386090614938075
 50
1.3374835668205229
 51
72.2161584508155698
  0
ARC
  5
A893
  8
0
 10
275.8610357384000054
 20
5.3230027324740199
 30
0.0
 40
3.2419406030507392
 50
82.7253498136291228
 51
84.7633124983445043
  0
ARC
  5
A894
  8
0
 10
276.7161295420808074
 20
5.4738106254661281
 30
0.0
 40
3.0906079383691161
 50
95.2583493918153721
 51
97.3754685438591281
  0
LINE
  5
A895
  8
0
 10
275.914680071867906
 20
8.3387781974507682
 30
0.0
 11
275.8228202233703996
 21
8.3387781974507682
 31
0.0
  0
LINE
  5
A896
  8
0
 10
275.8028202233704178
 20
8.3587781974507678
 30
0.0
 11
275.8028202233704178
 21
9.1458648116507675
 31
0.0
  0
ARC
  5
A897
  8
0
 10
275.8228202233703996
 20
8.358778197450766
 30
0.0
 40
0.02
 50
179.9999999999974136
 51
270.0000000000032969
  0
ARC
  5
A898
  8
0
 10
275.8225052627703917
 20
9.1458648116507675
 30
0.0
 40
0.0196850393999991
 50
89.9999999998860147
 51
180.0
  0
LINE
  5
A899
  8
0
 10
275.885497388770375
 20
8.697063086301414
 30
0.0
 11
275.885497388770375
 21
9.3342330412507692
 31
0.0
  0
LINE
  5
A89A
  8
0
 10
275.9054973887704136
 20
8.6929165595507651
 30
0.0
 11
277.5505367588704075
 21
8.6929165595507651
 31
0.0
  0
ARC
  5
A89B
  8
0
 10
275.9054973887704136
 20
8.7129165595507665
 30
0.0
 40
0.02
 50
180.0
 51
270.0000000000032969
  0
LINE
  5
A89C
  8
0
 10
275.9054973887704136
 20
9.3542330412507688
 30
0.0
 11
277.5505367588704075
 21
9.3542330412507688
 31
0.0
  0
ARC
  5
A89D
  8
0
 10
275.9054973887704136
 20
9.3342330412507675
 30
0.0
 40
0.02
 50
90.0
 51
179.9999999999974136
  0
LINE
  5
A89E
  8
0
 10
275.867780561103018
 20
8.7094091455599063
 30
0.0
 11
275.867780561103018
 21
9.3381528209416267
 31
0.0
  0
LINE
  5
A89F
  8
0
 10
275.9017805611030099
 20
8.6754091455599056
 30
0.0
 11
277.5542535865378113
 21
8.6754091455599056
 31
0.0
  0
LINE
  5
A8A0
  8
0
 10
275.901559255430584
 20
8.6889801513507674
 30
0.0
 11
277.554474892210294
 21
8.6889801513507674
 31
0.0
  0
LINE
  5
A8A1
  8
0
 10
275.8815592554306022
 20
8.7089801513507652
 30
0.0
 11
275.8815592554306022
 21
9.3381695536507685
 31
0.0
  0
ARC
  5
A8A2
  8
0
 10
275.901559255430584
 20
8.7089801513507652
 30
0.0
 40
0.02
 50
180.0
 51
270.0
  0
ARC
  5
A8A3
  8
0
 10
275.9017805611030099
 20
8.7094091455599063
 30
0.0
 40
0.034
 50
180.0
 51
270.0
  0
LINE
  5
A8A4
  8
0
 10
275.901559255430584
 20
9.3581695536507681
 30
0.0
 11
277.554474892210294
 21
9.3581695536507681
 31
0.0
  0
LINE
  5
A8A5
  8
0
 10
275.9017805611030099
 20
9.3721528209416274
 30
0.0
 11
277.5542535865378113
 21
9.3721528209416274
 31
0.0
  0
ARC
  5
A8A6
  8
0
 10
275.9017805611030099
 20
9.3381528209416267
 30
0.0
 40
0.034
 50
90.0
 51
180.0
  0
ARC
  5
A8A7
  8
0
 10
275.901559255430584
 20
9.3381695536507685
 30
0.0
 40
0.02
 50
89.9999999999967457
 51
180.0
  0
LINE
  5
A8A8
  8
0
 10
275.9014658926703873
 20
8.6948848365565912
 30
0.0
 11
277.554568254970377
 21
8.6948848365565912
 31
0.0
  0
LINE
  5
A8A9
  8
0
 10
275.8874658926703773
 20
8.7088848365565923
 30
0.0
 11
275.8874658926703773
 21
9.3382649412507668
 31
0.0
  0
ARC
  5
A8AA
  8
0
 10
275.9014658926703873
 20
8.7088848365565905
 30
0.0
 40
0.014
 50
179.9999999999963052
 51
269.9999999999968168
  0
LINE
  5
A8AB
  8
0
 10
275.9014658926703873
 20
9.3522649412507661
 30
0.0
 11
277.554568254970377
 21
9.3522649412507661
 31
0.0
  0
ARC
  5
A8AC
  8
0
 10
275.9014658926703873
 20
9.3382649412507668
 30
0.0
 40
0.014
 50
90.0000000000032543
 51
179.9999999999926956
  0
LINE
  5
A8AD
  8
0
 10
275.9013399084703906
 20
9.3445982555507676
 30
0.0
 11
277.5546942391703737
 21
9.3445982555507676
 31
0.0
  0
LINE
  5
A8AE
  8
0
 10
275.8953399084704188
 20
9.3385982555507674
 30
0.0
 11
275.8953399084704188
 21
8.7089637109507674
 31
0.0
  0
ARC
  5
A8AF
  8
0
 10
275.9013399084703906
 20
9.3385982555507692
 30
0.0
 40
0.006
 50
89.9999999999902229
 51
180.0000000000169109
  0
LINE
  5
A8B0
  8
0
 10
275.9013399084703906
 20
8.7029637109507672
 30
0.0
 11
277.5546942391703737
 21
8.7029637109507672
 31
0.0
  0
ARC
  5
A8B1
  8
0
 10
275.9013399084703906
 20
8.7089637109507674
 30
0.0
 40
0.006
 50
180.0
 51
270.0000000000032969
  0
LINE
  5
A8B2
  8
0
 10
277.021692825188893
 20
7.711787808964349
 30
0.0
 11
277.3534555189228854
 21
7.711787808964349
 31
0.0
  0
LINE
  5
A8B3
  8
0
 10
277.1366490252748918
 20
8.5388475410897016
 30
0.0
 11
277.1844852662009089
 21
8.5388475410897016
 31
0.0
  0
LINE
  5
A8B4
  8
0
 10
278.2260933768703808
 20
9.6754293036507661
 30
0.0
 11
278.2260933768703808
 21
7.8288987447507639
 31
0.0
  0
ARC
  5
A8B5
  8
0
 10
278.1630933768703926
 20
9.6754293036507661
 30
0.0
 40
0.063
 50
0.0000000000008142
 51
90.0
  0
ARC
  5
A8B6
  8
0
 10
278.1630933768703926
 20
7.8288987447507639
 30
0.0
 40
0.063
 50
270.0
 51
0.0
  0
LINE
  5
A8B7
  8
0
 10
277.6335288848703726
 20
8.3387806776090354
 30
0.0
 11
277.6335288848703158
 21
9.3974218081507672
 31
0.0
  0
ARC
  5
A8B8
  8
0
 10
277.6135288848703908
 20
8.6501401583507693
 30
0.0
 40
0.02
 50
270.0
 51
0.0000000000050889
  0
ARC
  5
A8B9
  8
0
 10
277.6135288848702771
 20
9.3974218081507672
 30
0.0
 40
0.02
 50
0.0000000000025444
 51
90.0
  0
LINE
  5
A8BA
  8
0
 10
277.5308473916297203
 20
7.7369423745857411
 30
0.0
 11
277.5444400924346837
 21
8.5155490370124411
 31
0.0
  0
LINE
  5
A8BB
  8
0
 10
276.7959918437273927
 20
7.7366355681668111
 30
0.0
 11
276.7844972270696076
 21
8.5072879038695355
 31
0.0
  0
ARC
  5
A8BC
  8
0
 10
277.2217590390284272
 20
13.7563697027049496
 30
0.0
 40
6.0460163937053082
 50
271.2481357657065928
 51
272.7506972544147175
  0
ARC
  5
A8BD
  8
0
 10
277.5108504386546997
 20
7.7372914758867131
 30
0.0
 40
0.02
 50
273.0342082439649971
 51
358.9998476495799196
  0
ARC
  5
A8BE
  8
0
 10
277.0248292359351012
 20
11.9710397914836797
 30
0.0
 40
4.2592531373079083
 50
267.1762776668243191
 51
269.9578087732850236
  0
ARC
  5
A8BF
  8
0
 10
276.8159896193959071
 20
7.7369338437376109
 30
0.0
 40
0.02
 50
180.8545282464079946
 51
267.1762776668144852
  0
ARC
  5
A8C0
  8
0
 10
276.7453015867594104
 20
8.5067032837507686
 30
0.0
 40
0.0392
 50
0.854528246403081
 51
90.0
  0
ARC
  5
A8C1
  8
0
 10
277.5830386350079948
 20
8.5146478485478774
 30
0.0
 40
0.0386090614938075
 50
107.7838415491844017
 51
178.6625164331794906
  0
ARC
  5
A8C2
  8
0
 10
277.5949984092408727
 20
5.3230027324740199
 30
0.0
 40
3.2419406030507392
 50
95.2366875016554815
 51
97.274650186370863
  0
ARC
  5
A8C3
  8
0
 10
276.7399046055600138
 20
5.4738106254661281
 30
0.0
 40
3.0906079383691161
 50
82.6245314561409003
 51
84.7416506081846137
  0
LINE
  5
A8C4
  8
0
 10
277.5413540757729152
 20
8.3387781974507682
 30
0.0
 11
277.6332139242704216
 21
8.3387781974507682
 31
0.0
  0
LINE
  5
A8C5
  8
0
 10
277.6532139242704034
 20
8.3587781974507678
 30
0.0
 11
277.6532139242704034
 21
9.1458648116507675
 31
0.0
  0
ARC
  5
A8C6
  8
0
 10
277.6332139242704216
 20
8.358778197450766
 30
0.0
 40
0.02
 50
269.9999999999968168
 51
0.0000000000025444
  0
ARC
  5
A8C7
  8
0
 10
277.6335288848703726
 20
9.1458648116507675
 30
0.0
 40
0.0196850393999991
 50
0.0
 51
90.0000000001139853
  0
LINE
  5
A8C8
  8
0
 10
277.5705367588703893
 20
8.697063086301414
 30
0.0
 11
277.5705367588703893
 21
9.3342330412507692
 31
0.0
  0
ARC
  5
A8C9
  8
0
 10
277.5505367588704075
 20
8.7129165595507665
 30
0.0
 40
0.02
 50
269.9999999999968168
 51
0.0
  0
ARC
  5
A8CA
  8
0
 10
277.5505367588704075
 20
9.3342330412507675
 30
0.0
 40
0.02
 50
0.0000000000025444
 51
90.0
  0
LINE
  5
A8CB
  8
0
 10
277.5882535865378031
 20
8.7094091455599063
 30
0.0
 11
277.5882535865378031
 21
9.3381528209416267
 31
0.0
  0
LINE
  5
A8CC
  8
0
 10
277.574474892210219
 20
8.7089801513507652
 30
0.0
 11
277.574474892210219
 21
9.3381695536507685
 31
0.0
  0
ARC
  5
A8CD
  8
0
 10
277.554474892210294
 20
8.7089801513507652
 30
0.0
 40
0.02
 50
270.0
 51
0.0
  0
ARC
  5
A8CE
  8
0
 10
277.5542535865378113
 20
8.7094091455599063
 30
0.0
 40
0.034
 50
270.0
 51
0.0
  0
ARC
  5
A8CF
  8
0
 10
277.5542535865378113
 20
9.3381528209416267
 30
0.0
 40
0.034
 50
0.0
 51
90.0
  0
ARC
  5
A8D0
  8
0
 10
277.554474892210294
 20
9.3381695536507685
 30
0.0
 40
0.02
 50
0.0
 51
90.0000000000032543
  0
LINE
  5
A8D1
  8
0
 10
277.568568254970387
 20
8.7088848365565923
 30
0.0
 11
277.568568254970387
 21
9.3382649412507668
 31
0.0
  0
ARC
  5
A8D2
  8
0
 10
277.554568254970377
 20
8.7088848365565905
 30
0.0
 40
0.014
 50
270.0000000000032969
 51
0.000000000003664
  0
ARC
  5
A8D3
  8
0
 10
277.554568254970377
 20
9.3382649412507668
 30
0.0
 40
0.014
 50
0.0000000000072771
 51
89.9999999999967457
  0
LINE
  5
A8D4
  8
0
 10
277.5606942391704024
 20
9.3385982555507674
 30
0.0
 11
277.5606942391704024
 21
8.7089637109507674
 31
0.0
  0
ARC
  5
A8D5
  8
0
 10
277.5546942391703737
 20
9.3385982555507692
 30
0.0
 40
0.006
 50
359.9999999999830038
 51
90.0000000000097771
  0
ARC
  5
A8D6
  8
0
 10
277.5546942391703737
 20
8.7089637109507674
 30
0.0
 40
0.006
 50
269.9999999999968168
 51
0.0
  0
LINE
  5
A8D7
  8
0
 10
276.646466324748701
 20
7.7179928688507671
 30
0.0
 11
276.8095678228921201
 21
7.7179928688507671
 31
0.0
  0
ARC
  5
A8D8
  8
0
 10
275.9018704823237158
 20
9.0583383856124193
 30
0.0
 40
0.020400633643194
 50
143.3769640629699893
 51
174.6338884877916939
  0
LINE
  5
A8D9
  8
0
 10
275.8815592554306022
 20
8.8466780312507662
 30
0.0
 11
275.885497388770375
 21
8.846678031250768
 31
0.0
  0
ARC
  5
A8DA
  8
0
 10
277.5537304251872115
 20
9.0581089524144751
 30
0.0
 40
0.0208880677660314
 50
6.722270130024552
 51
36.4293071031133735
  0
LINE
  5
A8DB
  8
0
 10
277.5705367588703893
 20
8.846678031250768
 30
0.0
 11
277.574474892210219
 21
8.846678031250768
 31
0.0
  0
ARC
  5
A8DC
  8
0
 10
276.4511796369213243
 20
2.9760473385610728
 30
0.0
 40
5.5759001937356416
 50
87.3319710925943156
 51
89.2058953458324737
  0
ARC
  5
A8DD
  8
0
 10
277.0048545107193831
 20
2.9760473385629749
 30
0.0
 40
5.5759001937337391
 50
90.7941046541642862
 51
92.6680289074056844
  0
ENDSEC
  0
EOF
