  0
SECTION
  2
HEADER
  9
$ACADVER
  1
AC1009
  9
$INSBASE
 10
542.9485565775371469
 20
53.3884536777277816
 30
0.0
  9
$EXTMIN
 10
530.9835401075436039
 20
45.3862141625423234
 30
-0.0015258207003583
  9
$EXTMAX
 10
554.9024796678139637
 20
53.3900830883404467
 30
0.0000000349246037
  9
$LIMMIN
 10
0.0
 20
0.0
  9
$LIMMAX
 10
11.6929133858000007
 20
8.2677165353999982
  9
$ORTHOMODE
 70
     1
  9
$REGENMODE
 70
     1
  9
$FILLMODE
 70
     1
  9
$QTEXTMODE
 70
     0
  9
$MIRRTEXT
 70
     0
  9
$DRAGMODE
 70
     2
  9
$LTSCALE
 40
0.6431102362
  9
$OSMODE
 70
  4095
  9
$ATTMODE
 70
     1
  9
$TEXTSIZE
 40
0.2
  9
$TRACEWID
 40
0.05
  9
$TEXTSTYLE
  7
STANDARD
  9
$CLAYER
  8
0
  9
$CELTYPE
  6
BYLAYER
  9
$CECOLOR
 62
   256
  9
$DIMSCALE
 40
1.0
  9
$DIMASZ
 40
0.1875
  9
$DIMEXO
 40
0.0625
  9
$DIMDLI
 40
0.4443307087
  9
$DIMRND
 40
0.0
  9
$DIMDLE
 40
0.0
  9
$DIMEXE
 40
0.125
  9
$DIMTP
 40
0.01
  9
$DIMTM
 40
0.01
  9
$DIMTXT
 40
2.0
  9
$DIMCEN
 40
0.1052362205
  9
$DIMTSZ
 40
0.0
  9
$DIMTOL
 70
     1
  9
$DIMLIM
 70
     0
  9
$DIMTIH
 70
     1
  9
$DIMTOH
 70
     1
  9
$DIMSE1
 70
     0
  9
$DIMSE2
 70
     0
  9
$DIMTAD
 70
     0
  9
$DIMZIN
 70
     0
  9
$DIMBLK
  1

  9
$DIMASO
 70
     1
  9
$DIMSHO
 70
     1
  9
$DIMPOST
  1
\X
  9
$DIMAPOST
  1

  9
$DIMALT
 70
     1
  9
$DIMALTD
 70
     2
  9
$DIMALTF
 40
25.3999999999999986
  9
$DIMLFAC
 40
1.0
  9
$DIMTOFL
 70
     0
  9
$DIMTVP
 40
0.0
  9
$DIMTIX
 70
     0
  9
$DIMSOXD
 70
     0
  9
$DIMSAH
 70
     0
  9
$DIMBLK1
  1

  9
$DIMBLK2
  1

  9
$DIMSTYLE
  2
STANDARD
  9
$DIMCLRD
 70
     0
  9
$DIMCLRE
 70
     0
  9
$DIMCLRT
 70
     0
  9
$DIMTFAC
 40
1.0
  9
$DIMGAP
 40
0.09
  9
$LUNITS
 70
     2
  9
$LUPREC
 70
     4
  9
$SKETCHINC
 40
0.1
  9
$FILLETRAD
 40
0.0
  9
$AUNITS
 70
     0
  9
$AUPREC
 70
     0
  9
$MENU
  1
.
  9
$ELEVATION
 40
0.0
  9
$PELEVATION
 40
0.0
  9
$THICKNESS
 40
0.0
  9
$LIMCHECK
 70
     0
  9
$BLIPMODE
 70
     0
  9
$CHAMFERA
 40
0.0
  9
$CHAMFERB
 40
0.0
  9
$SKPOLY
 70
     0
  9
$TDCREATE
 40
2458060.468368056230247
  9
$TDUPDATE
 40
2459006.5346874999813735
  9
$TDINDWG
 40
0.2502256597
  9
$TDUSRTIMER
 40
0.2502256597
  9
$USRTIMER
 70
     1
  9
$ANGBASE
 50
0.0
  9
$ANGDIR
 70
     0
  9
$PDMODE
 70
     0
  9
$PDSIZE
 40
0.3125
  9
$PLINEWID
 40
0.0
  9
$COORDS
 70
     1
  9
$SPLFRAME
 70
     0
  9
$SPLINETYPE
 70
     6
  9
$SPLINESEGS
 70
     8
  9
$ATTDIA
 70
     1
  9
$ATTREQ
 70
     1
  9
$HANDLING
 70
     1
  9
$HANDSEED
  5
469B
  9
$SURFTAB1
 70
     6
  9
$SURFTAB2
 70
     6
  9
$SURFTYPE
 70
     6
  9
$SURFU
 70
     6
  9
$SURFV
 70
     6
  9
$UCSNAME
  2

  9
$UCSORG
 10
0.0
 20
0.0
 30
0.0
  9
$UCSXDIR
 10
1.0
 20
0.0
 30
0.0
  9
$UCSYDIR
 10
0.0
 20
1.0
 30
0.0
  9
$PUCSNAME
  2

  9
$PUCSORG
 10
0.0
 20
0.0
 30
0.0
  9
$PUCSXDIR
 10
1.0
 20
0.0
 30
0.0
  9
$PUCSYDIR
 10
0.0
 20
1.0
 30
0.0
  9
$USERI1
 70
     0
  9
$USERI2
 70
     0
  9
$USERI3
 70
     0
  9
$USERI4
 70
     0
  9
$USERI5
 70
     0
  9
$USERR1
 40
0.0
  9
$USERR2
 40
0.0
  9
$USERR3
 40
0.0
  9
$USERR4
 40
0.0
  9
$USERR5
 40
0.0
  9
$WORLDVIEW
 70
     1
  9
$SHADEDGE
 70
     3
  9
$SHADEDIF
 70
    70
  9
$TILEMODE
 70
     1
  9
$MAXACTVP
 70
    64
  9
$PLIMCHECK
 70
     0
  9
$PEXTMIN
 10
1.0000000000000000E+20
 20
1.0000000000000000E+20
 30
1.0000000000000000E+20
  9
$PEXTMAX
 10
-1.0000000000000000E+20
 20
-1.0000000000000000E+20
 30
-1.0000000000000000E+20
  9
$PLIMMIN
 10
0.0
 20
0.0
  9
$PLIMMAX
 10
12.0
 20
9.0
  9
$UNITMODE
 70
     0
  9
$VISRETAIN
 70
     1
  9
$PLINEGEN
 70
     0
  9
$PSLTSCALE
 70
     1
  0
ENDSEC
  0
SECTION
  2
TABLES
  0
TABLE
  2
VPORT
 70
     1
  0
VPORT
  2
*ACTIVE
 70
     0
 10
0.0
 20
0.0
 11
1.0
 21
1.0
 12
-0.0055374756024094
 22
-0.0003058118144708
 13
0.0
 23
0.0
 14
1.0
 24
1.0
 15
0.0
 25
0.0
 16
0.0
 26
0.0
 36
72.1330052895996232
 17
542.94854736328125
 27
49.3884544372558594
 37
0.0
 40
9.0591220868840558
 41
2.6486111111111108
 42
50.0
 43
0.0
 44
0.0
 50
0.0
 51
0.0
 71
     0
 72
   100
 73
     1
 74
     1
 75
     0
 76
     0
 77
     0
 78
     0
  0
ENDTAB
  0
TABLE
  2
LTYPE
 70
     2
  0
LTYPE
  2
CONTINUOUS
 70
     0
  3
Solid line
 72
    65
 73
     0
 40
0.0
  0
LTYPE
  2
PHANTOM2
 70
     0
  3
___ _ _ ___ _ _ ___ _ _ ___ _ _
 72
    65
 73
     6
 40
1.25
 49
0.625
 49
-0.125
 49
0.125
 49
-0.125
 49
0.125
 49
-0.125
  0
ENDTAB
  0
TABLE
  2
LAYER
 70
     2
  0
LAYER
  2
0
 70
     0
 62
   255
  6
CONTINUOUS
  0
LAYER
  2
DEFPOINTS
 70
     0
 62
     7
  6
CONTINUOUS
  0
ENDTAB
  0
TABLE
  2
STYLE
 70
     1
  0
STYLE
  2
STANDARD
 70
     0
 40
0.0
 41
0.8
 50
0.0
 71
     0
 42
0.2
  3
txt
  4

  0
ENDTAB
  0
TABLE
  2
VIEW
 70
     0
  0
ENDTAB
  0
TABLE
  2
UCS
 70
     0
  0
ENDTAB
  0
TABLE
  2
APPID
 70
     9
  0
APPID
  2
ACAD
 70
     0
  0
APPID
  2
ACAD_MLEADERVER
 70
     0
  0
APPID
  2
ACAD_EXEMPT_FROM_CAD_STANDARDS
 70
     0
  0
APPID
  2
ACAD_NAV_VCDISPLAY
 70
     0
  0
APPID
  2
ACAECLAYERSTANDARD
 70
     0
  0
APPID
  2
ACCMTRANSPARENCY
 70
     0
  0
APPID
  2
ACAD_DSTYLE_DIMJAG
 70
     0
  0
APPID
  2
ACAD_DSTYLE_DIMTALN
 70
     0
  0
APPID
  2
ACDBATTR
 70
     0
  0
ENDTAB
  0
TABLE
  2
DIMSTYLE
 70
     1
  0
DIMSTYLE
  2
STANDARD
 70
     0
  3

  4

  5

  6

  7

 40
1.0
 41
0.1875
 42
0.0625
 43
0.38
 44
0.125
 45
0.0
 46
0.0
 47
0.01
 48
0.01
140
0.15625
141
0.09
142
0.0
143
25.3999999999999986
144
1.0
145
0.0
146
1.0
147
0.09
 71
     1
 72
     0
 73
     1
 74
     1
 75
     0
 76
     0
 77
     0
 78
     4
170
     0
171
     2
172
     0
173
     0
174
     0
175
     0
176
     0
177
     0
178
     0
  0
ENDTAB
  0
ENDSEC
  0
SECTION
  2
BLOCKS
  0
BLOCK
  8
0
  2
$MODEL_SPACE
 70
     0
 10
0.0
 20
0.0
 30
0.0
  3
$MODEL_SPACE
  1

  0
ENDBLK
  5
21
  8
0
  0
BLOCK
 67
     1
  8
0
  2
$PAPER_SPACE
 70
     0
 10
0.0
 20
0.0
 30
0.0
  3
$PAPER_SPACE
  1

  0
ENDBLK
  5
1D
 67
     1
  8
0
  0
ENDSEC
  0
SECTION
  2
ENTITIES
  0
ATTDEF
  5
3930
  8
DEFPOINTS
 10
542.943465842391106
 20
53.3865183069015501
 30
0.0
 40
0.001
  1
K-2240T
  3

  2
MODELNUMBER
 70
     0
1001
ACDBATTR
1070
     0
1070
     1
  0
ATTDEF
  5
3931
  8
DEFPOINTS
 10
542.943465842391106
 20
53.3848516402348778
 30
0.0
 40
0.001
  1
VINTAGE
  3

  2
TRADENAME
 70
     0
1001
ACDBATTR
1070
     0
1070
     1
  0
ATTDEF
  5
3932
  8
DEFPOINTS
 10
542.943465842391106
 20
53.3831849735682198
 30
0.0
 40
0.001
  1
BATHROOM SINK
  3

  2
PRODUCT
 70
     0
1001
ACDBATTR
1070
     0
1070
     1
  0
LINE
  5
4422
  8
0
 10
542.1070326849870753
 20
45.3884536777277816
 30
0.0
 11
543.7900804700872186
 21
45.3884536777277816
 31
0.0
  0
LINE
  5
4423
  8
0
 10
531.0613435556872446
 20
52.9484536777277768
 30
0.0
 11
554.835769599387163
 21
52.9484536777277768
 31
0.0
  0
LINE
  5
4424
  8
0
 10
554.6260550811871326
 20
53.3884536777277816
 30
0.0
 11
531.2710580738871613
 21
53.3884536777277816
 31
0.0
  0
ARC
  5
4425
  8
0
 10
542.14883743645305
 20
45.6859291289736404
 30
0.0
 40
0.3003985375115055
 50
197.9121629251540071
 51
262.0005093533952163
  0
ARC
  5
4426
  8
0
 10
531.5085745397623214
 20
52.9484467997521691
 30
0.0
 40
0.5000201238226863
 50
118.3602494315395006
 51
173.6199414055994055
  0
ARC
  5
4427
  8
0
 10
531.0642556176983362
 20
53.001060215547021
 30
0.0
 40
0.0526870755165258
 50
176.7898987220459901
 51
266.8315962007848725
  0
ARC
  5
4428
  8
0
 10
531.9538506811544494
 20
52.7780562931037309
 30
0.0
 40
0.1708800713410011
 50
29.9452334200176189
 51
85.6924842072017583
  0
ARC
  5
4429
  8
0
 10
541.8804078729863249
 20
57.5517266210419791
 30
0.0
 40
10.8443385799024803
 50
205.6157467775774137
 51
243.8703848087785104
  0
ARC
  5
442A
  8
0
 10
541.8890410250386367
 20
57.5052078596822582
 30
0.0
 40
10.8064129954895591
 50
243.7206670412184906
 51
267.7208690115514855
  0
ARC
  5
442B
  8
0
 10
541.4519460156789137
 20
46.5069239265435499
 30
0.0
 40
0.2005540177411264
 50
36.5394242506762978
 51
87.9005284189629634
  0
ARC
  5
442C
  8
0
 10
554.2420670390703208
 20
49.1357110071035024
 30
0.0
 40
12.8758804157706805
 50
191.2383056859004
 51
195.9680538300665091
  0
ARC
  5
442D
  8
0
 10
597.2426308583210357
 20
53.6937598976158199
 30
0.0
 40
56.0766924900647012
 50
180.9096922285064863
 51
187.2403288346253873
  0
ARC
  5
442E
  8
0
 10
541.0089909109227619
 20
52.7838773907636565
 30
0.0
 40
0.1651802774833166
 50
6.8088312126899471
 51
85.0987594353628793
  0
ARC
  5
442F
  8
0
 10
543.7482757186212439
 20
45.6859291289736404
 30
0.0
 40
0.3003985375115055
 50
277.9994906466047837
 51
342.087837074845595
  0
ARC
  5
4430
  8
0
 10
554.3885386153119725
 20
52.9484467997521691
 30
0.0
 40
0.5000201238226863
 50
6.3800585944009871
 51
61.6397505684605207
  0
ARC
  5
4431
  8
0
 10
554.8328575373759577
 20
53.001060215547021
 30
0.0
 40
0.0526870755165258
 50
273.1684037992151275
 51
3.2101012779539588
  0
ARC
  5
4432
  8
0
 10
553.9432624739198445
 20
52.7780562931037309
 30
0.0
 40
0.1708800713410011
 50
94.3075157927982417
 51
150.0547665799819868
  0
ARC
  5
4433
  8
0
 10
544.016705282087969
 20
57.5517266210419791
 30
0.0
 40
10.8443385799024803
 50
296.1296151912214896
 51
334.3842532224226147
  0
ARC
  5
4434
  8
0
 10
544.0080721300357709
 20
57.5052078596822582
 30
0.0
 40
10.8064129954895591
 50
272.2791309884485145
 51
296.279332958781481
  0
ARC
  5
4435
  8
0
 10
544.4451671393954939
 20
46.5069239265435499
 30
0.0
 40
0.2005540177411264
 50
92.0994715810370366
 51
143.4605757493237093
  0
ARC
  5
4436
  8
0
 10
531.6550461160040868
 20
49.1357110071035024
 30
0.0
 40
12.8758804157706805
 50
344.0319461699335193
 51
348.7616943140992021
  0
ARC
  5
4437
  8
0
 10
488.654482296753315
 20
53.6937598976158199
 30
0.0
 40
56.0766924900647012
 50
352.7596711653740726
 51
359.0903077714930873
  0
ARC
  5
4438
  8
0
 10
544.8881222441516456
 20
52.7838773907636565
 30
0.0
 40
0.1651802774833166
 50
94.9012405646371491
 51
173.191168787310005
  0
ENDSEC
  0
EOF
