  0
SECTION
  2
HEADER
  9
$ACADVER
  1
AC1009
  9
$INSBASE
 10
3746.1036063396741156
 20
-246.5978817338352087
 30
0.0
  9
$EXTMIN
 10
3734.5849160348720943
 20
-255.6591916671044942
 30
-0.0015258207003583
  9
$EXTMAX
 10
3757.6796036338369049
 20
-237.5261797566251971
 30
0.0000000349246037
  9
$LIMMIN
 10
0.0
 20
0.0
  9
$LIMMAX
 10
11.6929133858000007
 20
8.2677165353999982
  9
$ORTHOMODE
 70
     0
  9
$REGENMODE
 70
     1
  9
$FILLMODE
 70
     1
  9
$QTEXTMODE
 70
     0
  9
$MIRRTEXT
 70
     0
  9
$DRAGMODE
 70
     2
  9
$LTSCALE
 40
0.6431102362
  9
$OSMODE
 70
   759
  9
$ATTMODE
 70
     1
  9
$TEXTSIZE
 40
0.2
  9
$TRACEWID
 40
0.05
  9
$TEXTSTYLE
  7
STANDARD
  9
$CLAYER
  8
0
  9
$CELTYPE
  6
BYLAYER
  9
$CECOLOR
 62
   256
  9
$DIMSCALE
 40
1.0
  9
$DIMASZ
 40
0.1875
  9
$DIMEXO
 40
0.0625
  9
$DIMDLI
 40
0.4443307087
  9
$DIMRND
 40
0.0
  9
$DIMDLE
 40
0.0
  9
$DIMEXE
 40
0.125
  9
$DIMTP
 40
0.01
  9
$DIMTM
 40
0.01
  9
$DIMTXT
 40
2.0
  9
$DIMCEN
 40
0.1052362205
  9
$DIMTSZ
 40
0.0
  9
$DIMTOL
 70
     1
  9
$DIMLIM
 70
     0
  9
$DIMTIH
 70
     1
  9
$DIMTOH
 70
     1
  9
$DIMSE1
 70
     0
  9
$DIMSE2
 70
     0
  9
$DIMTAD
 70
     0
  9
$DIMZIN
 70
     0
  9
$DIMBLK
  1

  9
$DIMASO
 70
     1
  9
$DIMSHO
 70
     1
  9
$DIMPOST
  1
\X
  9
$DIMAPOST
  1

  9
$DIMALT
 70
     1
  9
$DIMALTD
 70
     2
  9
$DIMALTF
 40
25.3999999999999986
  9
$DIMLFAC
 40
1.0
  9
$DIMTOFL
 70
     0
  9
$DIMTVP
 40
0.0
  9
$DIMTIX
 70
     0
  9
$DIMSOXD
 70
     0
  9
$DIMSAH
 70
     0
  9
$DIMBLK1
  1

  9
$DIMBLK2
  1

  9
$DIMSTYLE
  2
STANDARD
  9
$DIMCLRD
 70
     0
  9
$DIMCLRE
 70
     0
  9
$DIMCLRT
 70
     0
  9
$DIMTFAC
 40
1.0
  9
$DIMGAP
 40
0.09
  9
$LUNITS
 70
     2
  9
$LUPREC
 70
     4
  9
$SKETCHINC
 40
0.1
  9
$FILLETRAD
 40
0.0
  9
$AUNITS
 70
     0
  9
$AUPREC
 70
     0
  9
$MENU
  1
.
  9
$ELEVATION
 40
0.0
  9
$PELEVATION
 40
0.0
  9
$THICKNESS
 40
0.0
  9
$LIMCHECK
 70
     0
  9
$BLIPMODE
 70
     0
  9
$CHAMFERA
 40
0.0
  9
$CHAMFERB
 40
0.0
  9
$SKPOLY
 70
     0
  9
$TDCREATE
 40
2458060.468368056230247
  9
$TDUPDATE
 40
2458969.6312152780592442
  9
$TDINDWG
 40
0.3403542824
  9
$TDUSRTIMER
 40
0.3403542824
  9
$USRTIMER
 70
     1
  9
$ANGBASE
 50
0.0
  9
$ANGDIR
 70
     0
  9
$PDMODE
 70
     0
  9
$PDSIZE
 40
0.3125
  9
$PLINEWID
 40
0.0
  9
$COORDS
 70
     1
  9
$SPLFRAME
 70
     0
  9
$SPLINETYPE
 70
     6
  9
$SPLINESEGS
 70
     8
  9
$ATTDIA
 70
     1
  9
$ATTREQ
 70
     1
  9
$HANDLING
 70
     1
  9
$HANDSEED
  5
89E2
  9
$SURFTAB1
 70
     6
  9
$SURFTAB2
 70
     6
  9
$SURFTYPE
 70
     6
  9
$SURFU
 70
     6
  9
$SURFV
 70
     6
  9
$UCSNAME
  2

  9
$UCSORG
 10
0.0
 20
0.0
 30
0.0
  9
$UCSXDIR
 10
1.0
 20
0.0
 30
0.0
  9
$UCSYDIR
 10
0.0
 20
1.0
 30
0.0
  9
$PUCSNAME
  2

  9
$PUCSORG
 10
0.0
 20
0.0
 30
0.0
  9
$PUCSXDIR
 10
1.0
 20
0.0
 30
0.0
  9
$PUCSYDIR
 10
0.0
 20
1.0
 30
0.0
  9
$USERI1
 70
     0
  9
$USERI2
 70
     0
  9
$USERI3
 70
     0
  9
$USERI4
 70
     0
  9
$USERI5
 70
     0
  9
$USERR1
 40
0.0
  9
$USERR2
 40
0.0
  9
$USERR3
 40
0.0
  9
$USERR4
 40
0.0
  9
$USERR5
 40
0.0
  9
$WORLDVIEW
 70
     1
  9
$SHADEDGE
 70
     3
  9
$SHADEDIF
 70
    70
  9
$TILEMODE
 70
     1
  9
$MAXACTVP
 70
    64
  9
$PLIMCHECK
 70
     0
  9
$PEXTMIN
 10
1.0000000000000000E+20
 20
1.0000000000000000E+20
 30
1.0000000000000000E+20
  9
$PEXTMAX
 10
-1.0000000000000000E+20
 20
-1.0000000000000000E+20
 30
-1.0000000000000000E+20
  9
$PLIMMIN
 10
0.0
 20
0.0
  9
$PLIMMAX
 10
12.0
 20
9.0
  9
$UNITMODE
 70
     0
  9
$VISRETAIN
 70
     1
  9
$PLINEGEN
 70
     0
  9
$PSLTSCALE
 70
     1
  0
ENDSEC
  0
SECTION
  2
TABLES
  0
TABLE
  2
VPORT
 70
     1
  0
VPORT
  2
*ACTIVE
 70
     0
 10
0.0
 20
0.0
 11
1.0
 21
1.0
 12
-168.6903720015833983
 22
-365.7939071779293272
 13
0.0
 23
0.0
 14
1.0
 24
1.0
 15
0.0
 25
0.0
 16
0.0
 26
0.0
 36
60.2538140246172205
 17
3914.8226318359379547
 27
119.2012214660643963
 37
0.0
 40
18.3367536173386689
 41
2.5459662288930578
 42
50.0
 43
0.0
 44
0.0
 50
0.0
 51
0.0
 71
     0
 72
 10000
 73
     1
 74
     1
 75
     0
 76
     0
 77
     0
 78
     0
  0
ENDTAB
  0
TABLE
  2
LTYPE
 70
     2
  0
LTYPE
  2
CONTINUOUS
 70
     0
  3
Solid line
 72
    65
 73
     0
 40
0.0
  0
LTYPE
  2
PHANTOM2
 70
     0
  3
___ _ _ ___ _ _ ___ _ _ ___ _ _
 72
    65
 73
     6
 40
1.25
 49
0.625
 49
-0.125
 49
0.125
 49
-0.125
 49
0.125
 49
-0.125
  0
ENDTAB
  0
TABLE
  2
LAYER
 70
     2
  0
LAYER
  2
0
 70
     0
 62
   255
  6
CONTINUOUS
  0
LAYER
  2
DEFPOINTS
 70
     0
 62
     7
  6
CONTINUOUS
  0
ENDTAB
  0
TABLE
  2
STYLE
 70
     1
  0
STYLE
  2
STANDARD
 70
     0
 40
0.0
 41
0.8
 50
0.0
 71
     0
 42
0.2
  3
txt
  4

  0
ENDTAB
  0
TABLE
  2
VIEW
 70
     0
  0
ENDTAB
  0
TABLE
  2
UCS
 70
     0
  0
ENDTAB
  0
TABLE
  2
APPID
 70
    10
  0
APPID
  2
ACAD
 70
     0
  0
APPID
  2
ACAD_MLEADERVER
 70
     0
  0
APPID
  2
ACAD_EXEMPT_FROM_CAD_STANDARDS
 70
     0
  0
APPID
  2
ACAD_NAV_VCDISPLAY
 70
     0
  0
APPID
  2
ACAECLAYERSTANDARD
 70
     0
  0
APPID
  2
ACCMTRANSPARENCY
 70
     0
  0
APPID
  2
ACAD_DSTYLE_DIMJAG
 70
     0
  0
APPID
  2
ACAD_DSTYLE_DIMTALN
 70
     0
  0
APPID
  2
ACDBATTR
 70
     0
  0
APPID
  2
ACADANNOTATIVE
 70
     0
  0
ENDTAB
  0
TABLE
  2
DIMSTYLE
 70
     1
  0
DIMSTYLE
  2
STANDARD
 70
     0
  3

  4

  5

  6

  7

 40
1.0
 41
0.1875
 42
0.0625
 43
0.38
 44
0.125
 45
0.0
 46
0.0
 47
0.01
 48
0.01
140
0.15625
141
0.09
142
0.0
143
25.3999999999999986
144
1.0
145
0.0
146
1.0
147
0.09
 71
     1
 72
     0
 73
     1
 74
     1
 75
     0
 76
     0
 77
     0
 78
     4
170
     0
171
     2
172
     0
173
     0
174
     0
175
     0
176
     0
177
     0
178
     0
  0
ENDTAB
  0
ENDSEC
  0
SECTION
  2
BLOCKS
  0
BLOCK
  8
0
  2
$MODEL_SPACE
 70
     0
 10
0.0
 20
0.0
 30
0.0
  3
$MODEL_SPACE
  1

  0
ENDBLK
  5
21
  8
0
  0
BLOCK
 67
     1
  8
0
  2
$PAPER_SPACE
 70
     0
 10
0.0
 20
0.0
 30
0.0
  3
$PAPER_SPACE
  1

  0
ENDBLK
  5
1D
 67
     1
  8
0
  0
BLOCK
  8
0
  2
_FILLED
 70
     0
 10
0.0
 20
0.0
 30
0.0
  3
_FILLED
  1

  0
SOLID
  5
860F
  8
0
  6
BYBLOCK
 62
     0
 10
0.0
 20
0.0
 30
0.0
 11
-1.0
 21
0.1666666667
 31
0.0
 12
-1.0
 22
-0.1666666667
 32
0.0
 13
-1.0
 23
-0.1666666667
 33
0.0
  0
ENDBLK
  5
8610
  8
0
  6
BYBLOCK
 62
     0
  0
ENDSEC
  0
SECTION
  2
ENTITIES
  0
ATTDEF
  5
7D89
  8
DEFPOINTS
 10
3746.0910654042490933
 20
-246.597655967934287
 30
0.0
 40
0.001
  1
K-2241T-4
  3

  2
MODELNUMBER
 70
     0
1001
ACDBATTR
1070
     0
1070
     1
  0
ATTDEF
  5
7D8A
  8
DEFPOINTS
 10
3746.0910654042490933
 20
-246.5993226346008953
 30
0.0
 40
0.001
  1
MEMOIRS
  3

  2
TRADENAME
 70
     0
1001
ACDBATTR
1070
     0
1070
     1
  0
ATTDEF
  5
7D8B
  8
DEFPOINTS
 10
3746.0910654042490933
 20
-246.6009893012675889
 30
0.0
 40
0.001
  1
BATHROOM SINK
  3

  2
PRODUCT
 70
     0
1001
ACDBATTR
1070
     0
1070
     1
  0
LINE
  5
86FC
  8
0
 10
3735.2609700187199451
 20
-237.8800741596164983
 30
0.0
 11
3756.9462426606278314
 21
-237.8800739819292005
 31
0.0
  0
ARC
  5
86FD
  8
0
 10
3756.9414113021289268
 20
-238.0700879775810961
 30
0.0
 40
0.1900754075848937
 50
1.692273565615245
 51
88.5434924426124752
  0
LINE
  5
86FE
  8
0
 10
3757.1314038086238725
 20
-238.06447477491011
 30
0.0
 11
3757.1314038086238725
 21
-255.1312885988101868
 31
0.0
  0
ARC
  5
86FF
  8
0
 10
3756.9414114650071497
 20
-255.1256755257807072
 30
0.0
 40
0.1900752409497956
 50
271.4560466521456874
 51
358.3077640462082059
  0
ARC
  5
8700
  8
0
 10
3735.2657659935111951
 20
-255.125681880111614
 30
0.0
 40
0.1900500912456499
 50
181.6905434345372896
 51
268.7871627524615974
  0
LINE
  5
8701
  8
0
 10
3735.0757986229241396
 20
-255.1312885988103005
 30
0.0
 11
3735.0757988575242052
 21
-238.0644747544102131
 31
0.0
  0
ARC
  5
8702
  8
0
 10
3735.2657976665509523
 20
-238.070094752246888
 30
0.0
 40
0.1900819081532755
 50
91.4553388797385338
 51
178.3057351851306862
  0
LINE
  5
8703
  8
0
 10
3756.9462412907391808
 20
-255.315689393710187
 30
0.0
 11
3735.2609713886081408
 21
-255.315689393710187
 31
0.0
  0
CIRCLE
  5
8705
  8
0
 10
3746.1036063396240934
 20
-245.5928816528102061
 30
0.0
 40
1.118306780504466
  0
CIRCLE
  5
8706
  8
0
 10
3746.1036063396240934
 20
-245.5928816528102061
 30
0.0
 40
0.8750000000000026
  0
LINE
  5
8707
  8
0
 10
3736.0740353356850392
 20
-238.8489675705102115
 30
0.0
 11
3756.1331773436618278
 21
-238.8489675691303944
 31
0.0
  0
ARC
  5
8708
  8
0
 10
3756.1351385377320184
 20
-238.8763072268166923
 30
0.0
 40
0.0274099099704554
 50
357.4088167110951986
 51
94.1030504105972483
  0
ARC
  5
8709
  8
0
 10
7250.7757635938605745
 20
-246.5978813932838989
 30
0.0
 40
3494.6217710824671485
 50
179.8734217892989022
 51
180.1265782120999006
  0
LINE
  5
870A
  8
0
 10
3756.1331696594152163
 20
-254.3467957352102076
 30
0.0
 11
3736.0740430199330149
 21
-254.3467957352102076
 31
0.0
  0
ARC
  5
870B
  8
0
 10
3736.0721703400690785
 20
-254.3194188161727141
 30
0.0
 40
0.0275043565230594
 50
177.4954373336150866
 51
275.5176393749190993
  0
LINE
  5
870C
  8
0
 10
3736.0446922572241419
 20
-254.3182169048102139
 30
0.0
 11
3736.0446922572241419
 21
-238.8775464087102023
 31
0.0
  0
ARC
  5
870D
  8
0
 10
3736.0720743667011448
 20
-238.8763074592422981
 30
0.0
 40
0.0274101243199784
 50
85.897453440748464
 51
182.5906766721082874
  0
LINE
  5
870E
  8
0
 10
3738.1214918132827734
 20
-242.9071966180709978
 30
0.0
 11
3754.0857208660650031
 21
-242.9071937405493031
 31
0.0
  0
ARC
  5
870F
  8
0
 10
3754.0864908141788874
 20
-243.1603426006990105
 30
0.0
 40
0.2531500310392472
 50
359.9089850530995136
 51
90.1742636383041543
  0
LINE
  5
8710
  8
0
 10
3754.339640525824052
 20
-243.1607447320101869
 30
0.0
 11
3754.339640525824052
 21
-252.9092939342102113
 31
0.0
  0
ARC
  5
8711
  8
0
 10
3754.0785326784421159
 20
-252.9156289103717938
 30
0.0
 40
0.2611846853989279
 50
268.3001223693859743
 51
1.389832619209876
  0
LINE
  5
8712
  8
0
 10
3754.0707848673928311
 20
-253.1766986545225109
 30
0.0
 11
3738.1364278119540359
 21
-253.176698781610213
 31
0.0
  0
ARC
  5
8713
  8
0
 10
3738.1287165112280491
 20
-252.9156157839742889
 30
0.0
 40
0.2612207820470809
 50
178.6132390466626987
 51
271.8610279738284135
  0
LINE
  5
8714
  8
0
 10
3737.8675722385241897
 20
-252.9092939324102076
 30
0.0
 11
3737.8675764690237884
 21
-243.1607444523102117
 31
0.0
  0
ARC
  5
8715
  8
0
 10
3738.1178888462568466
 20
-243.157504039258697
 30
0.0
 40
0.2503333507006346
 50
89.1753318863832476
 51
180.7416797499687959
  0
LINE
  5
8716
  8
0
 10
3737.2309890270030337
 20
-242.6437363335101054
 30
0.0
 11
3737.2309890241231187
 21
-253.4370252678102133
 31
0.0
  0
ARC
  5
8717
  8
0
 10
3737.6038237595880673
 20
-242.6243591952178917
 30
0.0
 40
0.3733379317865198
 50
136.8167781201493085
 51
182.9751258054708956
  0
ARC
  5
8718
  8
0
 10
3737.589588824393104
 20
-242.6478101567190038
 30
0.0
 40
0.3799557924893782
 50
87.338124627957896
 51
132.7658669059009071
  0
LINE
  5
8719
  8
0
 10
3754.9762236522460626
 20
-242.6437363335099064
 30
0.0
 11
3754.9762236551241585
 21
-253.4370252678099007
 31
0.0
  0
LINE
  5
871A
  8
0
 10
3754.5999780321149046
 20
-242.268264337110196
 30
0.0
 11
3737.6072346472328718
 21
-242.268264337110196
 31
0.0
  0
LINE
  5
871B
  8
0
 10
3737.6072346586329331
 20
-253.812498968510198
 30
0.0
 11
3754.5999780207148433
 21
-253.812498968556099
 31
0.0
  0
ARC
  5
871C
  8
0
 10
3756.1352072326790221
 20
-238.8762807616205066
 30
0.0
 40
0.0273424977830805
 50
357.3469127055865897
 51
58.4368485292430435
  0
ARC
  5
871D
  8
0
 10
3756.1351368378450388
 20
-254.3194548411644007
 30
0.0
 40
0.0274115719760857
 50
265.8846580189542124
 51
2.5893439533133602
  0
ARC
  5
871E
  8
0
 10
3754.6034726610459984
 20
-242.6244074729673059
 30
0.0
 40
0.3732518001166134
 50
357.0316078628529795
 51
43.185285053693157
  0
ARC
  5
871F
  8
0
 10
3754.6173075253359457
 20
-242.6484362950438936
 30
0.0
 40
0.3805667207395263
 50
47.2519218350329311
 51
92.609924162982395
  0
ARC
  5
8720
  8
0
 10
3754.6296982436051621
 20
-253.4660338650450058
 30
0.0
 40
0.3477374866182923
 50
265.097096608059303
 51
4.7852303707817541
  0
ARC
  5
8721
  8
0
 10
3737.5776114124259948
 20
-253.4659983839208053
 30
0.0
 40
0.3478311681226899
 50
175.2219264036189088
 51
275.0131765196879883
  0
POINT
  5
8722
  8
DEFPOINTS
 10
3746.1036063396240934
 20
-240.7879204868102079
 30
0.0
  0
ARC
  5
8723
  8
0
 10
3746.1036062011871763
 20
-254.4140895509781046
 30
0.0
 40
1.496427125267902
 50
81.0194871743143494
 51
98.9805019789405662
  0
ARC
  5
8724
  8
0
 10
3746.2212921912428101
 20
-253.6751412595050965
 30
0.0
 40
0.7481671644068708
 50
70.7313757157305361
 51
81.087996597529937
  0
ARC
  5
8725
  8
0
 10
3746.3902341577759216
 20
-253.1927293653891127
 30
0.0
 40
0.2370288562205965
 50
56.2369301360030178
 51
70.799885138925859
  0
ARC
  5
8726
  8
0
 10
3746.4999617504408889
 20
-253.0341215926221992
 30
0.0
 40
0.0442959733644743
 50
9.8387334758021439
 51
60.2155123063337214
  0
ARC
  5
8727
  8
0
 10
3745.9785749246830164
 20
-253.6498497830050951
 30
0.0
 40
0.722050828376966
 50
98.647063481795243
 51
107.7557729506973061
  0
ARC
  5
8728
  8
0
 10
3745.8723457805531325
 20
-253.3181051558539139
 30
0.0
 40
0.3737131635940245
 50
107.7557729506973061
 51
117.9352015455234977
  0
ARC
  5
8729
  8
0
 10
3745.7403221445010786
 20
-253.0691259185022091
 30
0.0
 40
0.0918960223328553
 50
117.9352015455234977
 51
140.1458680244965933
  0
ARC
  5
872A
  8
0
 10
3745.6901935374871755
 20
-253.0272800376390023
 30
0.0
 40
0.0265970561366208
 50
140.1458680244990092
 51
178.4325118660044893
  0
ARC
  5
872B
  8
0
 10
3745.6902297317378725
 20
-253.0252261855065967
 30
0.0
 40
0.0266563138224853
 50
182.8519726888374919
 51
228.0237914475669072
  0
ARC
  5
872C
  8
0
 10
3745.7578914987830103
 20
-252.9415596051777015
 30
0.0
 40
0.1342288658049301
 50
230.4391023517873975
 51
254.8219820883448961
  0
ARC
  5
872D
  8
0
 10
3745.9158780563311666
 20
-252.4125786336290957
 30
0.0
 40
0.6862636465115295
 50
253.6548617400501939
 51
263.6271480641620997
  0
ARC
  5
872E
  8
0
 10
3746.0913484777220219
 20
-250.904774832051686
 30
0.0
 40
2.204238223865977
 50
263.4445997702632098
 51
270.3186258931327188
  0
ARC
  5
872F
  8
0
 10
3746.1117396370509596
 20
-250.7664464588777946
 30
0.0
 40
2.3425466329367248
 50
269.8010692526854086
 51
275.4522495416010202
  0
ARC
  5
8730
  8
0
 10
3746.2580699620780251
 20
-252.2374672384177927
 30
0.0
 40
0.8642975240682714
 50
275.0612876294932221
 51
284.3360711890850894
  0
ARC
  5
8731
  8
0
 10
3746.4337999922317977
 20
-252.9112599247561093
 30
0.0
 40
0.1680092016567832
 50
283.1694516306582727
 51
306.0066580571489112
  0
ARC
  5
8732
  8
0
 10
3746.515202493570996
 20
-253.024610983566987
 30
0.0
 40
0.0284700294094397
 50
307.5892639523543153
 51
356.0896927893301722
  0
LINE
  5
8738
  8
0
 10
3757.28657539532378
 20
-237.5375974679101887
 30
0.0
 11
3734.9206372839239521
 21
-237.5375974679101887
 31
0.0
  0
ARC
  5
8739
  8
0
 10
3734.9206372839239521
 20
-237.725047616721497
 30
0.0
 40
0.1874501488112514
 50
90.0
 51
142.7674183119511042
  0
ARC
  5
873A
  8
0
 10
3734.920109068209058
 20
-237.7246468432929021
 30
0.0
 40
0.186787102113051
 50
142.7672625553221906
 51
180.0814484171135916
  0
ARC
  5
873B
  8
0
 10
3734.9204200923099961
 20
-255.4710678999634013
 30
0.0
 40
0.1870980635490265
 50
179.9334885878936916
 51
270.0664426810229202
  0
LINE
  5
873C
  8
0
 10
3734.9206370593269639
 20
-255.658165837710186
 30
0.0
 11
3757.2865757442241375
 21
-255.6581661618101862
 31
0.0
  0
ARC
  5
873D
  8
0
 10
3757.2865762771948539
 20
-255.4708519144793115
 30
0.0
 40
0.1873142473316187
 50
269.9998369744131992
 51
0.0003273744799302
  0
LINE
  5
873E
  8
0
 10
3757.4738905245230853
 20
-255.4708508442101902
 30
0.0
 11
3757.4738905245230853
 21
-237.7249123691102
 31
0.0
  0
ARC
  5
873F
  8
0
 10
3757.286708298413032
 20
-237.7247796938592899
 30
0.0
 40
0.1871822731310295
 50
359.959388608598772
 51
90.0406811318681406
  0
LINE
  5
8740
  8
0
 10
3734.7333221548237816
 20
-255.4708507085105964
 30
0.0
 11
3734.7333221548237816
 21
-237.7249123691102
 31
0.0
  0
CIRCLE
  5
8856
  8
0
 10
3746.1036063396240934
 20
-240.7879204868102079
 30
0.0
 40
0.625
  0
CIRCLE
  5
8857
  8
0
 10
3744.1036063396240934
 20
-240.7879204868102079
 30
0.0
 40
0.625
  0
CIRCLE
  5
8858
  8
0
 10
3748.1036063396240934
 20
-240.7879204868102079
 30
0.0
 40
0.625
  0
ENDSEC
  0
EOF
