  0
SECTION
  2
HEADER
  9
$ACADVER
  1
AC1009
  9
$INSBASE
 10
3775.628806769871062
 20
-273.2342353271528168
 30
0.0
  9
$EXTMIN
 10
3766.5681951209489853
 20
-280.5722353271527254
 30
0.0
  9
$EXTMAX
 10
3784.6887645044821511
 20
-271.692167273420182
 30
0.0
  9
$LIMMIN
 10
0.0
 20
0.0
  9
$LIMMAX
 10
11.6929133858000007
 20
8.2677165353999982
  9
$ORTHOMODE
 70
     0
  9
$REGENMODE
 70
     1
  9
$FILLMODE
 70
     1
  9
$QTEXTMODE
 70
     0
  9
$MIRRTEXT
 70
     0
  9
$DRAGMODE
 70
     2
  9
$LTSCALE
 40
0.6431102362
  9
$OSMODE
 70
    37
  9
$ATTMODE
 70
     1
  9
$TEXTSIZE
 40
0.2
  9
$TRACEWID
 40
0.05
  9
$TEXTSTYLE
  7
STANDARD
  9
$CLAYER
  8
0
  9
$CELTYPE
  6
BYLAYER
  9
$CECOLOR
 62
   256
  9
$DIMSCALE
 40
1.0
  9
$DIMASZ
 40
0.1875
  9
$DIMEXO
 40
0.0625
  9
$DIMDLI
 40
0.4443307087
  9
$DIMRND
 40
0.0
  9
$DIMDLE
 40
0.0
  9
$DIMEXE
 40
0.125
  9
$DIMTP
 40
0.01
  9
$DIMTM
 40
0.01
  9
$DIMTXT
 40
2.0
  9
$DIMCEN
 40
0.1052362205
  9
$DIMTSZ
 40
0.0
  9
$DIMTOL
 70
     1
  9
$DIMLIM
 70
     0
  9
$DIMTIH
 70
     1
  9
$DIMTOH
 70
     1
  9
$DIMSE1
 70
     0
  9
$DIMSE2
 70
     0
  9
$DIMTAD
 70
     0
  9
$DIMZIN
 70
     0
  9
$DIMBLK
  1

  9
$DIMASO
 70
     1
  9
$DIMSHO
 70
     1
  9
$DIMPOST
  1
\X
  9
$DIMAPOST
  1

  9
$DIMALT
 70
     1
  9
$DIMALTD
 70
     2
  9
$DIMALTF
 40
25.3999999999999986
  9
$DIMLFAC
 40
1.0
  9
$DIMTOFL
 70
     0
  9
$DIMTVP
 40
0.0
  9
$DIMTIX
 70
     0
  9
$DIMSOXD
 70
     0
  9
$DIMSAH
 70
     0
  9
$DIMBLK1
  1

  9
$DIMBLK2
  1

  9
$DIMSTYLE
  2
STANDARD
  9
$DIMCLRD
 70
     0
  9
$DIMCLRE
 70
     0
  9
$DIMCLRT
 70
     0
  9
$DIMTFAC
 40
1.0
  9
$DIMGAP
 40
0.09
  9
$LUNITS
 70
     2
  9
$LUPREC
 70
     4
  9
$SKETCHINC
 40
0.1
  9
$FILLETRAD
 40
0.0
  9
$AUNITS
 70
     0
  9
$AUPREC
 70
     0
  9
$MENU
  1
.
  9
$ELEVATION
 40
0.0
  9
$PELEVATION
 40
0.0
  9
$THICKNESS
 40
0.0
  9
$LIMCHECK
 70
     0
  9
$BLIPMODE
 70
     0
  9
$CHAMFERA
 40
0.0
  9
$CHAMFERB
 40
0.0
  9
$SKPOLY
 70
     0
  9
$TDCREATE
 40
2458060.468368056230247
  9
$TDUPDATE
 40
2459016.789050925988704
  9
$TDINDWG
 40
0.339659838
  9
$TDUSRTIMER
 40
0.339659838
  9
$USRTIMER
 70
     1
  9
$ANGBASE
 50
0.0
  9
$ANGDIR
 70
     0
  9
$PDMODE
 70
     0
  9
$PDSIZE
 40
0.3125
  9
$PLINEWID
 40
0.0
  9
$COORDS
 70
     1
  9
$SPLFRAME
 70
     0
  9
$SPLINETYPE
 70
     6
  9
$SPLINESEGS
 70
     8
  9
$ATTDIA
 70
     1
  9
$ATTREQ
 70
     1
  9
$HANDLING
 70
     1
  9
$HANDSEED
  5
89E1
  9
$SURFTAB1
 70
     6
  9
$SURFTAB2
 70
     6
  9
$SURFTYPE
 70
     6
  9
$SURFU
 70
     6
  9
$SURFV
 70
     6
  9
$UCSNAME
  2

  9
$UCSORG
 10
0.0
 20
0.0
 30
0.0
  9
$UCSXDIR
 10
1.0
 20
0.0
 30
0.0
  9
$UCSYDIR
 10
0.0
 20
1.0
 30
0.0
  9
$PUCSNAME
  2

  9
$PUCSORG
 10
0.0
 20
0.0
 30
0.0
  9
$PUCSXDIR
 10
1.0
 20
0.0
 30
0.0
  9
$PUCSYDIR
 10
0.0
 20
1.0
 30
0.0
  9
$USERI1
 70
     0
  9
$USERI2
 70
     0
  9
$USERI3
 70
     0
  9
$USERI4
 70
     0
  9
$USERI5
 70
     0
  9
$USERR1
 40
0.0
  9
$USERR2
 40
0.0
  9
$USERR3
 40
0.0
  9
$USERR4
 40
0.0
  9
$USERR5
 40
0.0
  9
$WORLDVIEW
 70
     1
  9
$SHADEDGE
 70
     3
  9
$SHADEDIF
 70
    70
  9
$TILEMODE
 70
     1
  9
$MAXACTVP
 70
    64
  9
$PLIMCHECK
 70
     0
  9
$PEXTMIN
 10
1.0000000000000000E+20
 20
1.0000000000000000E+20
 30
1.0000000000000000E+20
  9
$PEXTMAX
 10
-1.0000000000000000E+20
 20
-1.0000000000000000E+20
 30
-1.0000000000000000E+20
  9
$PLIMMIN
 10
0.0
 20
0.0
  9
$PLIMMAX
 10
12.0
 20
9.0
  9
$UNITMODE
 70
     0
  9
$VISRETAIN
 70
     1
  9
$PLINEGEN
 70
     0
  9
$PSLTSCALE
 70
     1
  0
ENDSEC
  0
SECTION
  2
TABLES
  0
TABLE
  2
VPORT
 70
     1
  0
VPORT
  2
*ACTIVE
 70
     0
 10
0.0
 20
0.0
 11
1.0
 21
1.0
 12
-139.2583195960997102
 22
-395.3246068811956206
 13
0.0
 23
0.0
 14
1.0
 24
1.0
 15
0.0
 25
0.0
 16
0.0
 26
0.0
 36
60.2538140246172205
 17
3914.8226318359379547
 27
119.2012214660643963
 37
0.0
 40
8.9895182242129881
 41
2.6486111111111108
 42
50.0
 43
0.0
 44
0.0
 50
0.0
 51
0.0
 71
     0
 72
 10000
 73
     1
 74
     1
 75
     0
 76
     0
 77
     0
 78
     0
  0
ENDTAB
  0
TABLE
  2
LTYPE
 70
     2
  0
LTYPE
  2
CONTINUOUS
 70
     0
  3
Solid line
 72
    65
 73
     0
 40
0.0
  0
LTYPE
  2
PHANTOM2
 70
     0
  3
___ _ _ ___ _ _ ___ _ _ ___ _ _
 72
    65
 73
     6
 40
1.25
 49
0.625
 49
-0.125
 49
0.125
 49
-0.125
 49
0.125
 49
-0.125
  0
ENDTAB
  0
TABLE
  2
LAYER
 70
     2
  0
LAYER
  2
0
 70
     0
 62
   255
  6
CONTINUOUS
  0
LAYER
  2
DEFPOINTS
 70
     0
 62
     7
  6
CONTINUOUS
  0
ENDTAB
  0
TABLE
  2
STYLE
 70
     1
  0
STYLE
  2
STANDARD
 70
     0
 40
0.0
 41
0.8
 50
0.0
 71
     0
 42
0.2
  3
txt
  4

  0
ENDTAB
  0
TABLE
  2
VIEW
 70
     0
  0
ENDTAB
  0
TABLE
  2
UCS
 70
     0
  0
ENDTAB
  0
TABLE
  2
APPID
 70
    10
  0
APPID
  2
ACAD
 70
     0
  0
APPID
  2
ACAD_MLEADERVER
 70
     0
  0
APPID
  2
ACAD_EXEMPT_FROM_CAD_STANDARDS
 70
     0
  0
APPID
  2
ACAD_NAV_VCDISPLAY
 70
     0
  0
APPID
  2
ACAECLAYERSTANDARD
 70
     0
  0
APPID
  2
ACCMTRANSPARENCY
 70
     0
  0
APPID
  2
ACAD_DSTYLE_DIMJAG
 70
     0
  0
APPID
  2
ACAD_DSTYLE_DIMTALN
 70
     0
  0
APPID
  2
ACDBATTR
 70
     0
  0
APPID
  2
ACADANNOTATIVE
 70
     0
  0
ENDTAB
  0
TABLE
  2
DIMSTYLE
 70
     1
  0
DIMSTYLE
  2
STANDARD
 70
     0
  3

  4

  5

  6

  7

 40
1.0
 41
0.1875
 42
0.0625
 43
0.38
 44
0.125
 45
0.0
 46
0.0
 47
0.01
 48
0.01
140
0.15625
141
0.09
142
0.0
143
25.3999999999999986
144
1.0
145
0.0
146
1.0
147
0.09
 71
     1
 72
     0
 73
     1
 74
     1
 75
     0
 76
     0
 77
     0
 78
     4
170
     0
171
     2
172
     0
173
     0
174
     0
175
     0
176
     0
177
     0
178
     0
  0
ENDTAB
  0
ENDSEC
  0
SECTION
  2
BLOCKS
  0
BLOCK
  8
0
  2
$MODEL_SPACE
 70
     0
 10
0.0
 20
0.0
 30
0.0
  3
$MODEL_SPACE
  1

  0
ENDBLK
  5
21
  8
0
  0
BLOCK
 67
     1
  8
0
  2
$PAPER_SPACE
 70
     0
 10
0.0
 20
0.0
 30
0.0
  3
$PAPER_SPACE
  1

  0
ENDBLK
  5
1D
 67
     1
  8
0
  0
ENDSEC
  0
SECTION
  2
ENTITIES
  0
ATTDEF
  5
7D89
  8
DEFPOINTS
 10
3775.6177898671821822
 20
-273.235961600205826
 30
0.0
 40
0.001
  1
K-2241X-1
  3

  2
MODELNUMBER
 70
     0
1001
ACDBATTR
1070
     0
1070
     1
  0
ATTDEF
  5
7D8A
  8
DEFPOINTS
 10
3775.6177898671821822
 20
-273.2376282668723775
 30
0.0
 40
0.001
  1
MEMOIRS
  3

  2
TRADENAME
 70
     0
1001
ACDBATTR
1070
     0
1070
     1
  0
ATTDEF
  5
7D8B
  8
DEFPOINTS
 10
3775.6177898671821822
 20
-273.2392949335390995
 30
0.0
 40
0.001
  1
BATHROOM SINK
  3

  2
PRODUCT
 70
     0
1001
ACDBATTR
1070
     0
1070
     1
  0
LINE
  5
870F
  8
0
 10
3783.7286826242498137
 20
-271.6922353271526731
 30
0.0
 11
3767.5282746352499998
 21
-271.6922353271526731
 31
0.0
  0
ARC
  5
8710
  8
0
 10
3767.5187269566968098
 20
-272.3619527030601262
 30
0.0
 40
0.6697854296398992
 50
89.1832306449250041
 51
92.1204280315737236
  0
ARC
  5
8711
  8
0
 10
3767.504941466550008
 20
-271.8472353271528164
 30
0.0
 40
0.1550000000000126
 50
94.0683029949774152
 51
134.9975866816290022
  0
ARC
  5
8712
  8
0
 10
3797.8511330450792229
 20
-302.300425512511822
 30
0.0
 40
43.1467214844310902
 50
134.8995209194069957
 51
135.3014495855375117
  0
ARC
  5
8713
  8
0
 10
3767.2982697025408925
 20
-272.0514973545281237
 30
0.0
 40
0.1532430224696153
 50
139.5256283270400957
 51
175.2077987674219912
  0
LINE
  5
8714
  8
0
 10
3767.1455623807250959
 20
-272.0386950969456166
 30
0.0
 11
3767.1404657094499271
 21
-272.0969507039527002
 31
0.0
  0
ARC
  5
8715
  8
0
 10
3767.0410329091951098
 20
-272.0883273067429968
 30
0.0
 40
0.099806035618144
 50
269.8928089187937758
 51
355.0433750968962272
  0
ARC
  5
8716
  8
0
 10
3767.0329877545300405
 20
-272.3106155751730739
 30
0.0
 40
0.1227342459313413
 50
86.3289519860755377
 51
168.4293049796231969
  0
ARC
  5
8717
  8
0
 10
3765.7640975499648448
 20
-272.0321850614212167
 30
0.0
 40
1.176358014307832
 50
326.1258003116842019
 51
347.539788712136783
  0
ARC
  5
8718
  8
0
 10
3767.5806460766898454
 20
-273.2645891721192015
 30
0.0
 40
1.018818819340209
 50
145.5224759354676962
 51
173.4300948330457004
  0
ARC
  5
8719
  8
0
 10
3766.6281951209498402
 20
-273.154235327152719
 30
0.0
 40
0.0600000000002773
 50
174.0547559372201931
 51
269.9998601025387757
  0
ARC
  5
871A
  8
0
 10
3766.643479305893834
 20
-273.2342353269866067
 30
0.0
 40
0.0199999998338349
 50
29.9999997257691398
 51
89.9612854573814502
  0
ARC
  5
871B
  8
0
 10
3766.6781203218538394
 20
-273.2142353273181925
 30
0.0
 40
0.0199999998344979
 50
209.9999997257691007
 51
270.0000002737349973
  0
ARC
  5
871C
  8
0
 10
3784.578838055892902
 20
-273.2142349222320945
 30
0.0
 40
0.0200004049219516
 50
270.0006696500432213
 51
329.999330280300228
  0
ARC
  5
871D
  8
0
 10
3784.613479460149847
 20
-273.234235587441276
 30
0.0
 40
0.020000263793809
 50
91.3278897103119078
 51
149.9995752886829905
  0
ARC
  5
871E
  8
0
 10
3783.706517963045826
 20
-273.2566053594239861
 30
0.0
 40
0.9878679372274131
 50
6.3168475915222713
 51
33.3540284287741073
  0
ARC
  5
871F
  8
0
 10
3785.5141477771171594
 20
-272.031714671331315
 30
0.0
 40
1.1958424948473849
 50
192.4190433814536902
 51
214.7572286014128053
  0
ARC
  5
8720
  8
0
 10
3784.2230686009138481
 20
-272.3136144673470085
 30
0.0
 40
0.1256739630054196
 50
11.3449438890241403
 51
93.1729997319037153
  0
ARC
  5
8721
  8
0
 10
3784.2159255961460076
 20
-272.088327460094888
 30
0.0
 40
0.0998058824644109
 50
184.956657967485512
 51
270.1072519543732824
  0
LINE
  5
8722
  8
0
 10
3784.1164929534497787
 20
-272.0969509014527148
 30
0.0
 11
3784.1113962018498569
 21
-272.0386947638526749
 31
0.0
  0
ARC
  5
8723
  8
0
 10
3783.7382303028020942
 20
-272.3619527030601262
 30
0.0
 40
0.6697854296398992
 50
87.8795719684262764
 51
90.8167693550749959
  0
ARC
  5
8724
  8
0
 10
3783.7520157929498055
 20
-271.8472353271528164
 30
0.0
 40
0.1550000000000126
 50
45.0024133183709623
 51
85.9316970050225564
  0
ARC
  5
8725
  8
0
 10
3753.4058242144210453
 20
-302.300425512511822
 30
0.0
 40
43.1467214844310902
 50
44.6985504144624883
 51
45.1004790805929616
  0
ARC
  5
8726
  8
0
 10
3783.9586754818587906
 20
-272.051504769771384
 30
0.0
 40
0.1532570212615631
 50
4.7946684444316086
 51
40.4735502060265588
  0
LINE
  5
8727
  8
0
 10
3779.6744264263961668
 20
-273.2342352650604198
 30
0.0
 11
3779.2097436518502036
 21
-278.0883323023027174
 31
0.0
  0
ARC
  5
8728
  8
0
 10
3778.146669890623798
 20
-277.8486940418312088
 30
0.0
 40
1.0897487406231079
 50
277.4011975207827163
 51
347.2967050070877235
  0
ARC
  5
8729
  8
0
 10
3778.3617079266891778
 20
-279.1496488014274178
 30
0.0
 40
0.2325936736659597
 50
108.7229018619928951
 51
175.0226894964550866
  0
LINE
  5
872A
  8
0
 10
3778.129991332550162
 20
-279.1294686867145742
 30
0.0
 11
3777.9907146264467883
 21
-280.4558240273777869
 31
0.0
  0
ARC
  5
872B
  8
0
 10
3777.861426780048987
 20
-280.4422353271526731
 30
0.0
 40
0.1299999999999986
 50
270.0
 51
353.9999999998997851
  0
LINE
  5
872C
  8
0
 10
3777.861426780048987
 20
-280.5722353271527254
 30
0.0
 11
3775.405531831549979
 21
-280.5722353271527254
 31
0.0
  0
ARC
  5
872D
  8
0
 10
3775.405531831549979
 20
-280.4422353271526731
 30
0.0
 40
0.1300000000000048
 50
186.0000000001001865
 51
270.0
  0
ARC
  5
872E
  8
0
 10
3767.5415207279302194
 20
-273.3342353271694947
 30
0.0
 40
0.130000000025493
 50
10.3528214142830794
 51
50.2846058443230177
  0
ARC
  5
872F
  8
0
 10
3776.244748126225204
 20
-271.7443008991053262
 30
0.0
 40
8.7172627762226611
 50
190.3528214142831132
 51
201.1449315771216106
  0
ARC
  5
8730
  8
0
 10
3775.8988140289839066
 20
-271.878097527561124
 30
0.0
 40
8.3463558641545532
 50
201.1449315771216106
 51
227.3385035507600946
  0
ARC
  5
8731
  8
0
 10
3775.3179825513070682
 20
-272.4925030553627039
 30
0.0
 40
7.5009385585286257
 50
227.4207289283289128
 51
267.7723426182284925
  0
ARC
  5
8732
  8
0
 10
3775.0013967490590403
 20
-280.2369867325795099
 30
0.0
 40
0.2504669174802108
 50
6.0359875602825603
 51
84.2662507824477274
  0
LINE
  5
8733
  8
0
 10
3775.2504750891498588
 20
-280.2106493589528213
 30
0.0
 11
3775.2762439851489944
 21
-280.455824027352719
 31
0.0
  0
ARC
  5
8734
  8
0
 10
3777.9147770472582124
 20
-278.5298808056447797
 30
0.0
 40
0.6359395165467711
 50
267.4861422626411809
 51
289.8056821252761779
  0
ARC
  5
8735
  8
0
 10
3780.7248729398329488
 20
-123.422536287254303
 30
0.0
 40
155.7685272219900128
 50
268.650727902578808
 51
268.9560549655622026
  0
ARC
  5
8736
  8
0
 10
3776.5504518006509898
 20
-300.6532808201470743
 30
0.0
 40
21.5113718064411188
 50
88.6507279025788364
 51
92.4449800017934962
  0
ARC
  5
8737
  8
0
 10
3775.7333354170109487
 20
-281.5165603334211823
 30
0.0
 40
2.3572142898211732
 50
92.4449800017934962
 51
96.5080836970029452
  0
ARC
  5
8738
  8
0
 10
3775.4590375049210706
 20
-271.366020111525188
 30
0.0
 40
7.8085193663849291
 50
257.7111432777513755
 51
270.0522675320640928
  0
ARC
  5
8739
  8
0
 10
3775.3535466438052026
 20
-272.4069330124434032
 30
0.0
 40
6.7700409239877377
 50
223.7975911625879064
 51
256.7084260035812804
  0
ARC
  5
873A
  8
0
 10
3775.9658317648659249
 20
-271.8239766883302764
 30
0.0
 40
7.6154539302515492
 50
191.3862247226759052
 51
223.7750298232072055
  0
ARC
  5
873B
  8
0
 10
26311.768639903049916
 20
-273.2808337632001781
 30
0.0
 40
22543.2683798382895475
 50
179.9998815658117053
 51
180.0001184341882094
  0
LINE
  5
8773
  8
0
 10
3766.6360681296850998
 20
-273.2142353295025146
 30
0.0
 11
3766.6281949744497979
 21
-273.2142353271527213
 31
0.0
  0
ARC
  5
8774
  8
0
 10
3784.6405956221078668
 20
-273.1539228215730191
 30
0.0
 40
0.0481688823743071
 50
359.6282791810168078
 51
7.166464213896738
  0
ARC
  5
8775
  8
0
 10
3784.628772055706122
 20
-273.1542416364915198
 30
0.0
 40
0.0599914353756858
 50
287.239852882752416
 51
0.0060258348465444
  0
ARC
  5
8776
  8
0
 10
3784.6213659338209254
 20
-273.1084438273771866
 30
0.0
 40
0.1061258637895293
 50
265.4873168244599242
 51
283.7284960436372216
  0
LINE
  5
8777
  8
0
 10
3766.6400047073020687
 20
-273.2142353306774112
 30
0.0
 11
3766.6360681296850998
 21
-273.2142353295025146
 31
0.0
  0
LINE
  5
8781
  8
0
 10
3767.0244854957991265
 20
-272.1882349476049967
 30
0.0
 11
3784.2324741296338289
 21
-272.1882349476049967
 31
0.0
  0
LINE
  5
8782
  8
0
 10
3766.6781203218538394
 20
-273.2342353271528168
 30
0.0
 11
3784.5788382896489566
 21
-273.2342353271528168
 31
0.0
  0
LINE
  5
87C6
  8
0
 10
3767.1910259360920463
 20
-271.9426026834527192
 30
0.0
 11
3784.0665876036500777
 21
-271.9426026834527192
 31
0.0
  0
ENDSEC
  0
EOF
