  0
SECTION
  2
HEADER
  9
$ACADVER
  1
AC1009
  9
$INSBASE
 10
4006.6163297268371934
 20
139.9399803509433013
 30
0.0
  9
$EXTMIN
 10
3997.6987434798870709
 20
134.3549747957976024
 30
-0.0000000349181948
  9
$EXTMAX
 10
4015.6781135587498284
 20
145.5303218980583893
 30
0.0000000814935746
  9
$LIMMIN
 10
0.0
 20
0.0
  9
$LIMMAX
 10
11.6929133858000007
 20
8.2677165353999982
  9
$ORTHOMODE
 70
     0
  9
$REGENMODE
 70
     1
  9
$FILLMODE
 70
     1
  9
$QTEXTMODE
 70
     0
  9
$MIRRTEXT
 70
     0
  9
$DRAGMODE
 70
     2
  9
$LTSCALE
 40
0.6431102362
  9
$OSMODE
 70
  4095
  9
$ATTMODE
 70
     1
  9
$TEXTSIZE
 40
0.2
  9
$TRACEWID
 40
0.05
  9
$TEXTSTYLE
  7
STANDARD
  9
$CLAYER
  8
0
  9
$CELTYPE
  6
BYLAYER
  9
$CECOLOR
 62
   256
  9
$DIMSCALE
 40
1.0
  9
$DIMASZ
 40
0.1875
  9
$DIMEXO
 40
0.0625
  9
$DIMDLI
 40
0.4443307087
  9
$DIMRND
 40
0.0
  9
$DIMDLE
 40
0.0
  9
$DIMEXE
 40
0.125
  9
$DIMTP
 40
0.01
  9
$DIMTM
 40
0.01
  9
$DIMTXT
 40
2.0
  9
$DIMCEN
 40
0.1052362205
  9
$DIMTSZ
 40
0.0
  9
$DIMTOL
 70
     1
  9
$DIMLIM
 70
     0
  9
$DIMTIH
 70
     1
  9
$DIMTOH
 70
     1
  9
$DIMSE1
 70
     0
  9
$DIMSE2
 70
     0
  9
$DIMTAD
 70
     0
  9
$DIMZIN
 70
     0
  9
$DIMBLK
  1

  9
$DIMASO
 70
     1
  9
$DIMSHO
 70
     1
  9
$DIMPOST
  1
\X
  9
$DIMAPOST
  1

  9
$DIMALT
 70
     1
  9
$DIMALTD
 70
     2
  9
$DIMALTF
 40
25.3999999999999986
  9
$DIMLFAC
 40
1.0
  9
$DIMTOFL
 70
     0
  9
$DIMTVP
 40
0.0
  9
$DIMTIX
 70
     0
  9
$DIMSOXD
 70
     0
  9
$DIMSAH
 70
     0
  9
$DIMBLK1
  1

  9
$DIMBLK2
  1

  9
$DIMSTYLE
  2
STANDARD
  9
$DIMCLRD
 70
     0
  9
$DIMCLRE
 70
     0
  9
$DIMCLRT
 70
     0
  9
$DIMTFAC
 40
1.0
  9
$DIMGAP
 40
0.09
  9
$LUNITS
 70
     2
  9
$LUPREC
 70
     4
  9
$SKETCHINC
 40
0.1
  9
$FILLETRAD
 40
0.0
  9
$AUNITS
 70
     0
  9
$AUPREC
 70
     0
  9
$MENU
  1
.
  9
$ELEVATION
 40
0.0
  9
$PELEVATION
 40
0.0
  9
$THICKNESS
 40
0.0
  9
$LIMCHECK
 70
     0
  9
$BLIPMODE
 70
     0
  9
$CHAMFERA
 40
0.0
  9
$CHAMFERB
 40
0.0
  9
$SKPOLY
 70
     0
  9
$TDCREATE
 40
2458060.468368056230247
  9
$TDUPDATE
 40
2459075.5203703711740673
  9
$TDINDWG
 40
0.3620903935
  9
$TDUSRTIMER
 40
0.3620903935
  9
$USRTIMER
 70
     1
  9
$ANGBASE
 50
0.0
  9
$ANGDIR
 70
     0
  9
$PDMODE
 70
     0
  9
$PDSIZE
 40
0.3125
  9
$PLINEWID
 40
0.0
  9
$COORDS
 70
     1
  9
$SPLFRAME
 70
     0
  9
$SPLINETYPE
 70
     6
  9
$SPLINESEGS
 70
     8
  9
$ATTDIA
 70
     1
  9
$ATTREQ
 70
     1
  9
$HANDLING
 70
     1
  9
$HANDSEED
  5
ECE7
  9
$SURFTAB1
 70
     6
  9
$SURFTAB2
 70
     6
  9
$SURFTYPE
 70
     6
  9
$SURFU
 70
     6
  9
$SURFV
 70
     6
  9
$UCSNAME
  2

  9
$UCSORG
 10
0.0
 20
0.0
 30
0.0
  9
$UCSXDIR
 10
1.0
 20
0.0
 30
0.0
  9
$UCSYDIR
 10
0.0
 20
1.0
 30
0.0
  9
$PUCSNAME
  2

  9
$PUCSORG
 10
0.0
 20
0.0
 30
0.0
  9
$PUCSXDIR
 10
1.0
 20
0.0
 30
0.0
  9
$PUCSYDIR
 10
0.0
 20
1.0
 30
0.0
  9
$USERI1
 70
     0
  9
$USERI2
 70
     0
  9
$USERI3
 70
     0
  9
$USERI4
 70
     0
  9
$USERI5
 70
     0
  9
$USERR1
 40
0.0
  9
$USERR2
 40
0.0
  9
$USERR3
 40
0.0
  9
$USERR4
 40
0.0
  9
$USERR5
 40
0.0
  9
$WORLDVIEW
 70
     1
  9
$SHADEDGE
 70
     3
  9
$SHADEDIF
 70
    70
  9
$TILEMODE
 70
     1
  9
$MAXACTVP
 70
    64
  9
$PLIMCHECK
 70
     0
  9
$PEXTMIN
 10
1.0000000000000000E+20
 20
1.0000000000000000E+20
 30
1.0000000000000000E+20
  9
$PEXTMAX
 10
-1.0000000000000000E+20
 20
-1.0000000000000000E+20
 30
-1.0000000000000000E+20
  9
$PLIMMIN
 10
0.0
 20
0.0
  9
$PLIMMAX
 10
12.0
 20
9.0
  9
$UNITMODE
 70
     0
  9
$VISRETAIN
 70
     1
  9
$PLINEGEN
 70
     0
  9
$PSLTSCALE
 70
     1
  0
ENDSEC
  0
SECTION
  2
TABLES
  0
TABLE
  2
VPORT
 70
     1
  0
VPORT
  2
*ACTIVE
 70
     0
 10
0.0
 20
0.0
 11
1.0
 21
1.0
 12
95.3230715624420384
 22
7.363042983302079
 13
0.0
 23
0.0
 14
1.0
 24
1.0
 15
0.0
 25
0.0
 16
0.0
 26
0.0
 36
60.4960186965801583
 17
3911.3653564453120453
 27
132.5796051025390057
 37
0.0
 40
13.3882164319369394
 41
1.8483146067415721
 42
50.0
 43
0.0
 44
0.0
 50
0.0
 51
0.0
 71
     0
 72
   100
 73
     1
 74
     1
 75
     0
 76
     0
 77
     0
 78
     0
  0
ENDTAB
  0
TABLE
  2
LTYPE
 70
     2
  0
LTYPE
  2
CONTINUOUS
 70
     0
  3
Solid line
 72
    65
 73
     0
 40
0.0
  0
LTYPE
  2
PHANTOM2
 70
     0
  3
___ _ _ ___ _ _ ___ _ _ ___ _ _
 72
    65
 73
     6
 40
1.25
 49
0.625
 49
-0.125
 49
0.125
 49
-0.125
 49
0.125
 49
-0.125
  0
ENDTAB
  0
TABLE
  2
LAYER
 70
     2
  0
LAYER
  2
0
 70
     0
 62
   255
  6
CONTINUOUS
  0
LAYER
  2
DEFPOINTS
 70
     0
 62
     7
  6
CONTINUOUS
  0
ENDTAB
  0
TABLE
  2
STYLE
 70
     1
  0
STYLE
  2
STANDARD
 70
     0
 40
0.0
 41
0.8
 50
0.0
 71
     0
 42
0.2
  3
txt
  4

  0
ENDTAB
  0
TABLE
  2
VIEW
 70
     0
  0
ENDTAB
  0
TABLE
  2
UCS
 70
     0
  0
ENDTAB
  0
TABLE
  2
APPID
 70
    10
  0
APPID
  2
ACAD
 70
     0
  0
APPID
  2
ACAD_MLEADERVER
 70
     0
  0
APPID
  2
ACAD_EXEMPT_FROM_CAD_STANDARDS
 70
     0
  0
APPID
  2
ACAD_NAV_VCDISPLAY
 70
     0
  0
APPID
  2
ACAECLAYERSTANDARD
 70
     0
  0
APPID
  2
ACCMTRANSPARENCY
 70
     0
  0
APPID
  2
ACAD_DSTYLE_DIMJAG
 70
     0
  0
APPID
  2
ACAD_DSTYLE_DIMTALN
 70
     0
  0
APPID
  2
ACDBATTR
 70
     0
  0
APPID
  2
ACADANNOTATIVE
 70
     0
  0
ENDTAB
  0
TABLE
  2
DIMSTYLE
 70
     1
  0
DIMSTYLE
  2
STANDARD
 70
     0
  3

  4

  5

  6

  7

 40
1.0
 41
0.1875
 42
0.0625
 43
0.38
 44
0.125
 45
0.0
 46
0.0
 47
0.01
 48
0.01
140
0.15625
141
0.09
142
0.0
143
25.3999999999999986
144
1.0
145
0.0
146
1.0
147
0.09
 71
     1
 72
     0
 73
     1
 74
     1
 75
     0
 76
     0
 77
     0
 78
     4
170
     0
171
     2
172
     0
173
     0
174
     0
175
     0
176
     0
177
     0
178
     0
  0
ENDTAB
  0
ENDSEC
  0
SECTION
  2
BLOCKS
  0
BLOCK
  8
0
  2
$MODEL_SPACE
 70
     0
 10
0.0
 20
0.0
 30
0.0
  3
$MODEL_SPACE
  1

  0
ENDBLK
  5
21
  8
0
  0
BLOCK
 67
     1
  8
0
  2
$PAPER_SPACE
 70
     0
 10
0.0
 20
0.0
 30
0.0
  3
$PAPER_SPACE
  1

  0
ENDBLK
  5
1D
 67
     1
  8
0
  0
ENDSEC
  0
SECTION
  2
ENTITIES
  0
ATTDEF
  5
E713
  8
DEFPOINTS
 10
4006.6175987664842069
 20
139.9397294385200894
 30
0.0
 40
0.001
  1
K-22436T-L
  3

  2
MODELNUMBER
 70
     0
1001
ACDBATTR
1070
     0
1070
     1
  0
ATTDEF
  5
E714
  8
DEFPOINTS
 10
4006.6175987664842069
 20
139.9380627718533958
 30
0.0
 40
0.001
  1
BEITOU
  3

  2
TRADENAME
 70
     0
1001
ACDBATTR
1070
     0
1070
     1
  0
ATTDEF
  5
E715
  8
DEFPOINTS
 10
4006.6175987664842069
 20
139.9363961051867022
 30
0.0
 40
0.001
  1
SHOWERHEAD
  3

  2
PRODUCT
 70
     0
1001
ACDBATTR
1070
     0
1070
     1
  0
LINE
  5
E9E3
  8
0
 10
3997.7580620103371984
 20
134.404547280043289
 30
0.0
 11
3997.7580620103371984
 21
145.4870213701433102
 31
0.0
  0
LINE
  5
E9E4
  8
0
 10
3997.8368021677370052
 20
134.4439173588432936
 30
0.0
 11
3997.8368021677370052
 21
145.4485116220432985
 31
0.0
  0
LINE
  5
E9E5
  8
0
 10
3997.8466446874372195
 20
145.360093240543307
 30
0.0
 11
3997.8466446874372195
 21
134.5325000359432863
 31
0.0
  0
LINE
  5
E9E6
  8
0
 10
4015.4352273646359208
 20
134.3651772013433003
 30
0.0
 11
3997.7974320890371018
 21
134.3651772013433003
 31
0.0
  0
LINE
  5
E9E7
  8
0
 10
4015.3958572859369269
 20
134.4439173588432936
 30
0.0
 11
3997.8368021677370052
 21
134.4439173588432936
 31
0.0
  0
LINE
  5
E9E8
  8
0
 10
4015.3072746087359519
 20
134.453759878543309
 30
0.0
 11
3997.9253848449370707
 21
134.453759878543309
 31
0.0
  0
LINE
  5
E9E9
  8
0
 10
4002.6793218528368925
 20
137.554153579243291
 30
0.0
 11
4002.6793218528368925
 21
145.293612299143291
 31
0.0
  0
LINE
  5
E9EA
  8
0
 10
4010.5139675308701044
 20
137.5147835006432899
 30
0.0
 11
4002.7186919228029183
 21
137.5147835006432899
 31
0.0
  0
LINE
  5
E9EB
  8
0
 10
4005.7108179158358325
 20
140.3139960989433064
 30
0.0
 11
4005.7108179158358325
 21
139.5659646029432963
 31
0.0
  0
LINE
  5
E9EC
  8
0
 10
4005.7423139788370463
 20
140.3021850753432886
 30
0.0
 11
4005.7423139788370463
 21
139.577775626543314
 31
0.0
  0
LINE
  5
E9ED
  8
0
 10
4005.7462509867368681
 20
139.6210827130433074
 30
0.0
 11
4005.7462509866368237
 21
140.2588779887433077
 31
0.0
  0
LINE
  5
E9EE
  8
0
 10
4005.7305029551362168
 20
139.546279563543294
 30
0.0
 11
4007.5021564985368059
 21
139.546279563543294
 31
0.0
  0
LINE
  5
E9EF
  8
0
 10
4005.7423139788370463
 20
139.577775626543314
 30
0.0
 11
4007.4903454748368858
 21
139.577775626543314
 31
0.0
  0
LINE
  5
E9F0
  8
0
 10
4007.4470383883358409
 20
139.5817126344433063
 30
0.0
 11
4005.7856210654372262
 21
139.5817126344433063
 31
0.0
  0
LINE
  5
E9F1
  8
0
 10
4006.9093598338358788
 20
139.7049109771432995
 30
0.0
 11
4006.9093598338358788
 21
139.7281488383432873
 31
0.0
  0
LINE
  5
E9F2
  8
0
 10
4007.1894413521367824
 20
139.7281488383432873
 30
0.0
 11
4007.1894413521367824
 21
139.7049109771432995
 31
0.0
  0
LINE
  5
E9F3
  8
0
 10
4005.7856210653371818
 20
140.2982480674432963
 30
0.0
 11
4007.4470383882371607
 21
140.2982480674432963
 31
0.0
  0
LINE
  5
E9F4
  8
0
 10
4007.4903454748368858
 20
140.3021850753432886
 30
0.0
 11
4005.7423139788370463
 21
140.3021850753432886
 31
0.0
  0
LINE
  5
E9F5
  8
0
 10
4007.5021564985368059
 20
140.3336811383433087
 30
0.0
 11
4005.7305029551362168
 21
140.3336811383433087
 31
0.0
  0
LINE
  5
E9F6
  8
0
 10
4007.4864084669361546
 20
140.2588779888432953
 30
0.0
 11
4007.4864084670371085
 21
139.621082713143295
 31
0.0
  0
LINE
  5
E9F7
  8
0
 10
4007.4903454748368858
 20
139.577775626543314
 30
0.0
 11
4007.4903454748368858
 21
140.3021850753432886
 31
0.0
  0
LINE
  5
E9F8
  8
0
 10
4007.5218415378358259
 20
139.5659646029432963
 30
0.0
 11
4007.5218415378358259
 21
140.3139960989433064
 31
0.0
  0
LINE
  5
E9F9
  8
0
 10
4015.4745974433358242
 20
142.1978075580433085
 30
0.0
 11
4015.3860147662371674
 21
142.1978075580433085
 31
0.0
  0
LINE
  5
E9FA
  8
0
 10
4015.3860147662371674
 20
142.1978075580433085
 30
0.0
 11
4010.5533376008361302
 21
142.1978075580433085
 31
0.0
  0
LINE
  5
E9FB
  8
0
 10
4010.5533376008361302
 20
142.1978075580433085
 30
0.0
 11
4002.6793218528368925
 21
142.1978075580433085
 31
0.0
  0
LINE
  5
E9FC
  8
0
 10
4002.6793218528368925
 20
142.1978075580433085
 30
0.0
 11
3997.8466446874372195
 21
142.1978075580433085
 31
0.0
  0
LINE
  5
E9FD
  8
0
 10
3997.8466446874372195
 20
142.1978075580433085
 30
0.0
 11
3997.7580620103371984
 21
142.1978075580433085
 31
0.0
  0
LINE
  5
E9FE
  8
0
 10
3997.8368021677370052
 20
142.2960335536432979
 30
0.0
 11
3997.8466446874372195
 21
142.2960335536432979
 31
0.0
  0
LINE
  5
E9FF
  8
0
 10
4015.3860147662371674
 20
142.2960335536432979
 30
0.0
 11
4015.3958572859369269
 21
142.2960335536432979
 31
0.0
  0
LINE
  5
EA00
  8
0
 10
3997.7580620103371984
 20
142.3697030504432917
 30
0.0
 11
3997.8368021677370052
 21
142.3697030504432917
 31
0.0
  0
LINE
  5
EA01
  8
0
 10
3997.8466446874372195
 20
142.3697030504432917
 30
0.0
 11
4002.6793218528368925
 21
142.3697030504432917
 31
0.0
  0
LINE
  5
EA02
  8
0
 10
4010.5533376008361302
 20
142.3697030504432917
 30
0.0
 11
4015.3860147662371674
 21
142.3697030504432917
 31
0.0
  0
LINE
  5
EA03
  8
0
 10
4015.3958572859369269
 20
142.3697030504432917
 30
0.0
 11
4015.4745974433358242
 21
142.3697030504432917
 31
0.0
  0
LINE
  5
EA04
  8
0
 10
4002.7186919315358864
 20
142.6398245384432926
 30
0.0
 11
4010.5139675221362268
 21
142.6398245384432926
 31
0.0
  0
LINE
  5
EA05
  8
0
 10
4010.5533376008361302
 20
137.554153579243291
 30
0.0
 11
4010.5533376008361302
 21
145.293612299143291
 31
0.0
  0
LINE
  5
EA06
  8
0
 10
4002.7186919315358864
 20
145.3329823778433081
 30
0.0
 11
4010.5139675221362268
 21
145.3329823778433081
 31
0.0
  0
LINE
  5
EA07
  8
0
 10
4015.3072746087359519
 20
145.4371127366432859
 30
0.0
 11
3997.9253848449370707
 21
145.4371127366432859
 31
0.0
  0
LINE
  5
EA08
  8
0
 10
4015.3958572859369269
 20
145.4485116220432985
 30
0.0
 11
3997.8368021677370052
 21
145.4485116220432985
 31
0.0
  0
LINE
  5
EA09
  8
0
 10
4015.4352273646359208
 20
145.5255311181433058
 30
0.0
 11
3997.7974320890371018
 21
145.5255311181433058
 31
0.0
  0
LINE
  5
EA0A
  8
0
 10
4015.3860147662371674
 20
134.5325000359432863
 30
0.0
 11
4015.3860147662371674
 21
145.360093240543307
 31
0.0
  0
LINE
  5
EA0B
  8
0
 10
4015.3958572859369269
 20
134.4439173588432936
 30
0.0
 11
4015.3958572859369269
 21
145.4485116220432985
 31
0.0
  0
LINE
  5
EA0C
  8
0
 10
4015.4745974433358242
 20
134.404547280043289
 30
0.0
 11
4015.4745974433358242
 21
145.4870213701433102
 31
0.0
  0
ARC
  5
EA0D
  8
0
 10
3997.9253848449370707
 20
134.5325000359432863
 30
0.0
 40
0.0787401575
 50
180.0
 51
270.0
  0
ARC
  5
EA0E
  8
0
 10
4005.7856210654372262
 20
139.621082713143295
 30
0.0
 40
0.0393700787
 50
180.0
 51
269.9999999978114147
  0
ARC
  5
EA0F
  8
0
 10
4002.7186919315358864
 20
137.554153579343307
 30
0.0
 40
0.0393700787
 50
180.0
 51
269.9999872894084092
  0
ARC
  5
EA10
  8
0
 10
4005.7757785457370119
 20
139.611240193443308
 30
0.0
 40
0.0393700787
 50
211.7232068467941133
 51
238.2767931532004866
  0
ARC
  5
EA11
  8
0
 10
3997.7974320890371018
 20
134.404547280043289
 30
0.0
 40
0.0393700787
 50
180.0
 51
270.0
  0
ARC
  5
EA12
  8
0
 10
4005.7305029551362168
 20
139.5659646029432963
 30
0.0
 40
0.0196850394
 50
180.0
 51
270.0
  0
CIRCLE
  5
EA13
  8
0
 10
4006.1832588607358048
 20
139.9399803509433013
 30
0.0
 40
0.2972440945
  0
CIRCLE
  5
EA14
  8
0
 10
4006.1832588607358048
 20
139.9399803509433013
 30
0.0
 40
0.2736220472
  0
CIRCLE
  5
EA15
  8
0
 10
4006.1832588607358048
 20
139.9399803509433013
 30
0.0
 40
0.2539370079
  0
ARC
  5
EA16
  8
0
 10
4005.7856210654372262
 20
140.2588779887433077
 30
0.0
 40
0.0393700787
 50
90.0
 51
179.9999999977999039
  0
ARC
  5
EA17
  8
0
 10
4002.7186919315358864
 20
145.293612299143291
 30
0.0
 40
0.0393700787
 50
90.0000000020062316
 51
180.0
  0
ARC
  5
EA18
  8
0
 10
4005.7757785457370119
 20
140.2687205084432946
 30
0.0
 40
0.0393700787
 50
121.7232068467994992
 51
148.2767931532058867
  0
ARC
  5
EA19
  8
0
 10
4005.7305029551362168
 20
140.3139960989433064
 30
0.0
 40
0.0196850394
 50
90.0
 51
180.0
  0
ARC
  5
EA1A
  8
0
 10
4007.4470383882371607
 20
139.621082713143295
 30
0.0
 40
0.0393700787
 50
270.0
 51
359.9999999977999892
  0
ARC
  5
EA1B
  8
0
 10
4010.5139675221362268
 20
137.554153579343307
 30
0.0
 40
0.0393700787
 50
270.0000127103049863
 51
0.0
  0
ARC
  5
EA1C
  8
0
 10
4007.4568809079369203
 20
139.611240193443308
 30
0.0
 40
0.0393700787
 50
301.723206846799485
 51
328.276793153205972
  0
ARC
  5
EA1D
  8
0
 10
4007.5021564985368059
 20
139.5659646029432963
 30
0.0
 40
0.0196850394
 50
270.0
 51
0.0
  0
ARC
  5
EA1E
  8
0
 10
4015.3072746087359519
 20
134.5325000359432863
 30
0.0
 40
0.0787401575
 50
270.0
 51
0.0
  0
ARC
  5
EA1F
  8
0
 10
4015.4352273646359208
 20
134.404547280043289
 30
0.0
 40
0.0393700787
 50
270.0
 51
0.0
  0
CIRCLE
  5
EA20
  8
0
 10
4015.0631801205367992
 20
139.4832874375433107
 30
0.0
 40
0.1614173228
  0
CIRCLE
  5
EA21
  8
0
 10
4015.0631801205367992
 20
139.4832874375433107
 30
0.0
 40
0.1023622047
  0
CIRCLE
  5
EA22
  8
0
 10
4015.0631801205367992
 20
139.4832874375433107
 30
0.0
 40
0.0964566929
  0
CIRCLE
  5
EA23
  8
0
 10
4015.0631801205367992
 20
139.4832874375433107
 30
0.0
 40
0.0649606299
  0
CIRCLE
  5
EA24
  8
0
 10
4015.0631801205367992
 20
139.4832874375433107
 30
0.0
 40
0.0453037856
  0
CIRCLE
  5
EA25
  8
0
 10
4007.0494005929358536
 20
139.9399803509433013
 30
0.0
 40
0.2972440945
  0
CIRCLE
  5
EA26
  8
0
 10
4007.0494005929358536
 20
139.9399803509433013
 30
0.0
 40
0.2736220472
  0
CIRCLE
  5
EA27
  8
0
 10
4007.0494005929358536
 20
139.9399803509433013
 30
0.0
 40
0.2539370079
  0
ARC
  5
EA28
  8
0
 10
4007.4470383882371607
 20
140.2588779887433077
 30
0.0
 40
0.0393700787
 50
0.0
 51
89.9999999978113578
  0
ARC
  5
EA29
  8
0
 10
4010.5139675221362268
 20
145.293612299143291
 30
0.0
 40
0.0393700787
 50
0.0
 51
89.9999999979937542
  0
ARC
  5
EA2A
  8
0
 10
4007.4568809079369203
 20
140.2687205084432946
 30
0.0
 40
0.0393700787
 50
31.7232068467940493
 51
58.2767931532004866
  0
ARC
  5
EA2B
  8
0
 10
4007.5021564985368059
 20
140.3139960989433064
 30
0.0
 40
0.0196850394
 50
0.0
 51
90.0
  0
CIRCLE
  5
EA2C
  8
0
 10
4015.0631801205367992
 20
141.845492161943298
 30
0.0
 40
0.1614173228
  0
CIRCLE
  5
EA2D
  8
0
 10
4015.0631801205367992
 20
141.845492161943298
 30
0.0
 40
0.1023622047
  0
CIRCLE
  5
EA2E
  8
0
 10
4015.0631801205367992
 20
141.845492161943298
 30
0.0
 40
0.0964566929
  0
CIRCLE
  5
EA2F
  8
0
 10
4015.0631801205367992
 20
141.845492161943298
 30
0.0
 40
0.0649606299
  0
CIRCLE
  5
EA30
  8
0
 10
4015.0631801205367992
 20
141.845492161943298
 30
0.0
 40
0.0453037856
  0
CIRCLE
  5
EA31
  8
0
 10
4015.0631801205367992
 20
137.121082713143295
 30
0.0
 40
0.1614173228
  0
CIRCLE
  5
EA32
  8
0
 10
4015.0631801205367992
 20
137.121082713143295
 30
0.0
 40
0.1023622047
  0
CIRCLE
  5
EA33
  8
0
 10
4015.0631801205367992
 20
137.121082713143295
 30
0.0
 40
0.0964566929
  0
CIRCLE
  5
EA34
  8
0
 10
4015.0631801205367992
 20
137.121082713143295
 30
0.0
 40
0.0649606299
  0
CIRCLE
  5
EA35
  8
0
 10
4015.0631801205367992
 20
137.121082713143295
 30
0.0
 40
0.0453037856
  0
CIRCLE
  5
EA36
  8
0
 10
4015.0631801205367992
 20
134.7588779887433077
 30
0.0
 40
0.1614173228
  0
CIRCLE
  5
EA37
  8
0
 10
4015.0631801205367992
 20
134.7588779887433077
 30
0.0
 40
0.1023622047
  0
CIRCLE
  5
EA38
  8
0
 10
4015.0631801205367992
 20
134.7588779887433077
 30
0.0
 40
0.0964566929
  0
CIRCLE
  5
EA39
  8
0
 10
4015.0631801205367992
 20
134.7588779887433077
 30
0.0
 40
0.0649606299
  0
CIRCLE
  5
EA3A
  8
0
 10
4015.0631801205367992
 20
134.7588779887433077
 30
0.0
 40
0.0453037856
  0
CIRCLE
  5
EA3B
  8
0
 10
4012.649794293737159
 20
134.7588779887433077
 30
0.0
 40
0.1614173228
  0
CIRCLE
  5
EA3C
  8
0
 10
4012.649794293737159
 20
134.7588779887433077
 30
0.0
 40
0.1023622047
  0
CIRCLE
  5
EA3D
  8
0
 10
4012.649794293737159
 20
134.7588779887433077
 30
0.0
 40
0.0964566929
  0
CIRCLE
  5
EA3E
  8
0
 10
4012.649794293737159
 20
134.7588779887433077
 30
0.0
 40
0.0649606299
  0
CIRCLE
  5
EA3F
  8
0
 10
4012.649794293737159
 20
134.7588779887433077
 30
0.0
 40
0.0453037856
  0
CIRCLE
  5
EA40
  8
0
 10
4012.649794293737159
 20
141.845492161943298
 30
0.0
 40
0.1614173228
  0
CIRCLE
  5
EA41
  8
0
 10
4012.649794293737159
 20
141.845492161943298
 30
0.0
 40
0.1023622047
  0
CIRCLE
  5
EA42
  8
0
 10
4012.649794293737159
 20
141.845492161943298
 30
0.0
 40
0.0964566929
  0
CIRCLE
  5
EA43
  8
0
 10
4012.649794293737159
 20
141.845492161943298
 30
0.0
 40
0.0649606299
  0
CIRCLE
  5
EA44
  8
0
 10
4012.649794293737159
 20
141.845492161943298
 30
0.0
 40
0.0453037856
  0
CIRCLE
  5
EA45
  8
0
 10
4011.3864084670358352
 20
137.9084842879433097
 30
0.0
 40
0.1614173228
  0
CIRCLE
  5
EA46
  8
0
 10
4011.3864084670358352
 20
137.9084842879433097
 30
0.0
 40
0.1023622047
  0
CIRCLE
  5
EA47
  8
0
 10
4011.3864084670358352
 20
137.9084842879433097
 30
0.0
 40
0.0964566929
  0
CIRCLE
  5
EA48
  8
0
 10
4011.3864084670358352
 20
137.9084842879433097
 30
0.0
 40
0.0649606299
  0
CIRCLE
  5
EA49
  8
0
 10
4011.3864084670358352
 20
137.9084842879433097
 30
0.0
 40
0.0453037856
  0
CIRCLE
  5
EA4A
  8
0
 10
4010.236408467036199
 20
134.7588779887433077
 30
0.0
 40
0.1614173228
  0
CIRCLE
  5
EA4B
  8
0
 10
4010.236408467036199
 20
134.7588779887433077
 30
0.0
 40
0.1023622047
  0
CIRCLE
  5
EA4C
  8
0
 10
4010.236408467036199
 20
134.7588779887433077
 30
0.0
 40
0.0964566929
  0
CIRCLE
  5
EA4D
  8
0
 10
4010.236408467036199
 20
134.7588779887433077
 30
0.0
 40
0.0649606299
  0
CIRCLE
  5
EA4E
  8
0
 10
4010.236408467036199
 20
134.7588779887433077
 30
0.0
 40
0.0453037856
  0
CIRCLE
  5
EA4F
  8
0
 10
4007.8230226402370135
 20
134.7588779887433077
 30
0.0
 40
0.1614173228
  0
CIRCLE
  5
EA50
  8
0
 10
4007.8230226402370135
 20
134.7588779887433077
 30
0.0
 40
0.1023622047
  0
CIRCLE
  5
EA51
  8
0
 10
4007.8230226402370135
 20
134.7588779887433077
 30
0.0
 40
0.0964566929
  0
CIRCLE
  5
EA52
  8
0
 10
4007.8230226402370135
 20
134.7588779887433077
 30
0.0
 40
0.0649606299
  0
CIRCLE
  5
EA53
  8
0
 10
4007.8230226402370135
 20
134.7588779887433077
 30
0.0
 40
0.0453037856
  0
CIRCLE
  5
EA54
  8
0
 10
4005.4096368134360091
 20
134.7588779887433077
 30
0.0
 40
0.1614173228
  0
CIRCLE
  5
EA55
  8
0
 10
4005.4096368134360091
 20
134.7588779887433077
 30
0.0
 40
0.1023622047
  0
CIRCLE
  5
EA56
  8
0
 10
4005.4096368134360091
 20
134.7588779887433077
 30
0.0
 40
0.0964566929
  0
CIRCLE
  5
EA57
  8
0
 10
4005.4096368134360091
 20
134.7588779887433077
 30
0.0
 40
0.0649606299
  0
CIRCLE
  5
EA58
  8
0
 10
4005.4096368134360091
 20
134.7588779887433077
 30
0.0
 40
0.0453037856
  0
CIRCLE
  5
EA59
  8
0
 10
4002.9962509866368237
 20
134.7588779887433077
 30
0.0
 40
0.1614173228
  0
CIRCLE
  5
EA5A
  8
0
 10
4002.9962509866368237
 20
134.7588779887433077
 30
0.0
 40
0.1023622047
  0
CIRCLE
  5
EA5B
  8
0
 10
4002.9962509866368237
 20
134.7588779887433077
 30
0.0
 40
0.0964566929
  0
CIRCLE
  5
EA5C
  8
0
 10
4002.9962509866368237
 20
134.7588779887433077
 30
0.0
 40
0.0649606299
  0
CIRCLE
  5
EA5D
  8
0
 10
4002.9962509866368237
 20
134.7588779887433077
 30
0.0
 40
0.0453037856
  0
CIRCLE
  5
EA5E
  8
0
 10
4000.5828651599367731
 20
134.7588779887433077
 30
0.0
 40
0.1614173228
  0
CIRCLE
  5
EA5F
  8
0
 10
4000.5828651599367731
 20
134.7588779887433077
 30
0.0
 40
0.1023622047
  0
CIRCLE
  5
EA60
  8
0
 10
4000.5828651599367731
 20
134.7588779887433077
 30
0.0
 40
0.0964566929
  0
CIRCLE
  5
EA61
  8
0
 10
4000.5828651599367731
 20
134.7588779887433077
 30
0.0
 40
0.0649606299
  0
CIRCLE
  5
EA62
  8
0
 10
4000.5828651599367731
 20
134.7588779887433077
 30
0.0
 40
0.0453037856
  0
CIRCLE
  5
EA63
  8
0
 10
3998.1694793331371329
 20
134.7588779887433077
 30
0.0
 40
0.1614173228
  0
CIRCLE
  5
EA64
  8
0
 10
3998.1694793331371329
 20
134.7588779887433077
 30
0.0
 40
0.1023622047
  0
CIRCLE
  5
EA65
  8
0
 10
3998.1694793331371329
 20
134.7588779887433077
 30
0.0
 40
0.0964566929
  0
CIRCLE
  5
EA66
  8
0
 10
3998.1694793331371329
 20
134.7588779887433077
 30
0.0
 40
0.0649606299
  0
CIRCLE
  5
EA67
  8
0
 10
3998.1694793331371329
 20
134.7588779887433077
 30
0.0
 40
0.0453037856
  0
CIRCLE
  5
EA68
  8
0
 10
4001.8462509866371875
 20
137.9084842879433097
 30
0.0
 40
0.1614173228
  0
CIRCLE
  5
EA69
  8
0
 10
4001.8462509866371875
 20
137.9084842879433097
 30
0.0
 40
0.1023622047
  0
CIRCLE
  5
EA6A
  8
0
 10
4001.8462509866371875
 20
137.9084842879433097
 30
0.0
 40
0.0964566929
  0
CIRCLE
  5
EA6B
  8
0
 10
4001.8462509866371875
 20
137.9084842879433097
 30
0.0
 40
0.0649606299
  0
CIRCLE
  5
EA6C
  8
0
 10
4001.8462509866371875
 20
137.9084842879433097
 30
0.0
 40
0.0453037856
  0
CIRCLE
  5
EA6D
  8
0
 10
4000.5828651599367731
 20
141.845492161943298
 30
0.0
 40
0.1614173228
  0
CIRCLE
  5
EA6E
  8
0
 10
4000.5828651599367731
 20
141.845492161943298
 30
0.0
 40
0.1023622047
  0
CIRCLE
  5
EA6F
  8
0
 10
4000.5828651599367731
 20
141.845492161943298
 30
0.0
 40
0.0964566929
  0
CIRCLE
  5
EA70
  8
0
 10
4000.5828651599367731
 20
141.845492161943298
 30
0.0
 40
0.0649606299
  0
CIRCLE
  5
EA71
  8
0
 10
4000.5828651599367731
 20
141.845492161943298
 30
0.0
 40
0.0453037856
  0
CIRCLE
  5
EA72
  8
0
 10
3998.1694793331371329
 20
137.121082713143295
 30
0.0
 40
0.1614173228
  0
CIRCLE
  5
EA73
  8
0
 10
3998.1694793331371329
 20
137.121082713143295
 30
0.0
 40
0.1023622047
  0
CIRCLE
  5
EA74
  8
0
 10
3998.1694793331371329
 20
137.121082713143295
 30
0.0
 40
0.0964566929
  0
CIRCLE
  5
EA75
  8
0
 10
3998.1694793331371329
 20
137.121082713143295
 30
0.0
 40
0.0649606299
  0
CIRCLE
  5
EA76
  8
0
 10
3998.1694793331371329
 20
137.121082713143295
 30
0.0
 40
0.0453037856
  0
CIRCLE
  5
EA77
  8
0
 10
3998.1694793331371329
 20
139.4832874375433107
 30
0.0
 40
0.1614173228
  0
CIRCLE
  5
EA78
  8
0
 10
3998.1694793331371329
 20
139.4832874375433107
 30
0.0
 40
0.1023622047
  0
CIRCLE
  5
EA79
  8
0
 10
3998.1694793331371329
 20
139.4832874375433107
 30
0.0
 40
0.0964566929
  0
CIRCLE
  5
EA7A
  8
0
 10
3998.1694793331371329
 20
139.4832874375433107
 30
0.0
 40
0.0649606299
  0
CIRCLE
  5
EA7B
  8
0
 10
3998.1694793331371329
 20
139.4832874375433107
 30
0.0
 40
0.0453037856
  0
CIRCLE
  5
EA7C
  8
0
 10
3998.1694793331371329
 20
141.845492161943298
 30
0.0
 40
0.1614173228
  0
CIRCLE
  5
EA7D
  8
0
 10
3998.1694793331371329
 20
141.845492161943298
 30
0.0
 40
0.1023622047
  0
CIRCLE
  5
EA7E
  8
0
 10
3998.1694793331371329
 20
141.845492161943298
 30
0.0
 40
0.0964566929
  0
CIRCLE
  5
EA7F
  8
0
 10
3998.1694793331371329
 20
141.845492161943298
 30
0.0
 40
0.0649606299
  0
CIRCLE
  5
EA80
  8
0
 10
3998.1694793331371329
 20
141.845492161943298
 30
0.0
 40
0.0453037856
  0
ARC
  5
EA81
  8
0
 10
3997.9245407006142159
 20
145.359216361853214
 30
0.0
 40
0.0779009485506027
 50
89.3791236884770797
 51
179.3550462470824982
  0
ARC
  5
EA82
  8
0
 10
3997.797010299170779
 20
145.4865826421956001
 30
0.0
 40
0.0389507597531045
 50
89.3795435153153477
 51
179.3546264217187058
  0
ARC
  5
EA83
  8
0
 10
4015.3081187530610805
 20
145.3592163618548057
 30
0.0
 40
0.0779009485489788
 50
0.6449537517252223
 51
90.6208763127215207
  0
ARC
  5
EA84
  8
0
 10
4015.4356491545331664
 20
145.4865826422276882
 30
0.0
 40
0.0389507597213061
 50
0.6453735346149903
 51
90.6204565314563126
  0
ARC
  5
EA85
  8
0
 10
4015.0681855465059016
 20
142.7094196729763951
 30
0.0
 40
0.0654390129545696
 50
20.4015187572380583
 51
159.5984812428046098
  0
ARC
  5
EA86
  8
0
 10
4015.0681855465559238
 20
142.7581252562833924
 30
0.0
 40
0.1043561755474864
 50
1.2658300621032319
 51
178.7341699378968087
  0
ARC
  5
EA87
  8
0
 10
4015.0681855465559238
 20
142.7627359426761871
 30
0.0
 40
0.1043561755452415
 50
181.2658300059698036
 51
358.7341699940286048
  0
ARC
  5
EA88
  8
0
 10
4015.0681855465059016
 20
142.7508096974846126
 30
0.0
 40
0.0649764866463293
 50
1.265830015601106
 51
178.7341699843973117
  0
ARC
  5
EA89
  8
0
 10
4015.0681855465059016
 20
142.7536805021773034
 30
0.0
 40
0.0649764866463292
 50
181.2658300155977997
 51
358.7341699844005234
  0
ARC
  5
EA8A
  8
0
 10
4015.0683296479178352
 20
142.7594001412280136
 30
0.0
 40
0.1220478622729511
 50
2.7904813176658672
 51
179.9257898977419927
  0
ARC
  5
EA8B
  8
0
 10
4015.068123280816053
 20
142.7681045366084049
 30
0.0
 40
0.1221407571053225
 50
184.0123247641222974
 51
358.7039464513193252
  0
ARC
  5
EA8C
  8
0
 10
4015.0682337501939401
 20
142.7634450286770118
 30
0.0
 40
0.1220137860208251
 50
0.8907768454169982
 51
181.8254943696861972
  0
ARC
  5
EA8D
  8
0
 10
4015.0651486237611607
 20
142.7748949306638053
 30
0.0
 40
0.1623183363215487
 50
180.1937821858612097
 51
271.0720606998369249
  0
ARC
  5
EA8E
  8
0
 10
4015.0701743717349927
 20
142.7759664443352108
 30
0.0
 40
0.1633735423758136
 50
269.3025063598378779
 51
359.4316482416941767
  0
ARC
  5
EA8F
  8
0
 10
4015.0704577571850677
 20
142.7730151722554126
 30
0.0
 40
0.1630875480590758
 50
0.4675045029243466
 51
90.7983053110406502
  0
ARC
  5
EA90
  8
0
 10
4015.066412841877991
 20
142.7725045047874062
 30
0.0
 40
0.1635919903424921
 50
89.379131460910358
 51
179.3550466630395874
  0
ARC
  5
EA91
  8
0
 10
4015.0681855465059016
 20
145.0200208642102098
 30
0.0
 40
0.0654390129545696
 50
20.4015187572380583
 51
159.5984812428046098
  0
ARC
  5
EA92
  8
0
 10
4015.0681855465559238
 20
145.0687264475172924
 30
0.0
 40
0.1043561755474864
 50
1.2658300621032319
 51
178.7341699378968087
  0
ARC
  5
EA93
  8
0
 10
4015.0681855465559238
 20
145.073337133910087
 30
0.0
 40
0.1043561755452415
 50
181.2658300059698036
 51
358.7341699940286048
  0
ARC
  5
EA94
  8
0
 10
4015.0681855465059016
 20
145.0614108887185125
 30
0.0
 40
0.0649764866463293
 50
1.265830015601106
 51
178.7341699843973117
  0
ARC
  5
EA95
  8
0
 10
4015.0681855465059016
 20
145.0642816934110897
 30
0.0
 40
0.0649764866463292
 50
181.2658300155977997
 51
358.7341699844005234
  0
ARC
  5
EA96
  8
0
 10
4015.0683296479178352
 20
145.0700013324619135
 30
0.0
 40
0.1220478622729511
 50
2.7904813176658672
 51
179.9257898977419927
  0
ARC
  5
EA97
  8
0
 10
4015.068123280816053
 20
145.0787057278423049
 30
0.0
 40
0.1221407571053225
 50
184.0123247641222974
 51
358.7039464513193252
  0
ARC
  5
EA98
  8
0
 10
4015.0682337501939401
 20
145.0740462199109118
 30
0.0
 40
0.1220137860208251
 50
0.8907768454169982
 51
181.8254943696861972
  0
ARC
  5
EA99
  8
0
 10
4015.0651486237611607
 20
145.0854961218975916
 30
0.0
 40
0.1623183363215487
 50
180.1937821858612097
 51
271.0720606998369249
  0
ARC
  5
EA9A
  8
0
 10
4015.0701743717349927
 20
145.0865676355691107
 30
0.0
 40
0.1633735423758136
 50
269.3025063598378779
 51
359.4316482416941767
  0
ARC
  5
EA9B
  8
0
 10
4015.0704577571850677
 20
145.0836163634893126
 30
0.0
 40
0.1630875480590758
 50
0.4675045029243466
 51
90.7983053110406502
  0
ARC
  5
EA9C
  8
0
 10
4015.066412841877991
 20
145.0831056960213061
 30
0.0
 40
0.1635919903424921
 50
89.379131460910358
 51
179.3550466630395874
  0
ARC
  5
EA9D
  8
0
 10
4009.5670968071071911
 20
144.044165509360198
 30
0.0
 40
0.0654390129545696
 50
20.4015187572380583
 51
159.5984812428046098
  0
ARC
  5
EA9E
  8
0
 10
4009.5670968071572133
 20
144.0928710926673091
 30
0.0
 40
0.1043561755474864
 50
1.2658300621032319
 51
178.7341699378968087
  0
ARC
  5
EA9F
  8
0
 10
4009.5670968071572133
 20
144.0974817790601037
 30
0.0
 40
0.1043561755452415
 50
181.2658300059698036
 51
358.7341699940286048
  0
ARC
  5
EAA0
  8
0
 10
4009.5670968071071911
 20
144.0855555338685008
 30
0.0
 40
0.0649764866463293
 50
1.265830015601106
 51
178.7341699843973117
  0
ARC
  5
EAA1
  8
0
 10
4009.5670968071071911
 20
144.0884263385611064
 30
0.0
 40
0.0649764866463292
 50
181.2658300155977997
 51
358.7341699844005234
  0
ARC
  5
EAA2
  8
0
 10
4009.5672409085191248
 20
144.0941459776117881
 30
0.0
 40
0.1220478622729511
 50
2.7904813176658672
 51
179.9257898977419927
  0
ARC
  5
EAA3
  8
0
 10
4009.5670345414177973
 20
144.1028503729922932
 30
0.0
 40
0.1221407571053225
 50
184.0123247641222974
 51
358.7039464513193252
  0
ARC
  5
EAA4
  8
0
 10
4009.5671450107961391
 20
144.0981908650609
 30
0.0
 40
0.1220137860208251
 50
0.8907768454169982
 51
181.8254943696861972
  0
ARC
  5
EAA5
  8
0
 10
4009.5640598843619955
 20
144.1096407670476083
 30
0.0
 40
0.1623183363215487
 50
180.1937821858612097
 51
271.0720606998369249
  0
ARC
  5
EAA6
  8
0
 10
4009.5690856323358275
 20
144.110712280719099
 30
0.0
 40
0.1633735423758136
 50
269.3025063598378779
 51
359.4316482416941767
  0
ARC
  5
EAA7
  8
0
 10
4009.569369017786812
 20
144.1077610086393008
 30
0.0
 40
0.1630875480590758
 50
0.4675045029243466
 51
90.7983053110406502
  0
ARC
  5
EAA8
  8
0
 10
4009.5653241024770068
 20
144.1072503411712091
 30
0.0
 40
0.1635919903424921
 50
89.379131460910358
 51
179.3550466630395874
  0
ARC
  5
EAA9
  8
0
 10
4002.7164035362861796
 20
142.512738920371504
 30
0.0
 40
0.1271062196492701
 50
88.9684023778613948
 51
104.1319377587844031
  0
ARC
  5
EAAA
  8
0
 10
4002.6874220352669909
 20
142.6267762493525879
 30
0.0
 40
0.0094477339641896
 50
102.5455378980729932
 51
149.0223065911843889
  0
ARC
  5
EAAB
  8
0
 10
4010.5162559173859336
 20
142.512738920371504
 30
0.0
 40
0.1271062196492701
 50
75.8680622412155969
 51
91.0315976221386052
  0
ARC
  5
EAAC
  8
0
 10
4010.5452374184051223
 20
142.6267762493525879
 30
0.0
 40
0.0094477339641896
 50
30.97769340881554
 51
77.4544621019269783
  0
CIRCLE
  5
EAAD
  8
0
 10
4003.6635738213371951
 20
139.0895866501433034
 30
0.0
 40
0.1614173228
  0
CIRCLE
  5
EAAE
  8
0
 10
4003.6635738213371951
 20
139.0895866501433034
 30
0.0
 40
0.1023622047
  0
CIRCLE
  5
EAAF
  8
0
 10
4003.6635738213371951
 20
139.0895866501433034
 30
0.0
 40
0.0964566929
  0
CIRCLE
  5
EAB0
  8
0
 10
4003.6635738213371951
 20
139.0895866501433034
 30
0.0
 40
0.0649606299
  0
CIRCLE
  5
EAB1
  8
0
 10
4003.6635738213371951
 20
139.0895866501433034
 30
0.0
 40
0.0453037856
  0
CIRCLE
  5
EAB2
  8
0
 10
4009.5690856323358275
 20
139.0895866501433034
 30
0.0
 40
0.1614173228
  0
CIRCLE
  5
EAB3
  8
0
 10
4009.5690856323358275
 20
139.0895866501433034
 30
0.0
 40
0.1023622047
  0
CIRCLE
  5
EAB4
  8
0
 10
4009.5690856323358275
 20
139.0895866501433034
 30
0.0
 40
0.0964566929
  0
CIRCLE
  5
EAB5
  8
0
 10
4009.5690856323358275
 20
139.0895866501433034
 30
0.0
 40
0.0649606299
  0
CIRCLE
  5
EAB6
  8
0
 10
4009.5690856323358275
 20
139.0895866501433034
 30
0.0
 40
0.0453037856
  0
ARC
  5
EAB7
  8
0
 10
4003.6615849961049207
 20
144.044165509360198
 30
0.0
 40
0.0654390129545696
 50
20.4015187572380583
 51
159.5984812428046098
  0
ARC
  5
EAB8
  8
0
 10
4003.6615849961540334
 20
144.0928710926673091
 30
0.0
 40
0.1043561755474864
 50
1.2658300621032319
 51
178.7341699378968087
  0
ARC
  5
EAB9
  8
0
 10
4003.6615849961540334
 20
144.0974817790601037
 30
0.0
 40
0.1043561755452415
 50
181.2658300059698036
 51
358.7341699940286048
  0
ARC
  5
EABA
  8
0
 10
4003.6615849961049207
 20
144.0855555338685008
 30
0.0
 40
0.0649764866463293
 50
1.265830015601106
 51
178.7341699843973117
  0
ARC
  5
EABB
  8
0
 10
4003.6615849961049207
 20
144.0884263385611064
 30
0.0
 40
0.0649764866463292
 50
181.2658300155977997
 51
358.7341699844005234
  0
ARC
  5
EABC
  8
0
 10
4003.6617290975159449
 20
144.0941459776117881
 30
0.0
 40
0.1220478622729511
 50
2.7904813176658672
 51
179.9257898977419927
  0
ARC
  5
EABD
  8
0
 10
4003.6615227304150721
 20
144.1028503729922932
 30
0.0
 40
0.1221407571053225
 50
184.0123247641222974
 51
358.7039464513193252
  0
ARC
  5
EABE
  8
0
 10
4003.6616331997929592
 20
144.0981908650609
 30
0.0
 40
0.1220137860208251
 50
0.8907768454169982
 51
181.8254943696861972
  0
ARC
  5
EABF
  8
0
 10
4003.6585480733588156
 20
144.1096407670476083
 30
0.0
 40
0.1623183363215487
 50
180.1937821858612097
 51
271.0720606998369249
  0
ARC
  5
EAC0
  8
0
 10
4003.6635738213331024
 20
144.110712280719099
 30
0.0
 40
0.1633735423758136
 50
269.3025063598378779
 51
359.4316482416941767
  0
ARC
  5
EAC1
  8
0
 10
4003.6638572067840869
 20
144.1077610086393008
 30
0.0
 40
0.1630875480590758
 50
0.4675045029243466
 51
90.7983053110406502
  0
ARC
  5
EAC2
  8
0
 10
4003.6598122914761007
 20
144.1072503411712091
 30
0.0
 40
0.1635919903424921
 50
89.379131460910358
 51
179.3550466630395874
  0
ARC
  5
EAC3
  8
0
 10
3998.1694590111278558
 20
142.7094196729763951
 30
0.0
 40
0.0654390129545696
 50
20.4015187572380583
 51
159.5984812428046098
  0
ARC
  5
EAC4
  8
0
 10
3998.1694590111769685
 20
142.7581252562833924
 30
0.0
 40
0.1043561755474864
 50
1.2658300621032319
 51
178.7341699378968087
  0
ARC
  5
EAC5
  8
0
 10
3998.1694590111769685
 20
142.7627359426761871
 30
0.0
 40
0.1043561755452415
 50
181.2658300059698036
 51
358.7341699940286048
  0
ARC
  5
EAC6
  8
0
 10
3998.1694590111278558
 20
142.7508096974846126
 30
0.0
 40
0.0649764866463293
 50
1.265830015601106
 51
178.7341699843973117
  0
ARC
  5
EAC7
  8
0
 10
3998.1694590111278558
 20
142.7536805021773034
 30
0.0
 40
0.0649764866463292
 50
181.2658300155977997
 51
358.7341699844005234
  0
ARC
  5
EAC8
  8
0
 10
3998.1696031125397894
 20
142.7594001412280136
 30
0.0
 40
0.1220478622729511
 50
2.7904813176658672
 51
179.9257898977419927
  0
ARC
  5
EAC9
  8
0
 10
3998.1693967454389167
 20
142.7681045366084049
 30
0.0
 40
0.1221407571053225
 50
184.0123247641222974
 51
358.7039464513193252
  0
ARC
  5
EACA
  8
0
 10
3998.1695072148168038
 20
142.7634450286770118
 30
0.0
 40
0.1220137860208251
 50
0.8907768454169982
 51
181.8254943696861972
  0
ARC
  5
EACB
  8
0
 10
3998.1664220883822054
 20
142.7748949306638053
 30
0.0
 40
0.1623183363215487
 50
180.1937821858612097
 51
271.0720606998369249
  0
ARC
  5
EACC
  8
0
 10
3998.1714478363578564
 20
142.7759664443352108
 30
0.0
 40
0.1633735423758136
 50
269.3025063598378779
 51
359.4316482416941767
  0
ARC
  5
EACD
  8
0
 10
3998.1717312218079314
 20
142.7730151722554126
 30
0.0
 40
0.1630875480590758
 50
0.4675045029243466
 51
90.7983053110406502
  0
ARC
  5
EACE
  8
0
 10
3998.1676863064981262
 20
142.7725045047874062
 30
0.0
 40
0.1635919903424921
 50
89.379131460910358
 51
179.3550466630395874
  0
ARC
  5
EACF
  8
0
 10
3998.1694590111278558
 20
145.0200045565931077
 30
0.0
 40
0.0654390129545696
 50
20.4015187572380583
 51
159.5984812428046098
  0
ARC
  5
EAD0
  8
0
 10
3998.1694590111787875
 20
145.0687101399001051
 30
0.0
 40
0.1043561755474864
 50
1.2658300621032319
 51
178.7341699378968087
  0
ARC
  5
EAD1
  8
0
 10
3998.1694590111787875
 20
145.073320826292786
 30
0.0
 40
0.1043561755452415
 50
181.2658300059698036
 51
358.7341699940286048
  0
ARC
  5
EAD2
  8
0
 10
3998.1694590111278558
 20
145.0613945811012968
 30
0.0
 40
0.0649764866463293
 50
1.265830015601106
 51
178.7341699843973117
  0
ARC
  5
EAD3
  8
0
 10
3998.1694590111278558
 20
145.0642653857939024
 30
0.0
 40
0.0649764866463292
 50
181.2658300155977997
 51
358.7341699844005234
  0
ARC
  5
EAD4
  8
0
 10
3998.1696031125397894
 20
145.0699850248446978
 30
0.0
 40
0.1220478622729511
 50
2.7904813176658672
 51
179.9257898977419927
  0
ARC
  5
EAD5
  8
0
 10
3998.1693967454389167
 20
145.0786894202250892
 30
0.0
 40
0.1221407571053225
 50
184.0123247641222974
 51
358.7039464513193252
  0
ARC
  5
EAD6
  8
0
 10
3998.1695072148168038
 20
145.0740299122936108
 30
0.0
 40
0.1220137860208251
 50
0.8907768454169982
 51
181.8254943696861972
  0
ARC
  5
EAD7
  8
0
 10
3998.1664220883831149
 20
145.0854798142804896
 30
0.0
 40
0.1623183363215487
 50
180.1937821858612097
 51
271.0720606998369249
  0
ARC
  5
EAD8
  8
0
 10
3998.1714478363578564
 20
145.086551327951895
 30
0.0
 40
0.1633735423758136
 50
269.3025063598378779
 51
359.4316482416941767
  0
ARC
  5
EAD9
  8
0
 10
3998.1717312218088409
 20
145.0836000558720968
 30
0.0
 40
0.1630875480590758
 50
0.4675045029243466
 51
90.7983053110406502
  0
ARC
  5
EADA
  8
0
 10
3998.1676863064990357
 20
145.0830893884040904
 30
0.0
 40
0.1635919903424921
 50
89.379131460910358
 51
179.3550466630395874
  0
ENDSEC
  0
EOF
