  0
SECTION
  2
HEADER
  9
$ACADVER
  1
AC1009
  9
$INSBASE
 10
3644.0758692691128999
 20
156.870137782694286
 30
0.0
  9
$EXTMIN
 10
3643.1756300236270363
 20
156.8653639341656003
 30
0.0
  9
$EXTMAX
 10
3644.9761085145992183
 20
163.023110976738991
 30
0.0
  9
$LIMMIN
 10
0.0
 20
0.0
  9
$LIMMAX
 10
11.6929133858000007
 20
8.2677165353999982
  9
$ORTHOMODE
 70
     0
  9
$REGENMODE
 70
     1
  9
$FILLMODE
 70
     1
  9
$QTEXTMODE
 70
     0
  9
$MIRRTEXT
 70
     0
  9
$DRAGMODE
 70
     2
  9
$LTSCALE
 40
0.6431102362
  9
$OSMODE
 70
  3839
  9
$ATTMODE
 70
     1
  9
$TEXTSIZE
 40
0.2
  9
$TRACEWID
 40
0.05
  9
$TEXTSTYLE
  7
STANDARD
  9
$CLAYER
  8
0
  9
$CELTYPE
  6
BYLAYER
  9
$CECOLOR
 62
   256
  9
$DIMSCALE
 40
1.0
  9
$DIMASZ
 40
0.1875
  9
$DIMEXO
 40
0.0625
  9
$DIMDLI
 40
0.4443307087
  9
$DIMRND
 40
0.0
  9
$DIMDLE
 40
0.0
  9
$DIMEXE
 40
0.125
  9
$DIMTP
 40
0.01
  9
$DIMTM
 40
0.01
  9
$DIMTXT
 40
2.0
  9
$DIMCEN
 40
0.1052362205
  9
$DIMTSZ
 40
0.0
  9
$DIMTOL
 70
     1
  9
$DIMLIM
 70
     0
  9
$DIMTIH
 70
     1
  9
$DIMTOH
 70
     1
  9
$DIMSE1
 70
     0
  9
$DIMSE2
 70
     0
  9
$DIMTAD
 70
     0
  9
$DIMZIN
 70
     0
  9
$DIMBLK
  1

  9
$DIMASO
 70
     1
  9
$DIMSHO
 70
     1
  9
$DIMPOST
  1
\X
  9
$DIMAPOST
  1

  9
$DIMALT
 70
     1
  9
$DIMALTD
 70
     2
  9
$DIMALTF
 40
25.3999999999999986
  9
$DIMLFAC
 40
1.0
  9
$DIMTOFL
 70
     0
  9
$DIMTVP
 40
0.0
  9
$DIMTIX
 70
     0
  9
$DIMSOXD
 70
     0
  9
$DIMSAH
 70
     0
  9
$DIMBLK1
  1

  9
$DIMBLK2
  1

  9
$DIMSTYLE
  2
STANDARD
  9
$DIMCLRD
 70
     0
  9
$DIMCLRE
 70
     0
  9
$DIMCLRT
 70
     0
  9
$DIMTFAC
 40
1.0
  9
$DIMGAP
 40
0.09
  9
$LUNITS
 70
     2
  9
$LUPREC
 70
     4
  9
$SKETCHINC
 40
0.1
  9
$FILLETRAD
 40
0.0
  9
$AUNITS
 70
     0
  9
$AUPREC
 70
     0
  9
$MENU
  1
.
  9
$ELEVATION
 40
0.0
  9
$PELEVATION
 40
0.0
  9
$THICKNESS
 40
0.0
  9
$LIMCHECK
 70
     0
  9
$BLIPMODE
 70
     0
  9
$CHAMFERA
 40
0.0
  9
$CHAMFERB
 40
0.0
  9
$SKPOLY
 70
     0
  9
$TDCREATE
 40
2458060.468368056230247
  9
$TDUPDATE
 40
2459123.5185300931334496
  9
$TDINDWG
 40
0.7150417824
  9
$TDUSRTIMER
 40
0.7150417824
  9
$USRTIMER
 70
     1
  9
$ANGBASE
 50
0.0
  9
$ANGDIR
 70
     0
  9
$PDMODE
 70
     0
  9
$PDSIZE
 40
0.3125
  9
$PLINEWID
 40
0.0
  9
$COORDS
 70
     1
  9
$SPLFRAME
 70
     0
  9
$SPLINETYPE
 70
     6
  9
$SPLINESEGS
 70
     8
  9
$ATTDIA
 70
     1
  9
$ATTREQ
 70
     1
  9
$HANDLING
 70
     1
  9
$HANDSEED
  5
10600
  9
$SURFTAB1
 70
     6
  9
$SURFTAB2
 70
     6
  9
$SURFTYPE
 70
     6
  9
$SURFU
 70
     6
  9
$SURFV
 70
     6
  9
$UCSNAME
  2

  9
$UCSORG
 10
0.0
 20
0.0
 30
0.0
  9
$UCSXDIR
 10
1.0
 20
0.0
 30
0.0
  9
$UCSYDIR
 10
0.0
 20
1.0
 30
0.0
  9
$PUCSNAME
  2

  9
$PUCSORG
 10
0.0
 20
0.0
 30
0.0
  9
$PUCSXDIR
 10
1.0
 20
0.0
 30
0.0
  9
$PUCSYDIR
 10
0.0
 20
1.0
 30
0.0
  9
$USERI1
 70
     0
  9
$USERI2
 70
     0
  9
$USERI3
 70
     0
  9
$USERI4
 70
     0
  9
$USERI5
 70
     0
  9
$USERR1
 40
0.0
  9
$USERR2
 40
0.0
  9
$USERR3
 40
0.0
  9
$USERR4
 40
0.0
  9
$USERR5
 40
0.0
  9
$WORLDVIEW
 70
     1
  9
$SHADEDGE
 70
     3
  9
$SHADEDIF
 70
    70
  9
$TILEMODE
 70
     1
  9
$MAXACTVP
 70
    64
  9
$PLIMCHECK
 70
     0
  9
$PEXTMIN
 10
1.0000000000000000E+20
 20
1.0000000000000000E+20
 30
1.0000000000000000E+20
  9
$PEXTMAX
 10
-1.0000000000000000E+20
 20
-1.0000000000000000E+20
 30
-1.0000000000000000E+20
  9
$PLIMMIN
 10
0.0
 20
0.0
  9
$PLIMMAX
 10
12.0
 20
9.0
  9
$UNITMODE
 70
     0
  9
$VISRETAIN
 70
     1
  9
$PLINEGEN
 70
     0
  9
$PSLTSCALE
 70
     1
  0
ENDSEC
  0
SECTION
  2
TABLES
  0
TABLE
  2
VPORT
 70
     1
  0
VPORT
  2
*ACTIVE
 70
     0
 10
0.0
 20
0.0
 11
1.0
 21
1.0
 12
0.0
 22
0.0
 13
0.0
 23
0.0
 14
1.0
 24
1.0
 15
0.0
 25
0.0
 16
0.0
 26
0.0
 36
26.6346482412083887
 17
3644.0758056640620453
 27
159.9442404997975871
 37
0.0
 40
6.4155948678068153
 41
3.314341846758349
 42
50.0
 43
0.0
 44
0.0
 50
0.0
 51
0.0
 71
     0
 72
   100
 73
     1
 74
     1
 75
     0
 76
     0
 77
     0
 78
     0
  0
ENDTAB
  0
TABLE
  2
LTYPE
 70
     2
  0
LTYPE
  2
CONTINUOUS
 70
     0
  3
Solid line
 72
    65
 73
     0
 40
0.0
  0
LTYPE
  2
PHANTOM2
 70
     0
  3
___ _ _ ___ _ _ ___ _ _ ___ _ _
 72
    65
 73
     6
 40
1.25
 49
0.625
 49
-0.125
 49
0.125
 49
-0.125
 49
0.125
 49
-0.125
  0
ENDTAB
  0
TABLE
  2
LAYER
 70
     2
  0
LAYER
  2
0
 70
     0
 62
   255
  6
CONTINUOUS
  0
LAYER
  2
DEFPOINTS
 70
     0
 62
     7
  6
CONTINUOUS
  0
ENDTAB
  0
TABLE
  2
STYLE
 70
     1
  0
STYLE
  2
STANDARD
 70
     0
 40
0.0
 41
0.8
 50
0.0
 71
     0
 42
0.2
  3
txt
  4

  0
ENDTAB
  0
TABLE
  2
VIEW
 70
     0
  0
ENDTAB
  0
TABLE
  2
UCS
 70
     0
  0
ENDTAB
  0
TABLE
  2
APPID
 70
    10
  0
APPID
  2
ACAD
 70
     0
  0
APPID
  2
ACAD_MLEADERVER
 70
     0
  0
APPID
  2
ACAD_EXEMPT_FROM_CAD_STANDARDS
 70
     0
  0
APPID
  2
ACAD_NAV_VCDISPLAY
 70
     0
  0
APPID
  2
ACAECLAYERSTANDARD
 70
     0
  0
APPID
  2
ACCMTRANSPARENCY
 70
     0
  0
APPID
  2
ACAD_DSTYLE_DIMJAG
 70
     0
  0
APPID
  2
ACAD_DSTYLE_DIMTALN
 70
     0
  0
APPID
  2
ACDBATTR
 70
     0
  0
APPID
  2
ACAD_PSEXT
 70
     0
  0
ENDTAB
  0
TABLE
  2
DIMSTYLE
 70
     1
  0
DIMSTYLE
  2
STANDARD
 70
     0
  3

  4

  5

  6

  7

 40
1.0
 41
0.1875
 42
0.0625
 43
0.38
 44
0.125
 45
0.0
 46
0.0
 47
0.01
 48
0.01
140
0.15625
141
0.09
142
0.0
143
25.3999999999999986
144
1.0
145
0.0
146
1.0
147
0.09
 71
     1
 72
     0
 73
     1
 74
     1
 75
     0
 76
     0
 77
     0
 78
     4
170
     0
171
     2
172
     0
173
     0
174
     0
175
     0
176
     0
177
     0
178
     0
  0
ENDTAB
  0
ENDSEC
  0
SECTION
  2
BLOCKS
  0
BLOCK
  8
0
  2
$MODEL_SPACE
 70
     0
 10
0.0
 20
0.0
 30
0.0
  3
$MODEL_SPACE
  1

  0
ENDBLK
  5
21
  8
0
  0
BLOCK
 67
     1
  8
0
  2
$PAPER_SPACE
 70
     0
 10
0.0
 20
0.0
 30
0.0
  3
$PAPER_SPACE
  1

  0
ENDBLK
  5
1D
 67
     1
  8
0
  0
BLOCK
  8
0
  2
_FILLED
 70
     0
 10
0.0
 20
0.0
 30
0.0
  3
_FILLED
  1

  0
SOLID
  5
B630
  8
0
  6
BYBLOCK
 62
     0
 10
0.0
 20
0.0
 30
0.0
 11
-1.0
 21
0.1666666667
 31
0.0
 12
-1.0
 22
-0.1666666667
 32
0.0
 13
-1.0
 23
-0.1666666667
 33
0.0
  0
ENDBLK
  5
B631
  8
0
  6
BYBLOCK
 62
     0
  0
ENDSEC
  0
SECTION
  2
ENTITIES
  0
ATTDEF
  5
AA11
  8
DEFPOINTS
 10
3644.076018775817829
 20
156.8686972674989022
 30
0.0
 40
0.001
  1
K-22534IN-4ND
  3

  2
MODELNUMBER
 70
     0
1001
ACDBATTR
1070
     0
1070
     1
  0
ATTDEF
  5
AA12
  8
DEFPOINTS
 10
3644.076018775817829
 20
156.8670306008322086
 30
0.0
 40
0.001
  1
HONE
  3

  2
TRADENAME
 70
     0
1001
ACDBATTR
1070
     0
1070
     1
  0
ATTDEF
  5
AA13
  8
DEFPOINTS
 10
3644.076018775817829
 20
156.8653639341656003
 30
0.0
 40
0.001
  1
BATHROOM SINK FAUCET
  3

  2
PRODUCT
 70
     0
1001
ACDBATTR
1070
     0
1070
     1
  0
LINE
  5
10050
  8
0
 10
3644.8807350170491191
 20
162.0589476621942993
 30
0.0
 11
3643.2710035211771356
 21
162.0589476621942993
 31
0.0
  0
LINE
  5
10051
  8
0
 10
3644.8979873738471724
 20
161.9605303393942961
 30
0.0
 11
3643.2537511643790822
 21
161.9605303393942961
 31
0.0
  0
ARC
  5
10052
  8
0
 10
3644.869539277784952
 20
162.9912823502266122
 30
0.0
 40
0.0127687450058967
 50
1.516912647956401
 51
81.3983306954582559
  0
ARC
  5
10053
  8
0
 10
3896.4424876663961186
 20
166.571112962449007
 30
0.0
 40
251.5856494335822049
 50
180.8152163649488102
 51
180.9725828427696115
  0
ARC
  5
10054
  8
0
 10
3641.8037039625819489
 20
162.3373119541755898
 30
0.0
 40
3.089596541493052
 50
354.8307955586643061
 51
359.3211879251103937
  0
LINE
  5
10055
  8
0
 10
3644.850295712985826
 20
162.0589476621942993
 30
0.0
 11
3644.8351216927740097
 21
162.7865572919936028
 31
0.0
  0
LINE
  5
10056
  8
0
 10
3644.8351216927740097
 20
162.7865572919936028
 30
0.0
 11
3644.7844559479858617
 21
162.876671530594308
 31
0.0
  0
ARC
  5
10057
  8
0
 10
3644.622254146108844
 20
161.4191671273677002
 30
0.0
 40
1.466502134317359
 50
83.6498338757483282
 51
91.5867276283181866
  0
CIRCLE
  5
10058
  8
0
 10
3644.0758692691128999
 20
162.5070716264119142
 30
0.0
 40
0.1316463173823729
  0
LINE
  5
10059
  8
0
 10
3643.1756300236270363
 20
156.870137782694286
 30
0.0
 11
3644.9761085145992183
 21
156.870137782694286
 31
0.0
  0
LINE
  5
1005A
  8
0
 10
3644.8979873738471724
 20
161.9605303393942961
 30
0.0
 11
3644.9761085145992183
 21
156.870137782694286
 31
0.0
  0
LINE
  5
1005B
  8
0
 10
3644.8343529743669933
 20
161.1949601028792074
 30
0.0
 11
3643.3173855638588066
 21
161.1949601028792074
 31
0.0
  0
LINE
  5
1005C
  8
0
 10
3644.9016085242860754
 20
156.870137782694286
 30
0.0
 11
3644.8544704174819344
 21
160.3402334257777113
 31
0.0
  0
LINE
  5
1005D
  8
0
 10
3644.8544704174819344
 20
160.3402334257777113
 30
0.0
 11
3644.7841326152852162
 21
160.5647489728160053
 31
0.0
  0
ARC
  5
1005E
  8
0
 10
3644.5402949701838224
 20
158.6997405869298916
 30
0.0
 40
1.880880930998525
 50
82.5512027938343778
 51
88.8267582727517038
  0
ARC
  5
1005F
  8
0
 10
3643.969998602286978
 20
161.8409290410945971
 30
0.0
 40
0.8661417322987544
 50
7.9370563962594236
 51
14.5788668315604397
  0
ARC
  5
10060
  8
0
 10
3641.3369917709192123
 20
161.3072531275352901
 30
0.0
 40
3.4991634872895179
 50
358.1609829740471014
 51
2.1580289455382791
  0
LINE
  5
10061
  8
0
 10
3644.8336735417419732
 20
161.439016947927513
 30
0.0
 11
3644.8269512243427926
 21
161.9605303393942961
 31
0.0
  0
ARC
  5
10062
  8
0
 10
3643.2821992604408479
 20
162.9912823502266122
 30
0.0
 40
0.0127687450058967
 50
98.6016693045417725
 51
178.4830873520436114
  0
ARC
  5
10063
  8
0
 10
3391.7092508806190381
 20
166.5711129623066995
 30
0.0
 40
251.5856494247917112
 50
359.0274171572286832
 51
359.184783635054373
  0
ARC
  5
10064
  8
0
 10
3646.348034575643851
 20
162.3373119541755898
 30
0.0
 40
3.089596541493052
 50
180.6788120748896063
 51
185.1692044413356939
  0
LINE
  5
10065
  8
0
 10
3643.3014428252390644
 20
162.0589476621942993
 30
0.0
 11
3643.3166168454517901
 21
162.7865572919936028
 31
0.0
  0
LINE
  5
10066
  8
0
 10
3643.3166168454517901
 20
162.7865572919936028
 30
0.0
 11
3643.3672825902390287
 21
162.876671530594308
 31
0.0
  0
ARC
  5
10067
  8
0
 10
3643.5294843921169559
 20
161.4191671273677002
 30
0.0
 40
1.466502134317359
 50
88.4132723716818276
 51
96.350166124251686
  0
LINE
  5
10068
  8
0
 10
3643.2537511643790822
 20
161.9605303393942961
 30
0.0
 11
3643.1756300236270363
 21
156.870137782694286
 31
0.0
  0
LINE
  5
10069
  8
0
 10
3643.250130013938815
 20
156.870137782694286
 30
0.0
 11
3643.2972681207429559
 21
160.3402334257777113
 31
0.0
  0
LINE
  5
1006A
  8
0
 10
3643.2972681207429559
 20
160.3402334257777113
 30
0.0
 11
3643.3676059229419479
 21
160.5647489728160053
 31
0.0
  0
ARC
  5
1006B
  8
0
 10
3643.6114435680428869
 20
158.6997405869298916
 30
0.0
 40
1.880880930998525
 50
91.173241727248282
 51
97.4487972061656365
  0
ARC
  5
1006C
  8
0
 10
3644.1817399359379124
 20
161.8409290410945971
 30
0.0
 40
0.8661417322987544
 50
165.42113316843961
 51
172.0629436037405924
  0
ARC
  5
1006D
  8
0
 10
3646.8147467673079518
 20
161.3072531275352901
 30
0.0
 40
3.4991634872895179
 50
177.8419710544617089
 51
181.8390170259528986
  0
LINE
  5
1006E
  8
0
 10
3643.3180649964838267
 20
161.439016947927513
 30
0.0
 11
3643.3247873138830073
 21
161.9605303393942961
 31
0.0
  0
LINE
  5
1006F
  8
0
 10
3643.5729315903890893
 20
160.5802272005942939
 30
0.0
 11
3644.5788069478358011
 21
160.5802272005942939
 31
0.0
  0
LINE
  5
10070
  8
0
 10
3643.5700919560390503
 20
162.8851069404942962
 30
0.0
 11
3644.5816465821858401
 21
162.8851069404942962
 31
0.0
  0
ARC
  5
10071
  8
0
 10
3644.0758692691128999
 20
146.5335182457691019
 30
0.0
 40
16.4895927309699601
 50
87.2345547621590356
 51
92.7654452378409644
  0
ARC
  5
10072
  8
0
 10
3644.1354047632798938
 20
157.4779233679196864
 30
0.0
 40
2.9504201135039239
 50
84.0257250613403102
 51
88.6952367335004652
  0
ARC
  5
10073
  8
0
 10
3644.3878279463551735
 20
159.8899867793815019
 30
0.0
 40
0.5251845859176788
 50
72.5656362297134052
 51
84.0257250613403102
  0
ARC
  5
10074
  8
0
 10
3644.542178993267953
 20
160.3814883401003044
 30
0.0
 40
0.0100166231404434
 50
327.0402765648292984
 51
72.5656362297138884
  0
ARC
  5
10075
  8
0
 10
3644.3534211159148981
 20
160.9378746409707901
 30
0.0
 40
0.5954263213656465
 50
270.0438436195897225
 51
289.3372578881732125
  0
ARC
  5
10076
  8
0
 10
3644.016333774945906
 20
157.4779233679196864
 30
0.0
 40
2.9504201135039239
 50
91.3047632664995348
 51
95.974274938659704
  0
ARC
  5
10077
  8
0
 10
3643.7639105918710811
 20
159.8899867793815019
 30
0.0
 40
0.5251845859176788
 50
95.974274938659704
 51
107.4343637702865948
  0
ARC
  5
10078
  8
0
 10
3643.7983174223109017
 20
160.9378746409707901
 30
0.0
 40
0.5954263213656465
 50
250.6627421118267875
 51
269.7480044058573867
  0
ARC
  5
10079
  8
0
 10
3643.6095595449578468
 20
160.3814883401003044
 30
0.0
 40
0.0100166231404434
 50
107.4343637702860974
 51
212.9597234351705879
  0
LINE
  5
1007A
  8
0
 10
3644.0667032391529574
 20
160.3145395487460121
 30
0.0
 11
3644.0602220676260004
 21
160.3136891655308034
 31
0.0
  0
LINE
  5
1007B
  8
0
 10
3644.0602220676260004
 20
160.3136891655308034
 30
0.0
 11
3644.0568606574552177
 21
160.3133608918898005
 31
0.0
  0
LINE
  5
1007C
  8
0
 10
3644.0568606574552177
 20
160.3133608918898005
 30
0.0
 11
3644.0371754995530864
 21
160.3142774113460121
 31
0.0
  0
LINE
  5
1007D
  8
0
 10
3644.0371754995530864
 20
160.3142774113460121
 30
0.0
 11
3644.027333158051988
 21
160.3163649032545948
 31
0.0
  0
LINE
  5
1007E
  8
0
 10
3644.027333158051988
 20
160.3163649032545948
 30
0.0
 11
3644.0371722218819741
 21
160.315747284806406
 31
0.0
  0
LINE
  5
1007F
  8
0
 10
3644.0371722218819741
 20
160.315747284806406
 30
0.0
 11
3644.0568605381567977
 21
160.3148349521945022
 31
0.0
  0
LINE
  5
10080
  8
0
 10
3644.0568605381567977
 20
160.3148349521945022
 30
0.0
 11
3644.0667032391529574
 21
160.3145395487460121
 31
0.0
  0
LINE
  5
10081
  8
0
 10
3644.0388640947871863
 20
160.3135525763044882
 30
0.0
 11
3644.029021394800111
 21
160.3135525636351133
 31
0.0
  0
LINE
  5
10082
  8
0
 10
3644.029021394800111
 20
160.3135525636351133
 30
0.0
 11
3644.0093363528540067
 21
160.3155239605858071
 31
0.0
  0
LINE
  5
10083
  8
0
 10
3644.0093363528540067
 20
160.3155239605858071
 30
0.0
 11
3643.9994940117999249
 21
160.3172455082668932
 31
0.0
  0
LINE
  5
10084
  8
0
 10
3643.9994940117999249
 20
160.3172455082668932
 30
0.0
 11
3644.0093363506080095
 21
160.3172455211015972
 31
0.0
  0
LINE
  5
10085
  8
0
 10
3644.0093363506080095
 20
160.3172455211015972
 30
0.0
 11
3644.0290213925541138
 21
160.3152983358459949
 31
0.0
  0
LINE
  5
10086
  8
0
 10
3644.0290213925541138
 20
160.3152983358459949
 30
0.0
 11
3644.0388640947871863
 21
160.3135525763044882
 31
0.0
  0
LINE
  5
10087
  8
0
 10
3644.0110255353870343
 20
160.3178815247985085
 30
0.0
 11
3644.0011828351662189
 21
160.3176416794767078
 31
0.0
  0
LINE
  5
10088
  8
0
 10
3644.0011828351662189
 20
160.3176416794767078
 30
0.0
 11
3643.9814977920941601
 21
160.320416774613193
 31
0.0
  0
LINE
  5
10089
  8
0
 10
3643.9814977920941601
 20
160.320416774613193
 30
0.0
 11
3643.9718977630031986
 21
160.323405742896
 31
0.0
  0
LINE
  5
1008A
  8
0
 10
3643.9718977630031986
 20
160.323405742896
 30
0.0
 11
3644.0110255353870343
 21
160.3178815247985085
 31
0.0
  0
LINE
  5
1008B
  8
0
 10
3643.9831863881690879
 20
160.319552332982795
 30
0.0
 11
3643.9733436944570713
 21
160.3206493339098131
 31
0.0
  0
LINE
  5
1008C
  8
0
 10
3643.9733436944570713
 20
160.3206493339098131
 30
0.0
 11
3643.9536586417721082
 21
160.3244171121295949
 31
0.0
  0
LINE
  5
1008D
  8
0
 10
3643.9536586417721082
 20
160.3244171121295949
 30
0.0
 11
3643.9438162994720187
 21
160.3270436730967958
 31
0.0
  0
LINE
  5
1008E
  8
0
 10
3643.9438162994720187
 20
160.3270436730967958
 30
0.0
 11
3643.9536590016009541
 21
160.3259246940361891
 31
0.0
  0
LINE
  5
1008F
  8
0
 10
3643.9536590016009541
 20
160.3259246940361891
 30
0.0
 11
3643.9733436840538161
 21
160.3222008729460129
 31
0.0
  0
LINE
  5
10090
  8
0
 10
3643.9733436840538161
 20
160.3222008729460129
 30
0.0
 11
3643.9831863881690879
 21
160.319552332982795
 31
0.0
  0
LINE
  5
10091
  8
0
 10
3643.955347824753062
 20
160.3264838492459887
 30
0.0
 11
3643.9455051231529978
 21
160.3272406908459971
 31
0.0
  0
LINE
  5
10092
  8
0
 10
3643.9455051231529978
 20
160.3272406908459971
 30
0.0
 11
3643.925820077553908
 21
160.3319548528459961
 31
0.0
  0
LINE
  5
10093
  8
0
 10
3643.925820077553908
 20
160.3319548528459961
 30
0.0
 11
3643.9159777335530634
 21
160.3358706471460096
 31
0.0
  0
LINE
  5
10094
  8
0
 10
3643.9159777335530634
 20
160.3358706471460096
 30
0.0
 11
3643.955347824753062
 21
160.3264838492459887
 31
0.0
  0
LINE
  5
10095
  8
0
 10
3643.9275086734392062
 20
160.3309628805268119
 30
0.0
 11
3643.9176659703539372
 21
160.3331273566460027
 31
0.0
  0
LINE
  5
10096
  8
0
 10
3643.9176659703539372
 20
160.3331273566460027
 30
0.0
 11
3643.8979809232869229
 21
160.3389212265126957
 31
0.0
  0
LINE
  5
10097
  8
0
 10
3643.8979809232869229
 20
160.3389212265126957
 30
0.0
 11
3643.88813858049798
 21
160.3424794802567988
 31
0.0
  0
LINE
  5
10098
  8
0
 10
3643.88813858049798
 20
160.3424794802567988
 30
0.0
 11
3643.8979809215529713
 21
160.3402539068459873
 31
0.0
  0
LINE
  5
10099
  8
0
 10
3643.8979809215529713
 20
160.3402539068459873
 30
0.0
 11
3643.9176659684540027
 21
160.334531012446007
 31
0.0
  0
LINE
  5
1009A
  8
0
 10
3643.9176659684540027
 20
160.334531012446007
 30
0.0
 11
3643.9275086734392062
 21
160.3309628805268119
 31
0.0
  0
LINE
  5
1009B
  8
0
 10
3643.8996701067530921
 20
160.3405968790459895
 30
0.0
 11
3643.860542323754089
 21
160.3540793685959898
 31
0.0
  0
LINE
  5
1009C
  8
0
 10
3643.860542323754089
 20
160.3540793685959898
 30
0.0
 11
3643.870142355282951
 21
160.3492444788724072
 31
0.0
  0
LINE
  5
1009D
  8
0
 10
3643.870142355282951
 20
160.3492444788724072
 30
0.0
 11
3643.8898274037069314
 21
160.3424434416396878
 31
0.0
  0
LINE
  5
1009E
  8
0
 10
3643.8898274037069314
 20
160.3424434416396878
 30
0.0
 11
3643.8996701067530921
 21
160.3405968790459895
 31
0.0
  0
LINE
  5
1009F
  8
0
 10
3643.8718309516971203
 20
160.348134877942897
 30
0.0
 11
3643.861988246654164
 21
160.3514959115460101
 31
0.0
  0
LINE
  5
100A0
  8
0
 10
3643.861988246654164
 20
160.3514959115460101
 30
0.0
 11
3643.8420890791539932
 21
160.3596038846960141
 31
0.0
  0
LINE
  5
100A1
  8
0
 10
3643.8420890791539932
 20
160.3596038846960141
 30
0.0
 11
3643.8324608520520087
 21
160.3640624675487061
 31
0.0
  0
LINE
  5
100A2
  8
0
 10
3643.8324608520520087
 20
160.3640624675487061
 30
0.0
 11
3643.8423031951538178
 21
160.3606673534459901
 31
0.0
  0
LINE
  5
100A3
  8
0
 10
3643.8423031951538178
 20
160.3606673534459901
 30
0.0
 11
3643.861988245153043
 21
160.3526692194459997
 31
0.0
  0
LINE
  5
100A4
  8
0
 10
3643.861988245153043
 20
160.3526692194459997
 30
0.0
 11
3643.8718309516848421
 21
160.3481348779197049
 31
0.0
  0
LINE
  5
100A5
  8
0
 10
3643.8439923808750791
 20
160.3606673557262923
 30
0.0
 11
3643.8341496773491599
 21
160.363746000631096
 31
0.0
  0
LINE
  5
100A6
  8
0
 10
3643.8341496773491599
 20
160.363746000631096
 30
0.0
 11
3643.8144646247901619
 21
160.3728750893583879
 31
0.0
  0
LINE
  5
100A7
  8
0
 10
3643.8144646247901619
 20
160.3728750893583879
 30
0.0
 11
3643.8046222781381402
 21
160.3788341109448936
 31
0.0
  0
LINE
  5
100A8
  8
0
 10
3643.8046222781381402
 20
160.3788341109448936
 30
0.0
 11
3643.8144649829528134
 21
160.3756018118459963
 31
0.0
  0
LINE
  5
100A9
  8
0
 10
3643.8144649829528134
 20
160.3756018118459963
 30
0.0
 11
3643.826171550953859
 21
160.3701235571458881
 31
0.0
  0
LINE
  5
100AA
  8
0
 10
3643.826171550953859
 20
160.3701235571458881
 30
0.0
 11
3643.8310802088471974
 21
160.3663122833287957
 31
0.0
  0
LINE
  5
100AB
  8
0
 10
3643.8310802088471974
 20
160.3663122833287957
 30
0.0
 11
3643.8439923808527965
 21
160.3606673557459885
 31
0.0
  0
LINE
  5
100AC
  8
0
 10
3644.0846990962540985
 20
160.3119744556460091
 30
0.0
 11
3644.0650140568541246
 21
160.3119744294077123
 31
0.0
  0
LINE
  5
100AD
  8
0
 10
3644.0650140568541246
 20
160.3119744294077123
 30
0.0
 11
3644.0551717170478696
 21
160.312790761358599
 31
0.0
  0
LINE
  5
100AE
  8
0
 10
3644.0551717170478696
 20
160.312790761358599
 30
0.0
 11
3644.0649889330479709
 21
160.3134627737557025
 31
0.0
  0
LINE
  5
100AF
  8
0
 10
3644.0649889330479709
 20
160.3134627737557025
 30
0.0
 11
3644.08469945580282
 21
160.3136249859711882
 31
0.0
  0
LINE
  5
100B0
  8
0
 10
3644.0627671455781638
 20
160.3121607901207994
 30
0.0
 11
3644.0323105824550112
 21
160.3135525678688964
 31
0.0
  0
LINE
  5
100B1
  8
0
 10
3644.0067305294578546
 20
160.3159797514591105
 30
0.0
 11
3643.9771047820559033
 21
160.3202301481967993
 31
0.0
  0
ARC
  5
100B2
  8
0
 10
3644.0744146946030924
 20
160.9036862484184098
 30
0.0
 40
0.5916033071777747
 50
254.8231022101817018
 51
258.0097898541305881
  0
ARC
  5
100B3
  8
0
 10
3644.0736414545158368
 20
160.9010715760900894
 30
0.0
 40
0.5888757290008724
 50
249.0603210679977053
 51
252.4621610017541968
  0
ARC
  5
100B4
  8
0
 10
3643.9555911043221386
 20
160.6551108754875088
 30
0.0
 40
0.3162898923954586
 50
233.376428078328189
 51
248.1890897135542957
  0
ARC
  5
100B5
  8
0
 10
3644.0748087618840145
 20
160.9216482840265883
 30
0.0
 40
0.6031924506354959
 50
244.8612900348570918
 51
269.9987866164144066
  0
LINE
  5
100B6
  8
0
 10
3643.8185658875017907
 20
160.3755890181666928
 30
0.0
 11
3643.8180605370539524
 21
160.3767522733459998
 31
0.0
  0
LINE
  5
100B7
  8
0
 10
3643.8180605370539524
 20
160.3767522733459998
 30
0.0
 11
3643.8144652081577988
 21
160.3784604647628953
 31
0.0
  0
LINE
  5
100B8
  8
0
 10
3643.8144652081577988
 20
160.3784604647628953
 30
0.0
 11
3643.8046233685540756
 21
160.3861471159864038
 31
0.0
  0
LINE
  5
100B9
  8
0
 10
3643.8046233685540756
 20
160.3861471159864038
 30
0.0
 11
3643.8144651998541121
 21
160.3847338926460111
 31
0.0
  0
LINE
  5
100BA
  8
0
 10
3643.8144651998541121
 20
160.3847338926460111
 30
0.0
 11
3643.8164833116811678
 21
160.3837748608426921
 31
0.0
  0
LINE
  5
100BB
  8
0
 10
3643.8164833116811678
 20
160.3837748608426921
 30
0.0
 11
3643.8164835340530772
 21
160.3888497475458905
 31
0.0
  0
LINE
  5
100BC
  8
0
 10
3643.8164835340530772
 20
160.3888497475458905
 30
0.0
 11
3643.8144657839170577
 21
160.3898087793174909
 31
0.0
  0
LINE
  5
100BD
  8
0
 10
3643.8144657839170577
 20
160.3898087793174909
 30
0.0
 11
3643.8046234326288868
 21
160.3992394285313878
 31
0.0
  0
LINE
  5
100BE
  8
0
 10
3643.8046234326288868
 20
160.3992394285313878
 30
0.0
 11
3643.8144657709531202
 21
160.3995699218459947
 31
0.0
  0
LINE
  5
100BF
  8
0
 10
3643.8144657709531202
 20
160.3995699218459947
 30
0.0
 11
3643.8180614616258026
 21
160.3978617304587999
 31
0.0
  0
LINE
  5
100C0
  8
0
 10
3643.8180614616258026
 20
160.3978617304587999
 30
0.0
 11
3643.8185669416470773
 21
160.3996586833443132
 31
0.0
  0
LINE
  5
100C1
  8
0
 10
3643.8185658874281216
 20
160.3755890182015094
 30
0.0
 11
3643.8350575734530139
 21
160.3854553507190985
 31
0.0
  0
LINE
  5
100C2
  8
0
 10
3643.8350575734530139
 20
160.3854553507190985
 30
0.0
 11
3643.8398794094159712
 21
160.390136231600394
 31
0.0
  0
LINE
  5
100C3
  8
0
 10
3643.8180605370539524
 20
160.3767522733459998
 30
0.0
 11
3643.8341502369539739
 21
160.3864158453451978
 31
0.0
  0
LINE
  5
100C4
  8
0
 10
3643.8341502369539739
 20
160.3864158453451978
 30
0.0
 11
3643.8385480058559551
 21
160.3907006972386
 31
0.0
  0
ARC
  5
100C5
  8
0
 10
3644.0743808862571314
 20
160.9444652651039007
 30
0.0
 40
0.6018762212690315
 50
244.8475960340099959
 51
258.4808802063870985
  0
ARC
  5
100C6
  8
0
 10
3644.0749596339301206
 20
160.9473050498428108
 30
0.0
 40
0.6047743803800572
 50
258.4808802063870985
 51
269.9897449260892017
  0
LINE
  5
100C7
  8
0
 10
3643.8692347990408962
 20
160.3786295392710031
 30
0.0
 11
3643.8692347932919802
 21
160.3737182894467139
 31
0.0
  0
LINE
  5
100C8
  8
0
 10
3643.8692347932919802
 20
160.3737182894467139
 30
0.0
 11
3643.8350575890531218
 21
160.3737183294460067
 31
0.0
  0
LINE
  5
100C9
  8
0
 10
3643.8350575890531218
 20
160.3737183294460067
 30
0.0
 11
3643.8350575734530139
 21
160.3854553507190985
 31
0.0
  0
LINE
  5
100CA
  8
0
 10
3643.8423037686538919
 20
160.3737183209653949
 30
0.0
 11
3643.8423045679360257
 21
160.3891315202222927
 31
0.0
  0
LINE
  5
100CB
  8
0
 10
3643.8619888080529563
 20
160.3737182978460112
 30
0.0
 11
3643.8619887413638025
 21
160.3813093697098964
 31
0.0
  0
LINE
  5
100CC
  8
0
 10
3643.8164833117571106
 20
160.3837748608065112
 30
0.0
 11
3643.8323530378311261
 21
160.3933958445086034
 31
0.0
  0
LINE
  5
100CD
  8
0
 10
3643.8164835340530772
 20
160.3888497475458905
 30
0.0
 11
3643.8274377346961046
 21
160.395580882354011
 31
0.0
  0
LINE
  5
100CE
  8
0
 10
3644.0650140568541246
 20
160.3119744294077123
 30
0.0
 11
3644.0649889330479709
 21
160.3134627737557025
 31
0.0
  0
LINE
  5
100CF
  8
0
 10
3644.0568606574552177
 20
160.3133608918898005
 30
0.0
 11
3644.0569288170017899
 21
160.3148317882358924
 31
0.0
  0
LINE
  5
100D0
  8
0
 10
3644.0371754995530864
 20
160.3142774113460121
 30
0.0
 11
3644.0371722218819741
 21
160.315747284806406
 31
0.0
  0
LINE
  5
100D1
  8
0
 10
3644.029021394800111
 20
160.3135525636351133
 30
0.0
 11
3644.0290213925541138
 21
160.3152983358459949
 31
0.0
  0
LINE
  5
100D2
  8
0
 10
3644.0093363528540067
 20
160.3155239605858071
 30
0.0
 11
3644.0093363506080095
 21
160.3172455211015972
 31
0.0
  0
LINE
  5
100D3
  8
0
 10
3644.0011828351662189
 20
160.3176416794767078
 30
0.0
 11
3644.0014083953910813
 21
160.3192393117508061
 31
0.0
  0
LINE
  5
100D4
  8
0
 10
3643.9814977920941601
 20
160.320416774613193
 30
0.0
 11
3643.9817239225358207
 21
160.3220184457150879
 31
0.0
  0
LINE
  5
100D5
  8
0
 10
3643.9733436944570713
 20
160.3206493339098131
 30
0.0
 11
3643.9733436840538161
 21
160.3222008729460129
 31
0.0
  0
LINE
  5
100D6
  8
0
 10
3643.9536586417721082
 20
160.3244171121295949
 30
0.0
 11
3643.9536590016009541
 21
160.3259246940361891
 31
0.0
  0
LINE
  5
100D7
  8
0
 10
3643.9455051231529978
 20
160.3272406908459971
 30
0.0
 11
3643.9458638048117791
 21
160.3287450728236081
 31
0.0
  0
LINE
  5
100D8
  8
0
 10
3643.925820077553908
 20
160.3319548528459961
 30
0.0
 11
3643.9261740750657736
 21
160.3334395885889876
 31
0.0
  0
LINE
  5
100D9
  8
0
 10
3643.9176659703539372
 20
160.3331273566460027
 30
0.0
 11
3643.9176659684540027
 21
160.334531012446007
 31
0.0
  0
LINE
  5
100DA
  8
0
 10
3643.8979809232869229
 20
160.3389212265126957
 30
0.0
 11
3643.8979809215529713
 21
160.3402539068459873
 31
0.0
  0
LINE
  5
100DB
  8
0
 10
3643.8898274037069314
 20
160.3424434416396878
 30
0.0
 11
3643.8903032708808496
 21
160.3438244645896873
 31
0.0
  0
LINE
  5
100DC
  8
0
 10
3643.870142355282951
 20
160.3492444788724072
 30
0.0
 11
3643.8706126645861332
 21
160.3506093722243122
 31
0.0
  0
LINE
  5
100DD
  8
0
 10
3643.861988246654164
 20
160.3514959115460101
 30
0.0
 11
3643.861988245153043
 21
160.3526692194459997
 31
0.0
  0
LINE
  5
100DE
  8
0
 10
3643.8420890791539932
 20
160.3596038846960141
 30
0.0
 11
3643.8423031951538178
 21
160.3606673534459901
 31
0.0
  0
LINE
  5
100DF
  8
0
 10
3643.8341496773491599
 20
160.363746000631096
 30
0.0
 11
3643.8341719622831079
 21
160.3649606343387006
 31
0.0
  0
LINE
  5
100E0
  8
0
 10
3643.8144646247901619
 20
160.3728750893583879
 30
0.0
 11
3643.8144649829528134
 21
160.3756018118459963
 31
0.0
  0
LINE
  5
100E1
  8
0
 10
3643.8144652081577988
 20
160.3784604647628953
 30
0.0
 11
3643.8144651998541121
 21
160.3847338926460111
 31
0.0
  0
LINE
  5
100E2
  8
0
 10
3643.8144657839170577
 20
160.3898087793174909
 30
0.0
 11
3643.8144657709531202
 21
160.3995699218459947
 31
0.0
  0
LINE
  5
100E3
  8
0
 10
3643.8161538061340252
 20
160.3761150020035018
 30
0.0
 11
3643.8063114579681496
 21
160.3834313637499065
 31
0.0
  0
LINE
  5
100E4
  8
0
 10
3643.8063114579681496
 20
160.3834313637499065
 30
0.0
 11
3643.7866264046851938
 21
160.3936890740274919
 31
0.0
  0
LINE
  5
100E5
  8
0
 10
3643.7866264046851938
 20
160.3936890740274919
 30
0.0
 11
3643.7767837001179032
 21
160.3967062695676873
 31
0.0
  0
LINE
  5
100E6
  8
0
 10
3643.7767837001179032
 20
160.3967062695676873
 30
0.0
 11
3643.7866260487530781
 21
160.3892746279585992
 31
0.0
  0
LINE
  5
100E7
  8
0
 10
3643.7866260487530781
 20
160.3892746279585992
 30
0.0
 11
3643.8063111018109339
 21
160.3789439188086021
 31
0.0
  0
LINE
  5
100E8
  8
0
 10
3643.8063111018109339
 20
160.3789439188086021
 30
0.0
 11
3643.8161538061090141
 21
160.3761150020206969
 31
0.0
  0
LINE
  5
100E9
  8
0
 10
3643.7866260487530781
 20
160.3892746279585992
 30
0.0
 11
3643.7866264046851938
 21
160.3936890740274919
 31
0.0
  0
LINE
  5
100EA
  8
0
 10
3643.8063111018109339
 20
160.3789439188086021
 30
0.0
 11
3643.8063114579681496
 21
160.3834313637499065
 31
0.0
  0
LINE
  5
100EB
  8
0
 10
3643.816154383373032
 20
160.3863614531778978
 30
0.0
 11
3643.8063116707530753
 21
160.3954114338459931
 31
0.0
  0
LINE
  5
100EC
  8
0
 10
3643.8063116707530753
 20
160.3954114338459931
 30
0.0
 11
3643.7866266178530168
 21
160.4056463605458873
 31
0.0
  0
LINE
  5
100ED
  8
0
 10
3643.7866266178530168
 20
160.4056463605458873
 30
0.0
 11
3643.77678427735691
 21
160.406952720742197
 31
0.0
  0
LINE
  5
100EE
  8
0
 10
3643.77678427735691
 20
160.406952720742197
 30
0.0
 11
3643.7866266284531775
 21
160.3976290754754928
 31
0.0
  0
LINE
  5
100EF
  8
0
 10
3643.7866266284531775
 20
160.3976290754754928
 30
0.0
 11
3643.806510221651024
 21
160.3872950557168053
 31
0.0
  0
LINE
  5
100F0
  8
0
 10
3643.806510221651024
 20
160.3872950557168053
 30
0.0
 11
3643.8161543833480209
 21
160.3863614531952066
 31
0.0
  0
LINE
  5
100F1
  8
0
 10
3643.7866266284531775
 20
160.3976290754754928
 30
0.0
 11
3643.7866266178530168
 21
160.4056463605458873
 31
0.0
  0
LINE
  5
100F2
  8
0
 10
3643.806510221651024
 20
160.3872950557168053
 30
0.0
 11
3643.8063116707530753
 21
160.3954114338459931
 31
0.0
  0
LINE
  5
100F3
  8
0
 10
3643.8161549530418597
 20
160.402299345700186
 30
0.0
 11
3643.8063122380540335
 21
160.4131455477460122
 31
0.0
  0
LINE
  5
100F4
  8
0
 10
3643.8063122380540335
 20
160.4131455477460122
 30
0.0
 11
3643.7947924139111819
 21
160.4189312890179906
 31
0.0
  0
LINE
  5
100F5
  8
0
 10
3643.7851171487109241
 20
160.413549085165414
 30
0.0
 11
3643.7866272003197992
 21
160.4118561328365899
 31
0.0
  0
LINE
  5
100F6
  8
0
 10
3643.7866272003197992
 20
160.4118561328365899
 30
0.0
 11
3643.8064341144308855
 21
160.4016025779453116
 31
0.0
  0
LINE
  5
100F7
  8
0
 10
3643.8064341144308855
 20
160.4016025779453116
 30
0.0
 11
3643.8161549530168486
 21
160.4022993457174096
 31
0.0
  0
LINE
  5
100F8
  8
0
 10
3643.7866272003197992
 20
160.4118561328365899
 30
0.0
 11
3643.7866272814608237
 21
160.4144376475285014
 31
0.0
  0
LINE
  5
100F9
  8
0
 10
3643.8064341144308855
 20
160.4016025779453116
 30
0.0
 11
3643.8063122380540335
 21
160.4131455477460122
 31
0.0
  0
LINE
  5
100FA
  8
0
 10
3644.0845756208168496
 20
160.3579761475446901
 30
0.0
 11
3644.0650163546888507
 21
160.3579761475446901
 31
0.0
  0
LINE
  5
100FB
  8
0
 10
3644.0650163546888507
 20
160.3579761475446901
 30
0.0
 11
3644.055174010790779
 21
160.3651594487521095
 31
0.0
  0
LINE
  5
100FC
  8
0
 10
3644.055174010790779
 20
160.3651594487521095
 30
0.0
 11
3644.065016339954127
 21
160.3723601741043865
 31
0.0
  0
LINE
  5
100FD
  8
0
 10
3644.065016339954127
 20
160.3723601741043865
 30
0.0
 11
3644.0845756355529375
 21
160.3723601741043865
 31
0.0
  0
LINE
  5
100FE
  8
0
 10
3644.0650163546888507
 20
160.3579761475446901
 30
0.0
 11
3644.065016339954127
 21
160.3723601741043865
 31
0.0
  0
LINE
  5
100FF
  8
0
 10
3644.0845750581529501
 20
160.3825247255458919
 30
0.0
 11
3644.0650169173532049
 21
160.3825247255458919
 31
0.0
  0
LINE
  5
10100
  8
0
 10
3644.0650169173532049
 20
160.3825247255458919
 30
0.0
 11
3644.055174566747155
 21
160.3914009527159124
 31
0.0
  0
LINE
  5
10101
  8
0
 10
3644.055174566747155
 20
160.3914009527159124
 30
0.0
 11
3644.0650168937540911
 21
160.4003202631282932
 31
0.0
  0
LINE
  5
10102
  8
0
 10
3644.0650168937540911
 20
160.4003202631282932
 30
0.0
 11
3644.0845750817520639
 21
160.4003202631282932
 31
0.0
  0
LINE
  5
10103
  8
0
 10
3644.0650169173532049
 20
160.3825247255458919
 30
0.0
 11
3644.0650168937540911
 21
160.4003202631282932
 31
0.0
  0
LINE
  5
10104
  8
0
 10
3644.0667055162380166
 20
160.3773124111399113
 30
0.0
 11
3644.0568516426869792
 21
160.3697603129546962
 31
0.0
  0
LINE
  5
10105
  8
0
 10
3644.0568516426869792
 20
160.3697603129546962
 30
0.0
 11
3644.0371777879540787
 21
160.3706830809460087
 31
0.0
  0
LINE
  5
10106
  8
0
 10
3644.0371777879540787
 20
160.3706830809460087
 30
0.0
 11
3644.027335437909187
 21
160.3791719286292903
 31
0.0
  0
LINE
  5
10107
  8
0
 10
3644.027335437909187
 20
160.3791719286292903
 30
0.0
 11
3644.0373213705288435
 21
160.3867498206543019
 31
0.0
  0
LINE
  5
10108
  8
0
 10
3644.0373213705288435
 20
160.3867498206543019
 30
0.0
 11
3644.05686316905485
 21
160.3858224825308127
 31
0.0
  0
LINE
  5
10109
  8
0
 10
3644.05686316905485
 20
160.3858224825308127
 30
0.0
 11
3644.0667055162380166
 21
160.3773124111399113
 31
0.0
  0
LINE
  5
1010A
  8
0
 10
3644.0568516426869792
 20
160.3697603129546962
 30
0.0
 11
3644.05686316905485
 21
160.3858224825308127
 31
0.0
  0
LINE
  5
1010B
  8
0
 10
3644.0371777879540787
 20
160.3706830809460087
 30
0.0
 11
3644.0373213705288435
 21
160.3867498206543019
 31
0.0
  0
LINE
  5
1010C
  8
0
 10
3644.0667049566318383
 20
160.3538160622819078
 30
0.0
 11
3644.0568568148541999
 21
160.3536440279486044
 31
0.0
  0
LINE
  5
1010D
  8
0
 10
3644.0568568148541999
 20
160.3536440279486044
 30
0.0
 11
3644.037177409990818
 21
160.3546288216641074
 31
0.0
  0
LINE
  5
1010E
  8
0
 10
3644.037177409990818
 20
160.3546288216641074
 30
0.0
 11
3644.0273348782761786
 21
160.3556414189453108
 31
0.0
  0
LINE
  5
1010F
  8
0
 10
3644.0273348782761786
 20
160.3556414189453108
 30
0.0
 11
3644.0371775708758832
 21
160.3615712121705883
 31
0.0
  0
LINE
  5
10110
  8
0
 10
3644.0371775708758832
 20
160.3615712121705883
 30
0.0
 11
3644.0568513608618559
 21
160.3606550352741067
 31
0.0
  0
LINE
  5
10111
  8
0
 10
3644.0568513608618559
 20
160.3606550352741067
 30
0.0
 11
3644.0667049566318383
 21
160.3538160622819078
 31
0.0
  0
LINE
  5
10112
  8
0
 10
3644.0845745122542212
 20
160.412730709618387
 30
0.0
 11
3644.0650174632528433
 21
160.412730709618387
 31
0.0
  0
LINE
  5
10113
  8
0
 10
3644.0650174632528433
 20
160.412730709618387
 30
0.0
 11
3644.0551751151970166
 21
160.4234486779384952
 31
0.0
  0
LINE
  5
10114
  8
0
 10
3644.0551751151970166
 20
160.4234486779384952
 30
0.0
 11
3644.0604574990998117
 21
160.4292466936643109
 31
0.0
  0
LINE
  5
10115
  8
0
 10
3644.0650174632528433
 20
160.412730709618387
 30
0.0
 11
3644.0650174451288876
 21
160.4292593200999875
 31
0.0
  0
LINE
  5
10116
  8
0
 10
3644.0667060685382239
 20
160.4063853389052099
 30
0.0
 11
3644.056863383153086
 21
160.3970875157891101
 31
0.0
  0
LINE
  5
10117
  8
0
 10
3644.056863383153086
 20
160.3970875157891101
 30
0.0
 11
3644.0371783424848218
 21
160.398034683257606
 31
0.0
  0
LINE
  5
10118
  8
0
 10
3644.0371783424848218
 20
160.398034683257606
 30
0.0
 11
3644.0273359901621006
 21
160.4082998961658006
 31
0.0
  0
LINE
  5
10119
  8
0
 10
3644.0273359901621006
 20
160.4082998961658006
 30
0.0
 11
3644.0374471116988389
 21
160.4176511871588104
 31
0.0
  0
LINE
  5
1011A
  8
0
 10
3644.0374471116988389
 20
160.4176511871588104
 30
0.0
 11
3644.0568633571538157
 21
160.4167012843458906
 31
0.0
  0
LINE
  5
1011B
  8
0
 10
3644.0568633571538157
 20
160.4167012843458906
 30
0.0
 11
3644.0667060685382239
 21
160.4063853389052099
 31
0.0
  0
LINE
  5
1011C
  8
0
 10
3644.056863383153086
 20
160.3970875157891101
 30
0.0
 11
3644.0568633571538157
 21
160.4167012843458906
 31
0.0
  0
LINE
  5
1011D
  8
0
 10
3644.0371783424848218
 20
160.398034683257606
 30
0.0
 11
3644.0374471116988389
 21
160.4176511871588104
 31
0.0
  0
LINE
  5
1011E
  8
0
 10
3644.0388674934979463
 20
160.4242565970342014
 30
0.0
 11
3644.0290248058208817
 21
160.4144934649281993
 31
0.0
  0
LINE
  5
1011F
  8
0
 10
3644.0290248058208817
 20
160.4144934649281993
 30
0.0
 11
3644.009339763862954
 21
160.4164279581752055
 31
0.0
  0
LINE
  5
10120
  8
0
 10
3644.009339763862954
 20
160.4164279581752055
 30
0.0
 11
3643.9994974095770885
 21
160.4281749715603098
 31
0.0
  0
LINE
  5
10121
  8
0
 10
3643.9994974095770885
 20
160.4281749715603098
 30
0.0
 11
3643.9999856596009522
 21
160.4286645956431983
 31
0.0
  0
LINE
  5
10122
  8
0
 10
3644.0348335348699038
 20
160.4290941951761909
 30
0.0
 11
3644.0388674934979463
 21
160.4242565970342014
 31
0.0
  0
LINE
  5
10123
  8
0
 10
3644.0290248058208817
 20
160.4144934649281993
 30
0.0
 11
3644.0290247865509627
 21
160.429040373452807
 31
0.0
  0
LINE
  5
10124
  8
0
 10
3644.009339763862954
 20
160.4164279581752055
 30
0.0
 11
3644.0093397474820449
 21
160.4288050599074893
 31
0.0
  0
LINE
  5
10125
  8
0
 10
3644.0388669451449459
 20
160.3921809988445091
 30
0.0
 11
3644.0290242551541269
 21
160.3842326916978038
 31
0.0
  0
LINE
  5
10126
  8
0
 10
3644.0290242551541269
 20
160.3842326916978038
 30
0.0
 11
3644.0093392091948772
 21
160.3861069613801078
 31
0.0
  0
LINE
  5
10127
  8
0
 10
3644.0093392091948772
 20
160.3861069613801078
 30
0.0
 11
3643.999496861471016
 21
160.3959630381972943
 31
0.0
  0
LINE
  5
10128
  8
0
 10
3643.999496861471016
 20
160.3959630381972943
 30
0.0
 11
3644.0093391896530193
 21
160.4039671970253096
 31
0.0
  0
LINE
  5
10129
  8
0
 10
3644.0093391896530193
 20
160.4039671970253096
 30
0.0
 11
3644.0290242315531941
 21
160.4020592942459018
 31
0.0
  0
LINE
  5
1012A
  8
0
 10
3644.0290242315531941
 20
160.4020592942459018
 30
0.0
 11
3644.0388669451449459
 21
160.3921809988445091
 31
0.0
  0
LINE
  5
1012B
  8
0
 10
3644.0290242551541269
 20
160.3842326916978038
 30
0.0
 11
3644.0290242315531941
 21
160.4020592942459018
 31
0.0
  0
LINE
  5
1012C
  8
0
 10
3644.0093392091948772
 20
160.3861069613801078
 30
0.0
 11
3644.0093391896530193
 21
160.4039671970253096
 31
0.0
  0
LINE
  5
1012D
  8
0
 10
3644.0388663863009242
 20
160.3659212617652088
 30
0.0
 11
3644.0290236968530735
 21
160.359649738146004
 31
0.0
  0
LINE
  5
1012E
  8
0
 10
3644.0290236968530735
 20
160.359649738146004
 30
0.0
 11
3644.0093386551297954
 21
160.3614857553006914
 31
0.0
  0
LINE
  5
1012F
  8
0
 10
3644.0093386551297954
 20
160.3614857553006914
 30
0.0
 11
3643.9994963054759864
 21
160.3696141957904047
 31
0.0
  0
LINE
  5
10130
  8
0
 10
3643.9994963054759864
 20
160.3696141957904047
 30
0.0
 11
3644.0093386359530996
 21
160.3759096895227003
 31
0.0
  0
LINE
  5
10131
  8
0
 10
3644.0093386359530996
 20
160.3759096895227003
 30
0.0
 11
3644.0290236778528197
 21
160.3740528532460132
 31
0.0
  0
LINE
  5
10132
  8
0
 10
3644.0290236778528197
 20
160.3740528532460132
 30
0.0
 11
3644.0388663863009242
 21
160.3659212617652088
 31
0.0
  0
LINE
  5
10133
  8
0
 10
3644.0290236968530735
 20
160.359649738146004
 30
0.0
 11
3644.0290236778528197
 21
160.3740528532460132
 31
0.0
  0
LINE
  5
10134
  8
0
 10
3644.0093386551297954
 20
160.3614857553006914
 30
0.0
 11
3644.0093386359530996
 21
160.3759096895227003
 31
0.0
  0
LINE
  5
10135
  8
0
 10
3644.0110278153310901
 20
160.3807171062858004
 30
0.0
 11
3644.001185123553114
 21
160.374071731744408
 31
0.0
  0
LINE
  5
10136
  8
0
 10
3644.001185123553114
 20
160.374071731744408
 30
0.0
 11
3643.9815000804542251
 21
160.3768671629447908
 31
0.0
  0
LINE
  5
10137
  8
0
 10
3643.9815000804542251
 20
160.3768671629447908
 30
0.0
 11
3643.9716577291042086
 21
160.3863490730140882
 31
0.0
  0
LINE
  5
10138
  8
0
 10
3643.9716577291042086
 20
160.3863490730140882
 30
0.0
 11
3643.9815000590538148
 21
160.3930341151518064
 31
0.0
  0
LINE
  5
10139
  8
0
 10
3643.9815000590538148
 20
160.3930341151518064
 30
0.0
 11
3644.0011851021531584
 21
160.3901974343459926
 31
0.0
  0
LINE
  5
1013A
  8
0
 10
3644.0011851021531584
 20
160.3901974343459926
 30
0.0
 11
3644.0110278153310901
 21
160.3807171062858004
 31
0.0
  0
LINE
  5
1013B
  8
0
 10
3644.001185123553114
 20
160.374071731744408
 30
0.0
 11
3644.0011851021531584
 21
160.3901974343459926
 31
0.0
  0
LINE
  5
1013C
  8
0
 10
3643.9815000804542251
 20
160.3768671629447908
 30
0.0
 11
3643.9815000590538148
 21
160.3930341151518064
 31
0.0
  0
LINE
  5
1013D
  8
0
 10
3644.0110283645472009
 20
160.4098911014581859
 30
0.0
 11
3644.0011856780838571
 21
160.4015123709096997
 31
0.0
  0
LINE
  5
1013E
  8
0
 10
3644.0011856780838571
 20
160.4015123709096997
 30
0.0
 11
3643.9815006348039788
 21
160.4043821049228882
 31
0.0
  0
LINE
  5
1013F
  8
0
 10
3643.9815006348039788
 20
160.4043821049228882
 30
0.0
 11
3643.9716582810528962
 21
160.4156931382206039
 31
0.0
  0
LINE
  5
10140
  8
0
 10
3643.9716582810528962
 20
160.4156931382206039
 30
0.0
 11
3643.9815009704561817
 21
160.424156052172691
 31
0.0
  0
LINE
  5
10141
  8
0
 10
3643.9815009704561817
 20
160.424156052172691
 30
0.0
 11
3644.0011856518531204
 21
160.4212227717459882
 31
0.0
  0
LINE
  5
10142
  8
0
 10
3644.0011856518531204
 20
160.4212227717459882
 30
0.0
 11
3644.0110283645472009
 21
160.4098911014581859
 31
0.0
  0
LINE
  5
10143
  8
0
 10
3644.0011856780838571
 20
160.4015123709096997
 30
0.0
 11
3644.0011856518531204
 21
160.4212227717459882
 31
0.0
  0
LINE
  5
10144
  8
0
 10
3643.9815006348039788
 20
160.4043821049228882
 30
0.0
 11
3643.9815009704561817
 21
160.424156052172691
 31
0.0
  0
LINE
  5
10145
  8
0
 10
3643.980622968058924
 20
160.4283151911774041
 30
0.0
 11
3643.9733470968408255
 21
160.4217698666093099
 31
0.0
  0
LINE
  5
10146
  8
0
 10
3643.9733470968408255
 20
160.4217698666093099
 30
0.0
 11
3643.9536620483090701
 21
160.4256995768992056
 31
0.0
  0
LINE
  5
10147
  8
0
 10
3643.9536620483090701
 20
160.4256995768992056
 30
0.0
 11
3643.9521663183090823
 21
160.4276581234612138
 31
0.0
  0
LINE
  5
10148
  8
0
 10
3643.9733470968408255
 20
160.4217698666093099
 30
0.0
 11
3643.9733470883820701
 21
160.4281634503877001
 31
0.0
  0
LINE
  5
10149
  8
0
 10
3643.9536620483090701
 20
160.4256995768992056
 30
0.0
 11
3643.9536620460289669
 21
160.4276969152899142
 31
0.0
  0
LINE
  5
1014A
  8
0
 10
3643.9834003508108253
 20
160.3984802141077068
 30
0.0
 11
3643.9733465470690135
 21
160.3911431032836958
 31
0.0
  0
LINE
  5
1014B
  8
0
 10
3643.9733465470690135
 20
160.3911431032836958
 30
0.0
 11
3643.9536614984881453
 21
160.3950840681762884
 31
0.0
  0
LINE
  5
1014C
  8
0
 10
3643.9536614984881453
 20
160.3950840681762884
 30
0.0
 11
3643.9438191487920449
 21
160.4060036526992974
 31
0.0
  0
LINE
  5
1014D
  8
0
 10
3643.9438191487920449
 20
160.4060036526992974
 30
0.0
 11
3643.9536614782541619
 21
160.4131102446305022
 31
0.0
  0
LINE
  5
1014E
  8
0
 10
3643.9536614782541619
 20
160.4131102446305022
 30
0.0
 11
3643.9733465227532179
 21
160.4092358562459992
 31
0.0
  0
LINE
  5
1014F
  8
0
 10
3643.9733465227532179
 20
160.4092358562459992
 30
0.0
 11
3643.9834003508108253
 21
160.3984802141077068
 31
0.0
  0
LINE
  5
10150
  8
0
 10
3643.9733465470690135
 20
160.3911431032836958
 30
0.0
 11
3643.9733465227532179
 21
160.4092358562459992
 31
0.0
  0
LINE
  5
10151
  8
0
 10
3643.9536614984881453
 20
160.3950840681762884
 30
0.0
 11
3643.9536614782541619
 21
160.4131102446305022
 31
0.0
  0
LINE
  5
10152
  8
0
 10
3644.0105426288541821
 20
160.3569673861667866
 30
0.0
 11
3644.0011752378550227
 21
160.3579779226953121
 31
0.0
  0
LINE
  5
10153
  8
0
 10
3644.0011752378550227
 20
160.3579779226953121
 30
0.0
 11
3643.9806935318601973
 21
160.3608655471157078
 31
0.0
  0
LINE
  5
10154
  8
0
 10
3643.9806935318601973
 20
160.3608655471157078
 30
0.0
 11
3643.9721417796190508
 21
160.3622851683740862
 31
0.0
  0
LINE
  5
10155
  8
0
 10
3643.9721417796190508
 20
160.3622851683740862
 30
0.0
 11
3643.9814901855088465
 21
160.3677814828818953
 31
0.0
  0
LINE
  5
10156
  8
0
 10
3643.9814901855088465
 20
160.3677814828818953
 30
0.0
 11
3644.0011752286090996
 21
160.3649448020759962
 31
0.0
  0
LINE
  5
10157
  8
0
 10
3644.0011752286090996
 20
160.3649448020759962
 30
0.0
 11
3644.0105426288541821
 21
160.3569673861667866
 31
0.0
  0
LINE
  5
10158
  8
0
 10
3643.983079390803141
 20
160.3719603294836134
 30
0.0
 11
3643.9733459884650983
 21
160.366552275157801
 31
0.0
  0
LINE
  5
10159
  8
0
 10
3643.9733459884650983
 20
160.366552275157801
 30
0.0
 11
3643.9536609440979191
 21
160.3702760963421099
 31
0.0
  0
LINE
  5
1015A
  8
0
 10
3643.9536609440979191
 20
160.3702760963421099
 30
0.0
 11
3643.9438185932240231
 21
160.379412360505313
 31
0.0
  0
LINE
  5
1015B
  8
0
 10
3643.9438185932240231
 20
160.379412360505313
 30
0.0
 11
3643.9536612867859731
 21
160.3848030847364896
 31
0.0
  0
LINE
  5
1015C
  8
0
 10
3643.9536612867859731
 20
160.3848030847364896
 30
0.0
 11
3643.9733459692538418
 21
160.3810353078459912
 31
0.0
  0
LINE
  5
1015D
  8
0
 10
3643.9733459692538418
 20
160.3810353078459912
 30
0.0
 11
3643.983079390803141
 21
160.3719603294836134
 31
0.0
  0
LINE
  5
1015E
  8
0
 10
3643.9733459884650983
 20
160.366552275157801
 30
0.0
 11
3643.9733459692538418
 21
160.3810353078459912
 31
0.0
  0
LINE
  5
1015F
  8
0
 10
3643.9536609440979191
 20
160.3702760963421099
 30
0.0
 11
3643.9536612867859731
 21
160.3848030847364896
 31
0.0
  0
LINE
  5
10160
  8
0
 10
3643.9553501044101722
 20
160.3894844354720135
 30
0.0
 11
3643.9455074113379851
 21
160.3837419661147976
 31
0.0
  0
LINE
  5
10161
  8
0
 10
3643.9455074113379851
 20
160.3837419661147976
 30
0.0
 11
3643.9258224064010392
 21
160.3884919904853916
 31
0.0
  0
LINE
  5
10162
  8
0
 10
3643.9258224064010392
 20
160.3884919904853916
 30
0.0
 11
3643.915980013024182
 21
160.3990573864911937
 31
0.0
  0
LINE
  5
10163
  8
0
 10
3643.915980013024182
 20
160.3990573864911937
 30
0.0
 11
3643.9258227059490309
 21
160.4048365492834876
 31
0.0
  0
LINE
  5
10164
  8
0
 10
3643.9258227059490309
 20
160.4048365492834876
 30
0.0
 11
3643.9454252010241362
 21
160.4000318215655909
 31
0.0
  0
LINE
  5
10165
  8
0
 10
3643.9454252010241362
 20
160.4000318215655909
 30
0.0
 11
3643.9553501044101722
 21
160.3894844354720135
 31
0.0
  0
LINE
  5
10166
  8
0
 10
3643.9455074113379851
 20
160.3837419661147976
 30
0.0
 11
3643.9454252010241362
 21
160.4000318215655909
 31
0.0
  0
LINE
  5
10167
  8
0
 10
3643.9258224064010392
 20
160.3884919904853916
 30
0.0
 11
3643.9258227059490309
 21
160.4048365492834876
 31
0.0
  0
LINE
  5
10168
  8
0
 10
3643.9553506562137954
 20
160.4189247712284043
 30
0.0
 11
3643.9455079655531335
 21
160.4114430027348135
 31
0.0
  0
LINE
  5
10169
  8
0
 10
3643.9455079655531335
 20
160.4114430027348135
 30
0.0
 11
3643.9258229162378484
 21
160.4163245235490081
 31
0.0
  0
LINE
  5
1016A
  8
0
 10
3643.9258229162378484
 20
160.4163245235490081
 30
0.0
 11
3643.9176426307499241
 21
160.4266924169002095
 31
0.0
  0
LINE
  5
1016B
  8
0
 10
3643.9485214424639707
 20
160.427564080571301
 30
0.0
 11
3643.9553506562137954
 21
160.4189247712284043
 31
0.0
  0
LINE
  5
1016C
  8
0
 10
3643.9455079655531335
 20
160.4114430027348135
 30
0.0
 11
3643.9455079442959686
 21
160.4274932599346926
 31
0.0
  0
LINE
  5
1016D
  8
0
 10
3643.9258229162378484
 20
160.4163245235490081
 30
0.0
 11
3643.9258229039969592
 21
160.4269548408626918
 31
0.0
  0
LINE
  5
1016E
  8
0
 10
3643.9275115201107837
 20
160.4100223699979892
 30
0.0
 11
3643.917668830456023
 21
160.4038792652933978
 31
0.0
  0
LINE
  5
1016F
  8
0
 10
3643.917668830456023
 20
160.4038792652933978
 30
0.0
 11
3643.8979837834158388
 21
160.4097312044301873
 31
0.0
  0
LINE
  5
10170
  8
0
 10
3643.8979837834158388
 20
160.4097312044301873
 30
0.0
 11
3643.8881414285410756
 21
160.4218401826126126
 31
0.0
  0
LINE
  5
10171
  8
0
 10
3643.8881414285410756
 20
160.4218401826126126
 30
0.0
 11
3643.8944677479307757
 21
160.4258255911333038
 31
0.0
  0
LINE
  5
10172
  8
0
 10
3643.9040374465921559
 20
160.4262056442302082
 30
0.0
 11
3643.9176688064540031
 21
160.422073831945994
 31
0.0
  0
LINE
  5
10173
  8
0
 10
3643.9176688064540031
 20
160.422073831945994
 30
0.0
 11
3643.9275115201107837
 21
160.4100223699979892
 31
0.0
  0
LINE
  5
10174
  8
0
 10
3643.917668830456023
 20
160.4038792652933978
 30
0.0
 11
3643.9176688064540031
 21
160.422073831945994
 31
0.0
  0
LINE
  5
10175
  8
0
 10
3643.8979837834158388
 20
160.4097312044301873
 30
0.0
 11
3643.8979837618990132
 21
160.4259688425655952
 31
0.0
  0
LINE
  5
10176
  8
0
 10
3643.9275109645891462
 20
160.3833315657907974
 30
0.0
 11
3643.9176682727611478
 21
160.3788824147638081
 31
0.0
  0
LINE
  5
10177
  8
0
 10
3643.9176682727611478
 20
160.3788824147638081
 30
0.0
 11
3643.8979832261311458
 21
160.3846053089615111
 31
0.0
  0
LINE
  5
10178
  8
0
 10
3643.8979832261311458
 20
160.3846053089615111
 30
0.0
 11
3643.8881408735651348
 21
160.3948481679526026
 31
0.0
  0
LINE
  5
10179
  8
0
 10
3643.8881408735651348
 20
160.3948481679526026
 30
0.0
 11
3643.8979832064528637
 21
160.3993070225222084
 31
0.0
  0
LINE
  5
1017A
  8
0
 10
3643.8979832064528637
 20
160.3993070225222084
 30
0.0
 11
3643.9174816651698166
 21
160.3935648661644109
 31
0.0
  0
LINE
  5
1017B
  8
0
 10
3643.9174816651698166
 20
160.3935648661644109
 30
0.0
 11
3643.9275109645891462
 21
160.3833315657907974
 31
0.0
  0
LINE
  5
1017C
  8
0
 10
3643.9176682727611478
 20
160.3788824147638081
 30
0.0
 11
3643.9174816651698166
 21
160.3935648661644109
 31
0.0
  0
LINE
  5
1017D
  8
0
 10
3643.8979832261311458
 20
160.3846053089615111
 30
0.0
 11
3643.8979832064528637
 21
160.3993070225222084
 31
0.0
  0
LINE
  5
1017E
  8
0
 10
3643.8996723860727798
 20
160.4038798609570904
 30
0.0
 11
3643.8898296918400774
 21
160.3990627974584982
 31
0.0
  0
LINE
  5
1017F
  8
0
 10
3643.8898296918400774
 20
160.3990627974584982
 30
0.0
 11
3643.870144643355161
 21
160.405918880511706
 31
0.0
  0
LINE
  5
10180
  8
0
 10
3643.870144643355161
 20
160.405918880511706
 30
0.0
 11
3643.8603022890438297
 21
160.417704295588095
 31
0.0
  0
LINE
  5
10181
  8
0
 10
3643.8603022890438297
 20
160.417704295588095
 30
0.0
 11
3643.8701446213540294
 21
160.4225440691911047
 31
0.0
  0
LINE
  5
10182
  8
0
 10
3643.8701446213540294
 20
160.4225440691911047
 30
0.0
 11
3643.8898296699539969
 21
160.4155754306459869
 31
0.0
  0
LINE
  5
10183
  8
0
 10
3643.8898296699539969
 20
160.4155754306459869
 30
0.0
 11
3643.8996723860727798
 21
160.4038798609570904
 31
0.0
  0
LINE
  5
10184
  8
0
 10
3643.8898296918400774
 20
160.3990627974584982
 30
0.0
 11
3643.8898296699539969
 21
160.4155754306459869
 31
0.0
  0
LINE
  5
10185
  8
0
 10
3643.870144643355161
 20
160.405918880511706
 30
0.0
 11
3643.8701446213540294
 21
160.4225440691911047
 31
0.0
  0
LINE
  5
10186
  8
0
 10
3643.8656304589849242
 20
160.4244921108351889
 30
0.0
 11
3643.8619911070231865
 21
160.4224364360007087
 31
0.0
  0
LINE
  5
10187
  8
0
 10
3643.8619911070231865
 20
160.4224364360007087
 30
0.0
 11
3643.8579728638928827
 21
160.4240904826671112
 31
0.0
  0
LINE
  5
10188
  8
0
 10
3643.954864918054227
 20
160.3655430919459945
 30
0.0
 11
3643.9455071946008502
 21
160.3745344915955968
 31
0.0
  0
LINE
  5
10189
  8
0
 10
3643.9455071946008502
 20
160.3745344915955968
 30
0.0
 11
3643.9258221490540564
 21
160.379248653546
 31
0.0
  0
LINE
  5
1018A
  8
0
 10
3643.9258221490540564
 20
160.379248653546
 30
0.0
 11
3643.9164640633530325
 21
160.3751471634460017
 31
0.0
  0
ARC
  5
1018B
  8
0
 10
3644.0201420308221714
 20
160.7081195528004116
 30
0.0
 40
0.3487402084802368
 50
252.7049227688980864
 51
259.211755528652418
  0
LINE
  5
1018C
  8
0
 10
3643.8991872000419789
 20
160.3797026247887061
 30
0.0
 11
3643.8898294751338653
 21
160.3897372424112007
 31
0.0
  0
LINE
  5
1018D
  8
0
 10
3643.8898294751338653
 20
160.3897372424112007
 30
0.0
 11
3643.8701444268122032
 21
160.396538279655914
 31
0.0
  0
LINE
  5
1018E
  8
0
 10
3643.8701444268122032
 20
160.396538279655914
 30
0.0
 11
3643.8607863398538029
 21
160.3934122982458916
 31
0.0
  0
ARC
  5
1018F
  8
0
 10
3643.9991999674571161
 20
160.7204741905356116
 30
0.0
 40
0.3551447784980088
 50
247.0617648939133915
 51
253.6436068931004115
  0
LINE
  5
10190
  8
0
 10
3643.871978193420091
 20
160.4003313370363912
 30
0.0
 11
3643.8619905494210798
 21
160.397020621751409
 31
0.0
  0
LINE
  5
10191
  8
0
 10
3643.8619905494210798
 20
160.397020621751409
 30
0.0
 11
3643.8424504473941852
 21
160.4048701760524125
 31
0.0
  0
LINE
  5
10192
  8
0
 10
3643.8424504473941852
 20
160.4048701760524125
 30
0.0
 11
3643.8324631456171119
 21
160.4164311550628952
 31
0.0
  0
LINE
  5
10193
  8
0
 10
3643.8324631456171119
 20
160.4164311550628952
 30
0.0
 11
3643.8427543300758771
 21
160.4197063288247023
 31
0.0
  0
LINE
  5
10194
  8
0
 10
3643.8427543300758771
 20
160.4197063288247023
 30
0.0
 11
3643.8621354772999439
 21
160.4120269067252025
 31
0.0
  0
LINE
  5
10195
  8
0
 10
3643.8621354772999439
 20
160.4120269067252025
 30
0.0
 11
3643.871978193420091
 21
160.4003313370363912
 31
0.0
  0
LINE
  5
10196
  8
0
 10
3643.8619905494210798
 20
160.397020621751409
 30
0.0
 11
3643.8621354772999439
 21
160.4120269067252025
 31
0.0
  0
LINE
  5
10197
  8
0
 10
3643.8424504473941852
 20
160.4048701760524125
 30
0.0
 11
3643.8427543300758771
 21
160.4197063288247023
 31
0.0
  0
LINE
  5
10198
  8
0
 10
3643.8412425827032166
 20
160.4231435499378904
 30
0.0
 11
3643.8342969116870336
 21
160.420594245312401
 31
0.0
  0
LINE
  5
10199
  8
0
 10
3643.8342969116870336
 20
160.420594245312401
 30
0.0
 11
3643.830204320734083
 21
160.4224665705986865
 31
0.0
  0
LINE
  5
1019A
  8
0
 10
3643.8342969116870336
 20
160.420594245312401
 30
0.0
 11
3643.8342969090931547
 21
160.4227224146526112
 31
0.0
  0
LINE
  5
1019B
  8
0
 10
3643.8439941011529299
 20
160.3999438713460108
 30
0.0
 11
3643.8310819120210908
 21
160.4051940500206967
 31
0.0
  0
LINE
  5
1019C
  8
0
 10
3643.8265131837720219
 20
160.4012281719041937
 30
0.0
 11
3643.8144663520529321
 21
160.4068610423443033
 31
0.0
  0
LINE
  5
1019D
  8
0
 10
3643.8144663520529321
 20
160.4068610423443033
 30
0.0
 11
3643.8041458991751824
 21
160.4179584713205031
 31
0.0
  0
LINE
  5
1019E
  8
0
 10
3643.8041458991751824
 20
160.4179584713205031
 30
0.0
 11
3643.814439265664987
 21
160.420162133138092
 31
0.0
  0
LINE
  5
1019F
  8
0
 10
3643.814439265664987
 20
160.420162133138092
 30
0.0
 11
3643.8337954678568167
 21
160.411197270713302
 31
0.0
  0
LINE
  5
101A0
  8
0
 10
3643.8337954678568167
 20
160.411197270713302
 30
0.0
 11
3643.8439941011529299
 21
160.3999438713460108
 31
0.0
  0
LINE
  5
101A1
  8
0
 10
3643.8310819120210908
 20
160.4051940500206967
 30
0.0
 11
3643.8337954678568167
 21
160.411197270713302
 31
0.0
  0
LINE
  5
101A2
  8
0
 10
3643.8144663520529321
 20
160.4068610423443033
 30
0.0
 11
3643.814439265664987
 21
160.420162133138092
 31
0.0
  0
LINE
  5
101A3
  8
0
 10
3643.8265131837720219
 20
160.4012281719041937
 30
0.0
 11
3643.8310819120210908
 21
160.4051940500206967
 31
0.0
  0
ARC
  5
101A4
  8
0
 10
3644.0652111703047922
 20
161.351861343481005
 30
0.0
 40
1.0403966301012031
 50
257.9244921932120178
 51
270.5278538394949237
  0
ARC
  5
101A5
  8
0
 10
3643.8778064986008758
 20
160.5108516628316124
 30
0.0
 40
0.1789407248075816
 50
231.4481794782830093
 51
260.2683962849840213
  0
ARC
  5
101A6
  8
0
 10
3643.7812985736650262
 20
160.385788369658087
 30
0.0
 40
0.0211344226546186
 50
132.9191668307805969
 51
224.7401799966563942
  0
ARC
  5
101A7
  8
0
 10
3643.8835705128981317
 20
160.2479527987312906
 30
0.0
 40
0.1926530430604032
 50
116.609200897174702
 51
127.2694425549010049
  0
ARC
  5
101A8
  8
0
 10
3644.1218245405348171
 20
163.3725885161589133
 30
0.0
 40
3.0658850496947139
 50
267.6403220509039897
 51
269.1210879642629266
  0
ARC
  5
101A9
  8
0
 10
3644.0609822340029496
 20
161.4620454552826061
 30
0.0
 40
1.154595313513886
 50
261.3227812359260724
 51
266.7534472730719131
  0
ARC
  5
101AA
  8
0
 10
3643.9616796506420542
 20
160.8350709271896903
 30
0.0
 40
0.5198279048003794
 50
250.8968577516380947
 51
261.71690134943168
  0
ARC
  5
101AB
  8
0
 10
3643.8259671128548689
 20
160.4545018798314118
 30
0.0
 40
0.1158606066960434
 50
228.0391073223167098
 51
252.7220828697452077
  0
ARC
  5
101AC
  8
0
 10
3643.7645119276971855
 20
160.3858586053814861
 30
0.0
 40
0.0237278392109242
 50
189.5025132494907041
 51
227.5601998373093124
  0
ARC
  5
101AD
  8
0
 10
3643.7673161958600758
 20
160.3852758620890882
 30
0.0
 40
0.0264178113244191
 50
120.4500972578234013
 51
187.2513243316863907
  0
ARC
  5
101AE
  8
0
 10
3643.877666236389814
 20
160.2168956513770866
 30
0.0
 40
0.2277083658775007
 50
117.9007255419410001
 51
122.9158535612904046
  0
ARC
  5
101AF
  8
0
 10
3643.8089837302181877
 20
160.4415787248453
 30
0.0
 40
0.0949792144210657
 50
215.2185199842350016
 51
230.4456452733145113
  0
ARC
  5
101B0
  8
0
 10
3643.7798751842760794
 20
160.4210308103093894
 30
0.0
 40
0.0593488307762723
 50
187.2653612636893001
 51
215.2185199842350016
  0
ARC
  5
101B1
  8
0
 10
3644.3406082452879673
 20
160.4415787248453
 30
0.0
 40
0.0949792144210657
 50
309.554354726685574
 51
324.7814800157651121
  0
ARC
  5
101B2
  8
0
 10
3644.3697167912309851
 20
160.4210308103093894
 30
0.0
 40
0.0593488307762723
 50
324.7814800157651121
 51
352.9413930889817834
  0
LINE
  5
101B3
  8
0
 10
3644.0828887363531976
 20
160.3145395487460121
 30
0.0
 11
3644.0893699078810641
 21
160.3136891655308034
 31
0.0
  0
LINE
  5
101B4
  8
0
 10
3644.0893699078810641
 20
160.3136891655308034
 30
0.0
 11
3644.0927313180509373
 21
160.3133608918898005
 31
0.0
  0
LINE
  5
101B5
  8
0
 10
3644.0927313180509373
 20
160.3133608918898005
 30
0.0
 11
3644.1124164759530686
 21
160.3142774113460121
 31
0.0
  0
LINE
  5
101B6
  8
0
 10
3644.1124164759530686
 20
160.3142774113460121
 30
0.0
 11
3644.122258817455986
 21
160.3163649032545948
 31
0.0
  0
LINE
  5
101B7
  8
0
 10
3644.122258817455986
 20
160.3163649032545948
 30
0.0
 11
3644.1124197536250904
 21
160.315747284806406
 31
0.0
  0
LINE
  5
101B8
  8
0
 10
3644.1124197536250904
 20
160.315747284806406
 30
0.0
 11
3644.092731437349812
 21
160.3148349521945022
 31
0.0
  0
LINE
  5
101B9
  8
0
 10
3644.092731437349812
 20
160.3148349521945022
 30
0.0
 11
3644.0828887363531976
 21
160.3145395487460121
 31
0.0
  0
LINE
  5
101BA
  8
0
 10
3644.1107278807189687
 20
160.3135525763044882
 30
0.0
 11
3644.1205705807069535
 21
160.3135525636351133
 31
0.0
  0
LINE
  5
101BB
  8
0
 10
3644.1205705807069535
 20
160.3135525636351133
 30
0.0
 11
3644.1402556226530578
 21
160.3155239605858071
 31
0.0
  0
LINE
  5
101BC
  8
0
 10
3644.1402556226530578
 20
160.3155239605858071
 30
0.0
 11
3644.1500979637071396
 21
160.3172455082668932
 31
0.0
  0
LINE
  5
101BD
  8
0
 10
3644.1500979637071396
 20
160.3172455082668932
 30
0.0
 11
3644.1402556248981455
 21
160.3172455211015972
 31
0.0
  0
LINE
  5
101BE
  8
0
 10
3644.1402556248981455
 20
160.3172455211015972
 30
0.0
 11
3644.1205705829529506
 21
160.3152983358459949
 31
0.0
  0
LINE
  5
101BF
  8
0
 10
3644.1205705829529506
 20
160.3152983358459949
 30
0.0
 11
3644.1107278807189687
 21
160.3135525763044882
 31
0.0
  0
LINE
  5
101C0
  8
0
 10
3644.1385664401200302
 20
160.3178815247985085
 30
0.0
 11
3644.1484091403408456
 21
160.3176416794767078
 31
0.0
  0
LINE
  5
101C1
  8
0
 10
3644.1484091403408456
 20
160.3176416794767078
 30
0.0
 11
3644.1680941834129044
 21
160.320416774613193
 31
0.0
  0
LINE
  5
101C2
  8
0
 10
3644.1680941834129044
 20
160.320416774613193
 30
0.0
 11
3644.1776942125029564
 21
160.323405742896
 31
0.0
  0
LINE
  5
101C3
  8
0
 10
3644.1776942125029564
 20
160.323405742896
 30
0.0
 11
3644.1385664401200302
 21
160.3178815247985085
 31
0.0
  0
LINE
  5
101C4
  8
0
 10
3644.1664055873379766
 20
160.319552332982795
 30
0.0
 11
3644.1762482810499932
 21
160.3206493339098131
 31
0.0
  0
LINE
  5
101C5
  8
0
 10
3644.1762482810499932
 20
160.3206493339098131
 30
0.0
 11
3644.1959333337340468
 21
160.3244171121295949
 31
0.0
  0
LINE
  5
101C6
  8
0
 10
3644.1959333337340468
 20
160.3244171121295949
 30
0.0
 11
3644.2057756760350458
 21
160.3270436730967958
 31
0.0
  0
LINE
  5
101C7
  8
0
 10
3644.2057756760350458
 20
160.3270436730967958
 30
0.0
 11
3644.1959329739061104
 21
160.3259246940361891
 31
0.0
  0
LINE
  5
101C8
  8
0
 10
3644.1959329739061104
 20
160.3259246940361891
 30
0.0
 11
3644.1762482914527936
 21
160.3222008729460129
 31
0.0
  0
LINE
  5
101C9
  8
0
 10
3644.1762482914527936
 20
160.3222008729460129
 30
0.0
 11
3644.1664055873379766
 21
160.319552332982795
 31
0.0
  0
LINE
  5
101CA
  8
0
 10
3644.194244150753093
 20
160.3264838492459887
 30
0.0
 11
3644.2040868523531572
 21
160.3272406908459971
 31
0.0
  0
LINE
  5
101CB
  8
0
 10
3644.2040868523531572
 20
160.3272406908459971
 30
0.0
 11
3644.2237718979540659
 21
160.3319548528459961
 31
0.0
  0
LINE
  5
101CC
  8
0
 10
3644.2237718979540659
 20
160.3319548528459961
 30
0.0
 11
3644.233614241954001
 21
160.3358706471460096
 31
0.0
  0
LINE
  5
101CD
  8
0
 10
3644.233614241954001
 20
160.3358706471460096
 30
0.0
 11
3644.194244150753093
 21
160.3264838492459887
 31
0.0
  0
LINE
  5
101CE
  8
0
 10
3644.2220833020669488
 20
160.3309628805268119
 30
0.0
 11
3644.2319260051531273
 21
160.3331273566460027
 31
0.0
  0
LINE
  5
101CF
  8
0
 10
3644.2319260051531273
 20
160.3331273566460027
 30
0.0
 11
3644.2516110522201416
 21
160.3389212265126957
 31
0.0
  0
LINE
  5
101D0
  8
0
 10
3644.2516110522201416
 20
160.3389212265126957
 30
0.0
 11
3644.2614533950090845
 21
160.3424794802567988
 31
0.0
  0
LINE
  5
101D1
  8
0
 10
3644.2614533950090845
 20
160.3424794802567988
 30
0.0
 11
3644.2516110539540932
 21
160.3402539068459873
 31
0.0
  0
LINE
  5
101D2
  8
0
 10
3644.2516110539540932
 20
160.3402539068459873
 30
0.0
 11
3644.2319260070539713
 21
160.334531012446007
 31
0.0
  0
LINE
  5
101D3
  8
0
 10
3644.2319260070539713
 20
160.334531012446007
 30
0.0
 11
3644.2220833020669488
 21
160.3309628805268119
 31
0.0
  0
LINE
  5
101D4
  8
0
 10
3644.2499218687530629
 20
160.3405968790459895
 30
0.0
 11
3644.2890496517529755
 21
160.3540793685959898
 31
0.0
  0
LINE
  5
101D5
  8
0
 10
3644.2890496517529755
 20
160.3540793685959898
 30
0.0
 11
3644.279449620223204
 21
160.3492444788724072
 31
0.0
  0
LINE
  5
101D6
  8
0
 10
3644.279449620223204
 20
160.3492444788724072
 30
0.0
 11
3644.2597645717992236
 21
160.3424434416396878
 31
0.0
  0
LINE
  5
101D7
  8
0
 10
3644.2597645717992236
 20
160.3424434416396878
 30
0.0
 11
3644.2499218687530629
 21
160.3405968790459895
 31
0.0
  0
LINE
  5
101D8
  8
0
 10
3644.2777610238099442
 20
160.348134877942897
 30
0.0
 11
3644.28760372885381
 21
160.3514959115460101
 31
0.0
  0
LINE
  5
101D9
  8
0
 10
3644.28760372885381
 20
160.3514959115460101
 30
0.0
 11
3644.3075028963530713
 21
160.3596038846960141
 31
0.0
  0
LINE
  5
101DA
  8
0
 10
3644.3075028963530713
 20
160.3596038846960141
 30
0.0
 11
3644.3171311234550558
 21
160.3640624675487061
 31
0.0
  0
LINE
  5
101DB
  8
0
 10
3644.3171311234550558
 20
160.3640624675487061
 30
0.0
 11
3644.3072887803527919
 21
160.3606673534459901
 31
0.0
  0
LINE
  5
101DC
  8
0
 10
3644.3072887803527919
 20
160.3606673534459901
 30
0.0
 11
3644.287603730353112
 21
160.3526692194459997
 31
0.0
  0
LINE
  5
101DD
  8
0
 10
3644.287603730353112
 20
160.3526692194459997
 30
0.0
 11
3644.2777610238222223
 21
160.3481348779197049
 31
0.0
  0
LINE
  5
101DE
  8
0
 10
3644.3055995946328949
 20
160.3606673557262923
 30
0.0
 11
3644.3154422981579046
 21
160.363746000631096
 31
0.0
  0
LINE
  5
101DF
  8
0
 10
3644.3154422981579046
 20
160.363746000631096
 30
0.0
 11
3644.3351273507169026
 21
160.3728750893583879
 31
0.0
  0
LINE
  5
101E0
  8
0
 10
3644.3351273507169026
 20
160.3728750893583879
 30
0.0
 11
3644.3449696973689242
 21
160.3788341109448936
 31
0.0
  0
LINE
  5
101E1
  8
0
 10
3644.3449696973689242
 20
160.3788341109448936
 30
0.0
 11
3644.3351269925537963
 21
160.3756018118459963
 31
0.0
  0
LINE
  5
101E2
  8
0
 10
3644.3351269925537963
 20
160.3756018118459963
 30
0.0
 11
3644.323420424554115
 21
160.3701235571458881
 31
0.0
  0
LINE
  5
101E3
  8
0
 10
3644.323420424554115
 20
160.3701235571458881
 30
0.0
 11
3644.3185117666598671
 21
160.3663122833287957
 31
0.0
  0
LINE
  5
101E4
  8
0
 10
3644.3185117666598671
 20
160.3663122833287957
 30
0.0
 11
3644.3055995946538133
 21
160.3606673557459885
 31
0.0
  0
LINE
  5
101E5
  8
0
 10
3644.0845779186529398
 20
160.3119744294077123
 30
0.0
 11
3644.0944202584578306
 21
160.312790761358599
 31
0.0
  0
LINE
  5
101E6
  8
0
 10
3644.0944202584578306
 20
160.312790761358599
 30
0.0
 11
3644.0846030424590936
 21
160.3134627737557025
 31
0.0
  0
LINE
  5
101E7
  8
0
 10
3644.0868248299279912
 20
160.3121607901207994
 30
0.0
 11
3644.1172813930520533
 21
160.3135525678688964
 31
0.0
  0
LINE
  5
101E8
  8
0
 10
3644.1428614460492099
 20
160.3159797514591105
 30
0.0
 11
3644.1724871934511611
 21
160.3202301481967993
 31
0.0
  0
ARC
  5
101E9
  8
0
 10
3644.0751772809030626
 20
160.9036862484184098
 30
0.0
 40
0.5916033071777747
 50
281.9902101458694119
 51
285.1768977898183266
  0
ARC
  5
101EA
  8
0
 10
3644.0759505209907729
 20
160.9010715760900894
 30
0.0
 40
0.5888757290008724
 50
287.5378389982458884
 51
290.9396789320023231
  0
ARC
  5
101EB
  8
0
 10
3644.1940008711840164
 20
160.6551108754875088
 30
0.0
 40
0.3162898923954586
 50
291.810910286445619
 51
306.6235719216717825
  0
ARC
  5
101EC
  8
0
 10
3644.0747832136221405
 20
160.9216482840265883
 30
0.0
 40
0.6031924506354959
 50
270.0012133835855934
 51
295.1387099651428798
  0
LINE
  5
101ED
  8
0
 10
3644.331026088004819
 20
160.3755890181666928
 30
0.0
 11
3644.3315314384531121
 21
160.3767522733459998
 31
0.0
  0
LINE
  5
101EE
  8
0
 10
3644.3315314384531121
 20
160.3767522733459998
 30
0.0
 11
3644.335126767348811
 21
160.3784604647628953
 31
0.0
  0
LINE
  5
101EF
  8
0
 10
3644.335126767348811
 20
160.3784604647628953
 30
0.0
 11
3644.3449686069520794
 21
160.3861471159864038
 31
0.0
  0
LINE
  5
101F0
  8
0
 10
3644.3449686069520794
 20
160.3861471159864038
 30
0.0
 11
3644.3351267756529523
 21
160.3847338926460111
 31
0.0
  0
LINE
  5
101F1
  8
0
 10
3644.3351267756529523
 20
160.3847338926460111
 30
0.0
 11
3644.3331086638258967
 21
160.3837748608426921
 31
0.0
  0
LINE
  5
101F2
  8
0
 10
3644.3331086638258967
 20
160.3837748608426921
 30
0.0
 11
3644.3331084414530778
 21
160.3888497475458905
 31
0.0
  0
LINE
  5
101F3
  8
0
 10
3644.3331084414530778
 20
160.3888497475458905
 30
0.0
 11
3644.3351261915890973
 21
160.3898087793174909
 31
0.0
  0
LINE
  5
101F4
  8
0
 10
3644.3351261915890973
 20
160.3898087793174909
 30
0.0
 11
3644.3449685428781777
 21
160.3992394285313878
 31
0.0
  0
LINE
  5
101F5
  8
0
 10
3644.3449685428781777
 20
160.3992394285313878
 30
0.0
 11
3644.3351262045530348
 21
160.3995699218459947
 31
0.0
  0
LINE
  5
101F6
  8
0
 10
3644.3351262045530348
 20
160.3995699218459947
 30
0.0
 11
3644.3315305138808071
 21
160.3978617304587999
 31
0.0
  0
LINE
  5
101F7
  8
0
 10
3644.3315305138808071
 20
160.3978617304587999
 30
0.0
 11
3644.3310250338590777
 21
160.3996586833443132
 31
0.0
  0
LINE
  5
101F8
  8
0
 10
3644.3310260880789428
 20
160.3755890182015094
 30
0.0
 11
3644.3145344020531411
 21
160.3854553507190985
 31
0.0
  0
LINE
  5
101F9
  8
0
 10
3644.3145344020531411
 20
160.3854553507190985
 30
0.0
 11
3644.3097125660910933
 21
160.390136231600394
 31
0.0
  0
LINE
  5
101FA
  8
0
 10
3644.3315314384531121
 20
160.3767522733459998
 30
0.0
 11
3644.3154417385530905
 21
160.3864158453451978
 31
0.0
  0
LINE
  5
101FB
  8
0
 10
3644.3154417385530905
 20
160.3864158453451978
 30
0.0
 11
3644.3110439696511094
 21
160.3907006972386
 31
0.0
  0
ARC
  5
101FC
  8
0
 10
3644.0752110892499331
 20
160.9444652651039007
 30
0.0
 40
0.6018762212690315
 50
281.5191197936129015
 51
295.1524039659900041
  0
ARC
  5
101FD
  8
0
 10
3644.0746323415769439
 20
160.9473050498428108
 30
0.0
 40
0.6047743803800572
 50
270.010255073910912
 51
281.5191197936129015
  0
LINE
  5
101FE
  8
0
 10
3644.2803571764661683
 20
160.3786295392710031
 30
0.0
 11
3644.2803571822141748
 21
160.3737182894467139
 31
0.0
  0
LINE
  5
101FF
  8
0
 10
3644.2803571822141748
 20
160.3737182894467139
 30
0.0
 11
3644.3145343864530332
 21
160.3737183294460067
 31
0.0
  0
LINE
  5
10200
  8
0
 10
3644.3145343864530332
 20
160.3737183294460067
 30
0.0
 11
3644.3145344020531411
 21
160.3854553507190985
 31
0.0
  0
LINE
  5
10201
  8
0
 10
3644.3072882068531726
 20
160.3737183209653949
 30
0.0
 11
3644.3072874075701293
 21
160.3891315202222927
 31
0.0
  0
LINE
  5
10202
  8
0
 10
3644.2876031674531987
 20
160.3737182978460112
 30
0.0
 11
3644.2876032341418977
 21
160.3813093697098964
 31
0.0
  0
LINE
  5
10203
  8
0
 10
3644.3331086637499538
 20
160.3837748608065112
 30
0.0
 11
3644.3172389376759384
 21
160.3933958445086034
 31
0.0
  0
LINE
  5
10204
  8
0
 10
3644.3331084414530778
 20
160.3888497475458905
 30
0.0
 11
3644.3221542408100504
 21
160.395580882354011
 31
0.0
  0
LINE
  5
10205
  8
0
 10
3644.0845779186529398
 20
160.3119744294077123
 30
0.0
 11
3644.0846030424590936
 21
160.3134627737557025
 31
0.0
  0
LINE
  5
10206
  8
0
 10
3644.0927313180509373
 20
160.3133608918898005
 30
0.0
 11
3644.0926631585048199
 21
160.3148317882358924
 31
0.0
  0
LINE
  5
10207
  8
0
 10
3644.1124164759530686
 20
160.3142774113460121
 30
0.0
 11
3644.1124197536250904
 21
160.315747284806406
 31
0.0
  0
LINE
  5
10208
  8
0
 10
3644.1205705807069535
 20
160.3135525636351133
 30
0.0
 11
3644.1205705829529506
 21
160.3152983358459949
 31
0.0
  0
LINE
  5
10209
  8
0
 10
3644.1402556226530578
 20
160.3155239605858071
 30
0.0
 11
3644.1402556248981455
 21
160.3172455211015972
 31
0.0
  0
LINE
  5
1020A
  8
0
 10
3644.1484091403408456
 20
160.3176416794767078
 30
0.0
 11
3644.1481835801159832
 21
160.3192393117508061
 31
0.0
  0
LINE
  5
1020B
  8
0
 10
3644.1680941834129044
 20
160.320416774613193
 30
0.0
 11
3644.167868052970789
 21
160.3220184457150879
 31
0.0
  0
LINE
  5
1020C
  8
0
 10
3644.1762482810499932
 20
160.3206493339098131
 30
0.0
 11
3644.1762482914527936
 21
160.3222008729460129
 31
0.0
  0
LINE
  5
1020D
  8
0
 10
3644.1959333337340468
 20
160.3244171121295949
 30
0.0
 11
3644.1959329739061104
 21
160.3259246940361891
 31
0.0
  0
LINE
  5
1020E
  8
0
 10
3644.2040868523531572
 20
160.3272406908459971
 30
0.0
 11
3644.2037281706948306
 21
160.3287450728236081
 31
0.0
  0
LINE
  5
1020F
  8
0
 10
3644.2237718979540659
 20
160.3319548528459961
 30
0.0
 11
3644.2234179004399266
 21
160.3334395885889876
 31
0.0
  0
LINE
  5
10210
  8
0
 10
3644.2319260051531273
 20
160.3331273566460027
 30
0.0
 11
3644.2319260070539713
 21
160.334531012446007
 31
0.0
  0
LINE
  5
10211
  8
0
 10
3644.2516110522201416
 20
160.3389212265126957
 30
0.0
 11
3644.2516110539540932
 21
160.3402539068459873
 31
0.0
  0
LINE
  5
10212
  8
0
 10
3644.2597645717992236
 20
160.3424434416396878
 30
0.0
 11
3644.2592887046262149
 21
160.3438244645896873
 31
0.0
  0
LINE
  5
10213
  8
0
 10
3644.279449620223204
 20
160.3492444788724072
 30
0.0
 11
3644.2789793109209313
 21
160.3506093722243122
 31
0.0
  0
LINE
  5
10214
  8
0
 10
3644.28760372885381
 20
160.3514959115460101
 30
0.0
 11
3644.287603730353112
 21
160.3526692194459997
 31
0.0
  0
LINE
  5
10215
  8
0
 10
3644.3075028963530713
 20
160.3596038846960141
 30
0.0
 11
3644.3072887803527919
 21
160.3606673534459901
 31
0.0
  0
LINE
  5
10216
  8
0
 10
3644.3154422981579046
 20
160.363746000631096
 30
0.0
 11
3644.3154200132230471
 21
160.3649606343387006
 31
0.0
  0
LINE
  5
10217
  8
0
 10
3644.3351273507169026
 20
160.3728750893583879
 30
0.0
 11
3644.3351269925537963
 21
160.3756018118459963
 31
0.0
  0
LINE
  5
10218
  8
0
 10
3644.335126767348811
 20
160.3784604647628953
 30
0.0
 11
3644.3351267756529523
 21
160.3847338926460111
 31
0.0
  0
LINE
  5
10219
  8
0
 10
3644.3351261915890973
 20
160.3898087793174909
 30
0.0
 11
3644.3351262045530348
 21
160.3995699218459947
 31
0.0
  0
LINE
  5
1021A
  8
0
 10
3644.3334381693721298
 20
160.3761150020035018
 30
0.0
 11
3644.3432805175389149
 21
160.3834313637499065
 31
0.0
  0
LINE
  5
1021B
  8
0
 10
3644.3432805175389149
 20
160.3834313637499065
 30
0.0
 11
3644.3629655708209611
 21
160.3936890740274919
 31
0.0
  0
LINE
  5
1021C
  8
0
 10
3644.3629655708209611
 20
160.3936890740274919
 30
0.0
 11
3644.3728082753891613
 21
160.3967062695676873
 31
0.0
  0
LINE
  5
1021D
  8
0
 10
3644.3728082753891613
 20
160.3967062695676873
 30
0.0
 11
3644.3629659267530769
 21
160.3892746279585992
 31
0.0
  0
LINE
  5
1021E
  8
0
 10
3644.3629659267530769
 20
160.3892746279585992
 30
0.0
 11
3644.3432808736970401
 21
160.3789439188086021
 31
0.0
  0
LINE
  5
1021F
  8
0
 10
3644.3432808736970401
 20
160.3789439188086021
 30
0.0
 11
3644.3334381693971409
 21
160.3761150020206969
 31
0.0
  0
LINE
  5
10220
  8
0
 10
3644.3629659267530769
 20
160.3892746279585992
 30
0.0
 11
3644.3629655708209611
 21
160.3936890740274919
 31
0.0
  0
LINE
  5
10221
  8
0
 10
3644.3432808736970401
 20
160.3789439188086021
 30
0.0
 11
3644.3432805175389149
 21
160.3834313637499065
 31
0.0
  0
LINE
  5
10222
  8
0
 10
3644.3334375921340325
 20
160.3863614531778978
 30
0.0
 11
3644.3432803047530797
 21
160.3954114338459931
 31
0.0
  0
LINE
  5
10223
  8
0
 10
3644.3432803047530797
 20
160.3954114338459931
 30
0.0
 11
3644.3629653576531382
 21
160.4056463605458873
 31
0.0
  0
LINE
  5
10224
  8
0
 10
3644.3629653576531382
 20
160.4056463605458873
 30
0.0
 11
3644.3728076981501545
 21
160.406952720742197
 31
0.0
  0
LINE
  5
10225
  8
0
 10
3644.3728076981501545
 20
160.406952720742197
 30
0.0
 11
3644.3629653470529774
 21
160.3976290754754928
 31
0.0
  0
LINE
  5
10226
  8
0
 10
3644.3629653470529774
 20
160.3976290754754928
 30
0.0
 11
3644.343081753855131
 21
160.3872950557168053
 31
0.0
  0
LINE
  5
10227
  8
0
 10
3644.343081753855131
 20
160.3872950557168053
 30
0.0
 11
3644.3334375921581341
 21
160.3863614531952066
 31
0.0
  0
LINE
  5
10228
  8
0
 10
3644.3629653470529774
 20
160.3976290754754928
 30
0.0
 11
3644.3629653576531382
 21
160.4056463605458873
 31
0.0
  0
LINE
  5
10229
  8
0
 10
3644.343081753855131
 20
160.3872950557168053
 30
0.0
 11
3644.3432803047530797
 21
160.3954114338459931
 31
0.0
  0
LINE
  5
1022A
  8
0
 10
3644.3334370224661143
 20
160.402299345700186
 30
0.0
 11
3644.3432797374539405
 21
160.4131455477460122
 31
0.0
  0
LINE
  5
1022B
  8
0
 10
3644.3432797374539405
 20
160.4131455477460122
 30
0.0
 11
3644.3547995615958826
 21
160.4189312890179906
 31
0.0
  0
LINE
  5
1022C
  8
0
 10
3644.3644748267947762
 20
160.413549085165414
 30
0.0
 11
3644.3629647751859011
 21
160.4118561328365899
 31
0.0
  0
LINE
  5
1022D
  8
0
 10
3644.3629647751859011
 20
160.4118561328365899
 30
0.0
 11
3644.343157861076179
 21
160.4016025779453116
 31
0.0
  0
LINE
  5
1022E
  8
0
 10
3644.343157861076179
 20
160.4016025779453116
 30
0.0
 11
3644.3334370224902159
 21
160.4022993457174096
 31
0.0
  0
LINE
  5
1022F
  8
0
 10
3644.3629647751859011
 20
160.4118561328365899
 30
0.0
 11
3644.3629646940448765
 21
160.4144376475285014
 31
0.0
  0
LINE
  5
10230
  8
0
 10
3644.343157861076179
 20
160.4016025779453116
 30
0.0
 11
3644.3432797374539405
 21
160.4131455477460122
 31
0.0
  0
LINE
  5
10231
  8
0
 10
3644.0845756208168496
 20
160.3579761475446901
 30
0.0
 11
3644.0944179647158307
 21
160.3651594487521095
 31
0.0
  0
LINE
  5
10232
  8
0
 10
3644.0944179647158307
 20
160.3651594487521095
 30
0.0
 11
3644.0845756355529375
 21
160.3723601741043865
 31
0.0
  0
LINE
  5
10233
  8
0
 10
3644.0845756208168496
 20
160.3579761475446901
 30
0.0
 11
3644.0845756355529375
 21
160.3723601741043865
 31
0.0
  0
LINE
  5
10234
  8
0
 10
3644.0845750581529501
 20
160.3825247255458919
 30
0.0
 11
3644.0944174087599094
 21
160.3914009527159124
 31
0.0
  0
LINE
  5
10235
  8
0
 10
3644.0944174087599094
 20
160.3914009527159124
 30
0.0
 11
3644.0845750817520639
 21
160.4003202631282932
 31
0.0
  0
LINE
  5
10236
  8
0
 10
3644.0845750581529501
 20
160.3825247255458919
 30
0.0
 11
3644.0845750817520639
 21
160.4003202631282932
 31
0.0
  0
LINE
  5
10237
  8
0
 10
3644.0828864592690479
 20
160.3773124111399113
 30
0.0
 11
3644.0927403328200853
 21
160.3697603129546962
 31
0.0
  0
LINE
  5
10238
  8
0
 10
3644.0927403328200853
 20
160.3697603129546962
 30
0.0
 11
3644.1124141875529858
 21
160.3706830809460087
 31
0.0
  0
LINE
  5
10239
  8
0
 10
3644.1124141875529858
 20
160.3706830809460087
 30
0.0
 11
3644.1222565375978775
 21
160.3791719286292903
 31
0.0
  0
LINE
  5
1023A
  8
0
 10
3644.1222565375978775
 20
160.3791719286292903
 30
0.0
 11
3644.1122706049782209
 21
160.3867498206543019
 31
0.0
  0
LINE
  5
1023B
  8
0
 10
3644.1122706049782209
 20
160.3867498206543019
 30
0.0
 11
3644.0927288064508502
 21
160.3858224825308127
 31
0.0
  0
LINE
  5
1023C
  8
0
 10
3644.0927288064508502
 20
160.3858224825308127
 30
0.0
 11
3644.0828864592690479
 21
160.3773124111399113
 31
0.0
  0
LINE
  5
1023D
  8
0
 10
3644.0927403328200853
 20
160.3697603129546962
 30
0.0
 11
3644.0927288064508502
 21
160.3858224825308127
 31
0.0
  0
LINE
  5
1023E
  8
0
 10
3644.1124141875529858
 20
160.3706830809460087
 30
0.0
 11
3644.1122706049782209
 21
160.3867498206543019
 31
0.0
  0
LINE
  5
1023F
  8
0
 10
3644.0828870188752262
 20
160.3538160622819078
 30
0.0
 11
3644.0927351606528646
 21
160.3536440279486044
 31
0.0
  0
LINE
  5
10240
  8
0
 10
3644.0927351606528646
 20
160.3536440279486044
 30
0.0
 11
3644.1124145655157918
 21
160.3546288216641074
 31
0.0
  0
LINE
  5
10241
  8
0
 10
3644.1124145655157918
 20
160.3546288216641074
 30
0.0
 11
3644.1222570972299764
 21
160.3556414189453108
 31
0.0
  0
LINE
  5
10242
  8
0
 10
3644.1222570972299764
 20
160.3556414189453108
 30
0.0
 11
3644.1124144046311812
 21
160.3615712121705883
 31
0.0
  0
LINE
  5
10243
  8
0
 10
3644.1124144046311812
 20
160.3615712121705883
 30
0.0
 11
3644.0927406146452086
 21
160.3606550352741067
 31
0.0
  0
LINE
  5
10244
  8
0
 10
3644.0927406146452086
 20
160.3606550352741067
 30
0.0
 11
3644.0828870188752262
 21
160.3538160622819078
 31
0.0
  0
LINE
  5
10245
  8
0
 10
3644.0845745122542212
 20
160.412730709618387
 30
0.0
 11
3644.0944168603100479
 21
160.4234486779384952
 31
0.0
  0
LINE
  5
10246
  8
0
 10
3644.0944168603100479
 20
160.4234486779384952
 30
0.0
 11
3644.0891285484840409
 21
160.4292532002334895
 31
0.0
  0
LINE
  5
10247
  8
0
 10
3644.0845745122542212
 20
160.412730709618387
 30
0.0
 11
3644.0845745303831791
 21
160.4292637461248034
 31
0.0
  0
LINE
  5
10248
  8
0
 10
3644.0828859069679311
 20
160.4063853389052099
 30
0.0
 11
3644.092728592353069
 21
160.3970875157891101
 31
0.0
  0
LINE
  5
10249
  8
0
 10
3644.092728592353069
 20
160.3970875157891101
 30
0.0
 11
3644.1124136330208785
 21
160.398034683257606
 31
0.0
  0
LINE
  5
1024A
  8
0
 10
3644.1124136330208785
 20
160.398034683257606
 30
0.0
 11
3644.1222559853449638
 21
160.4082998961658006
 31
0.0
  0
LINE
  5
1024B
  8
0
 10
3644.1222559853449638
 20
160.4082998961658006
 30
0.0
 11
3644.1121448638068614
 21
160.4176511871588104
 31
0.0
  0
LINE
  5
1024C
  8
0
 10
3644.1121448638068614
 20
160.4176511871588104
 30
0.0
 11
3644.092728618352794
 21
160.4167012843458906
 31
0.0
  0
LINE
  5
1024D
  8
0
 10
3644.092728618352794
 20
160.4167012843458906
 30
0.0
 11
3644.0828859069679311
 21
160.4063853389052099
 31
0.0
  0
LINE
  5
1024E
  8
0
 10
3644.092728592353069
 20
160.3970875157891101
 30
0.0
 11
3644.092728618352794
 21
160.4167012843458906
 31
0.0
  0
LINE
  5
1024F
  8
0
 10
3644.1124136330208785
 20
160.398034683257606
 30
0.0
 11
3644.1121448638068614
 21
160.4176511871588104
 31
0.0
  0
LINE
  5
10250
  8
0
 10
3644.1107244820100277
 20
160.4242565970342014
 30
0.0
 11
3644.1205671696861828
 21
160.4144934649281993
 31
0.0
  0
LINE
  5
10251
  8
0
 10
3644.1205671696861828
 20
160.4144934649281993
 30
0.0
 11
3644.1402522116441105
 21
160.4164279581752055
 31
0.0
  0
LINE
  5
10252
  8
0
 10
3644.1402522116441105
 20
160.4164279581752055
 30
0.0
 11
3644.1500945659290664
 21
160.4281749715603098
 31
0.0
  0
LINE
  5
10253
  8
0
 10
3644.1147734218761798
 20
160.4291121609572883
 30
0.0
 11
3644.1107244820100277
 21
160.4242565970342014
 31
0.0
  0
LINE
  5
10254
  8
0
 10
3644.1205671696861828
 20
160.4144934649281993
 30
0.0
 11
3644.1205671889820223
 21
160.4290610916193032
 31
0.0
  0
LINE
  5
10255
  8
0
 10
3644.1402522116441105
 20
160.4164279581752055
 30
0.0
 11
3644.1402522280641278
 21
160.4288346898771067
 31
0.0
  0
LINE
  5
10256
  8
0
 10
3644.1107250303621186
 20
160.3921809988445091
 30
0.0
 11
3644.1205677203529376
 21
160.3842326916978038
 31
0.0
  0
LINE
  5
10257
  8
0
 10
3644.1205677203529376
 20
160.3842326916978038
 30
0.0
 11
3644.1402527663121873
 21
160.3861069613801078
 31
0.0
  0
LINE
  5
10258
  8
0
 10
3644.1402527663121873
 20
160.3861069613801078
 30
0.0
 11
3644.150095114035139
 21
160.3959630381972943
 31
0.0
  0
LINE
  5
10259
  8
0
 10
3644.150095114035139
 20
160.3959630381972943
 30
0.0
 11
3644.1402527858531357
 21
160.4039671970253096
 31
0.0
  0
LINE
  5
1025A
  8
0
 10
3644.1402527858531357
 20
160.4039671970253096
 30
0.0
 11
3644.1205677439538704
 21
160.4020592942459018
 31
0.0
  0
LINE
  5
1025B
  8
0
 10
3644.1205677439538704
 20
160.4020592942459018
 30
0.0
 11
3644.1107250303621186
 21
160.3921809988445091
 31
0.0
  0
LINE
  5
1025C
  8
0
 10
3644.1205677203529376
 20
160.3842326916978038
 30
0.0
 11
3644.1205677439538704
 21
160.4020592942459018
 31
0.0
  0
LINE
  5
1025D
  8
0
 10
3644.1402527663121873
 20
160.3861069613801078
 30
0.0
 11
3644.1402527858531357
 21
160.4039671970253096
 31
0.0
  0
LINE
  5
1025E
  8
0
 10
3644.1107255892061403
 20
160.3659212617652088
 30
0.0
 11
3644.1205682786530815
 21
160.359649738146004
 31
0.0
  0
LINE
  5
1025F
  8
0
 10
3644.1205682786530815
 20
160.359649738146004
 30
0.0
 11
3644.1402533203759049
 21
160.3614857553006914
 31
0.0
  0
LINE
  5
10260
  8
0
 10
3644.1402533203759049
 20
160.3614857553006914
 30
0.0
 11
3644.1500956700301685
 21
160.3696141957904047
 31
0.0
  0
LINE
  5
10261
  8
0
 10
3644.1500956700301685
 20
160.3696141957904047
 30
0.0
 11
3644.1402533395530554
 21
160.3759096895227003
 31
0.0
  0
LINE
  5
10262
  8
0
 10
3644.1402533395530554
 20
160.3759096895227003
 30
0.0
 11
3644.1205682976537901
 21
160.3740528532460132
 31
0.0
  0
LINE
  5
10263
  8
0
 10
3644.1205682976537901
 20
160.3740528532460132
 30
0.0
 11
3644.1107255892061403
 21
160.3659212617652088
 31
0.0
  0
LINE
  5
10264
  8
0
 10
3644.1205682786530815
 20
160.359649738146004
 30
0.0
 11
3644.1205682976537901
 21
160.3740528532460132
 31
0.0
  0
LINE
  5
10265
  8
0
 10
3644.1402533203759049
 20
160.3614857553006914
 30
0.0
 11
3644.1402533395530554
 21
160.3759096895227003
 31
0.0
  0
LINE
  5
10266
  8
0
 10
3644.1385641601759744
 20
160.3807171062858004
 30
0.0
 11
3644.148406851953041
 21
160.374071731744408
 31
0.0
  0
LINE
  5
10267
  8
0
 10
3644.148406851953041
 20
160.374071731744408
 30
0.0
 11
3644.1680918950528394
 21
160.3768671629447908
 31
0.0
  0
LINE
  5
10268
  8
0
 10
3644.1680918950528394
 20
160.3768671629447908
 30
0.0
 11
3644.1779342464019464
 21
160.3863490730140882
 31
0.0
  0
LINE
  5
10269
  8
0
 10
3644.1779342464019464
 20
160.3863490730140882
 30
0.0
 11
3644.168091916452795
 21
160.3930341151518064
 31
0.0
  0
LINE
  5
1026A
  8
0
 10
3644.168091916452795
 20
160.3930341151518064
 30
0.0
 11
3644.1484068733529966
 21
160.3901974343459926
 31
0.0
  0
LINE
  5
1026B
  8
0
 10
3644.1484068733529966
 20
160.3901974343459926
 30
0.0
 11
3644.1385641601759744
 21
160.3807171062858004
 31
0.0
  0
LINE
  5
1026C
  8
0
 10
3644.148406851953041
 20
160.374071731744408
 30
0.0
 11
3644.1484068733529966
 21
160.3901974343459926
 31
0.0
  0
LINE
  5
1026D
  8
0
 10
3644.1680918950528394
 20
160.3768671629447908
 30
0.0
 11
3644.168091916452795
 21
160.3930341151518064
 31
0.0
  0
LINE
  5
1026E
  8
0
 10
3644.1385636109598636
 20
160.4098911014581859
 30
0.0
 11
3644.1484062974218432
 21
160.4015123709096997
 31
0.0
  0
LINE
  5
1026F
  8
0
 10
3644.1484062974218432
 20
160.4015123709096997
 30
0.0
 11
3644.1680913407021762
 21
160.4043821049228882
 31
0.0
  0
LINE
  5
10270
  8
0
 10
3644.1680913407021762
 20
160.4043821049228882
 30
0.0
 11
3644.1779336944541683
 21
160.4156931382206039
 31
0.0
  0
LINE
  5
10271
  8
0
 10
3644.1779336944541683
 20
160.4156931382206039
 30
0.0
 11
3644.1680910050508828
 21
160.424156052172691
 31
0.0
  0
LINE
  5
10272
  8
0
 10
3644.1680910050508828
 20
160.424156052172691
 30
0.0
 11
3644.1484063236530346
 21
160.4212227717459882
 31
0.0
  0
LINE
  5
10273
  8
0
 10
3644.1484063236530346
 20
160.4212227717459882
 30
0.0
 11
3644.1385636109598636
 21
160.4098911014581859
 31
0.0
  0
LINE
  5
10274
  8
0
 10
3644.1484062974218432
 20
160.4015123709096997
 30
0.0
 11
3644.1484063236530346
 21
160.4212227717459882
 31
0.0
  0
LINE
  5
10275
  8
0
 10
3644.1680913407021762
 20
160.4043821049228882
 30
0.0
 11
3644.1680910050508828
 21
160.424156052172691
 31
0.0
  0
LINE
  5
10276
  8
0
 10
3644.1689205582861177
 20
160.4283587757151111
 30
0.0
 11
3644.1762448786657842
 21
160.4217698666093099
 31
0.0
  0
LINE
  5
10277
  8
0
 10
3644.1762448786657842
 20
160.4217698666093099
 30
0.0
 11
3644.1959299271979944
 21
160.4256995768992056
 31
0.0
  0
LINE
  5
10278
  8
0
 10
3644.1762448786657842
 20
160.4217698666093099
 30
0.0
 11
3644.1762448871859306
 21
160.4282093792305091
 31
0.0
  0
LINE
  5
10279
  8
0
 10
3644.1661916246971487
 20
160.3984802141077068
 30
0.0
 11
3644.1762454284371415
 21
160.3911431032836958
 31
0.0
  0
LINE
  5
1027A
  8
0
 10
3644.1762454284371415
 20
160.3911431032836958
 30
0.0
 11
3644.1959304770180097
 21
160.3950840681762884
 31
0.0
  0
LINE
  5
1027B
  8
0
 10
3644.1959304770180097
 20
160.3950840681762884
 30
0.0
 11
3644.2057728267141101
 21
160.4060036526992974
 31
0.0
  0
LINE
  5
1027C
  8
0
 10
3644.2057728267141101
 20
160.4060036526992974
 30
0.0
 11
3644.1959304972529026
 21
160.4131102446305022
 31
0.0
  0
LINE
  5
1027D
  8
0
 10
3644.1959304972529026
 20
160.4131102446305022
 30
0.0
 11
3644.1762454527529371
 21
160.4092358562459992
 31
0.0
  0
LINE
  5
1027E
  8
0
 10
3644.1762454527529371
 20
160.4092358562459992
 30
0.0
 11
3644.1661916246971487
 21
160.3984802141077068
 31
0.0
  0
LINE
  5
1027F
  8
0
 10
3644.1762454284371415
 20
160.3911431032836958
 30
0.0
 11
3644.1762454527529371
 21
160.4092358562459992
 31
0.0
  0
LINE
  5
10280
  8
0
 10
3644.1959304770180097
 20
160.3950840681762884
 30
0.0
 11
3644.1959304972529026
 21
160.4131102446305022
 31
0.0
  0
LINE
  5
10281
  8
0
 10
3644.1390493466537919
 20
160.3569673861667866
 30
0.0
 11
3644.1484167376520418
 21
160.3579779226953121
 31
0.0
  0
LINE
  5
10282
  8
0
 10
3644.1484167376520418
 20
160.3579779226953121
 30
0.0
 11
3644.1688984436468672
 21
160.3608655471157078
 31
0.0
  0
LINE
  5
10283
  8
0
 10
3644.1688984436468672
 20
160.3608655471157078
 30
0.0
 11
3644.1774501958880137
 21
160.3622851683740862
 31
0.0
  0
LINE
  5
10284
  8
0
 10
3644.1774501958880137
 20
160.3622851683740862
 30
0.0
 11
3644.1681017899968538
 21
160.3677814828818953
 31
0.0
  0
LINE
  5
10285
  8
0
 10
3644.1681017899968538
 20
160.3677814828818953
 30
0.0
 11
3644.1484167468979649
 21
160.3649448020759962
 31
0.0
  0
LINE
  5
10286
  8
0
 10
3644.1484167468979649
 20
160.3649448020759962
 30
0.0
 11
3644.1390493466537919
 21
160.3569673861667866
 31
0.0
  0
LINE
  5
10287
  8
0
 10
3644.1665125847039235
 20
160.3719603294836134
 30
0.0
 11
3644.1762459870410567
 21
160.366552275157801
 31
0.0
  0
LINE
  5
10288
  8
0
 10
3644.1762459870410567
 20
160.366552275157801
 30
0.0
 11
3644.1959310314091454
 21
160.3702760963421099
 31
0.0
  0
LINE
  5
10289
  8
0
 10
3644.1959310314091454
 20
160.3702760963421099
 30
0.0
 11
3644.2057733822839509
 21
160.379412360505313
 31
0.0
  0
LINE
  5
1028A
  8
0
 10
3644.2057733822839509
 20
160.379412360505313
 30
0.0
 11
3644.1959306887210914
 21
160.3848030847364896
 31
0.0
  0
LINE
  5
1028B
  8
0
 10
3644.1959306887210914
 20
160.3848030847364896
 30
0.0
 11
3644.1762460062532227
 21
160.3810353078459912
 31
0.0
  0
LINE
  5
1028C
  8
0
 10
3644.1762460062532227
 20
160.3810353078459912
 30
0.0
 11
3644.1665125847039235
 21
160.3719603294836134
 31
0.0
  0
LINE
  5
1028D
  8
0
 10
3644.1762459870410567
 20
160.366552275157801
 30
0.0
 11
3644.1762460062532227
 21
160.3810353078459912
 31
0.0
  0
LINE
  5
1028E
  8
0
 10
3644.1959310314091454
 20
160.3702760963421099
 30
0.0
 11
3644.1959306887210914
 21
160.3848030847364896
 31
0.0
  0
LINE
  5
1028F
  8
0
 10
3644.1942418710968923
 20
160.3894844354720135
 30
0.0
 11
3644.2040845641690794
 21
160.3837419661147976
 31
0.0
  0
LINE
  5
10290
  8
0
 10
3644.2040845641690794
 20
160.3837419661147976
 30
0.0
 11
3644.2237695691051158
 21
160.3884919904853916
 31
0.0
  0
LINE
  5
10291
  8
0
 10
3644.2237695691051158
 20
160.3884919904853916
 30
0.0
 11
3644.233611962481973
 21
160.3990573864911937
 31
0.0
  0
LINE
  5
10292
  8
0
 10
3644.233611962481973
 20
160.3990573864911937
 30
0.0
 11
3644.2237692695571241
 21
160.4048365492834876
 31
0.0
  0
LINE
  5
10293
  8
0
 10
3644.2237692695571241
 20
160.4048365492834876
 30
0.0
 11
3644.2041667744820188
 21
160.4000318215655909
 31
0.0
  0
LINE
  5
10294
  8
0
 10
3644.2041667744820188
 20
160.4000318215655909
 30
0.0
 11
3644.1942418710968923
 21
160.3894844354720135
 31
0.0
  0
LINE
  5
10295
  8
0
 10
3644.2040845641690794
 20
160.3837419661147976
 30
0.0
 11
3644.2041667744820188
 21
160.4000318215655909
 31
0.0
  0
LINE
  5
10296
  8
0
 10
3644.2237695691051158
 20
160.3884919904853916
 30
0.0
 11
3644.2237692695571241
 21
160.4048365492834876
 31
0.0
  0
LINE
  5
10297
  8
0
 10
3644.1942413192928143
 20
160.4189247712284043
 30
0.0
 11
3644.2040840099530215
 21
160.4114430027348135
 31
0.0
  0
LINE
  5
10298
  8
0
 10
3644.2040840099530215
 20
160.4114430027348135
 30
0.0
 11
3644.2237690592692161
 21
160.4163245235490081
 31
0.0
  0
LINE
  5
10299
  8
0
 10
3644.2237690592692161
 20
160.4163245235490081
 30
0.0
 11
3644.2320039992127931
 21
160.4267616872899112
 31
0.0
  0
LINE
  5
1029A
  8
0
 10
3644.2011128962058137
 20
160.4276176721687079
 30
0.0
 11
3644.1942413192928143
 21
160.4189247712284043
 31
0.0
  0
LINE
  5
1029B
  8
0
 10
3644.2040840099530215
 20
160.4114430027348135
 30
0.0
 11
3644.2040840312779437
 21
160.4275440222268969
 31
0.0
  0
LINE
  5
1029C
  8
0
 10
3644.2237690592692161
 20
160.4163245235490081
 30
0.0
 11
3644.2237690715860481
 21
160.4270199406325048
 31
0.0
  0
LINE
  5
1029D
  8
0
 10
3644.2220804553949165
 20
160.4100223699979892
 30
0.0
 11
3644.2319231450510415
 21
160.4038792652933978
 31
0.0
  0
LINE
  5
1029E
  8
0
 10
3644.2319231450510415
 20
160.4038792652933978
 30
0.0
 11
3644.2516081920912256
 21
160.4097312044301873
 31
0.0
  0
LINE
  5
1029F
  8
0
 10
3644.2516081920912256
 20
160.4097312044301873
 30
0.0
 11
3644.2614505469650794
 21
160.4218401826126126
 31
0.0
  0
LINE
  5
102A0
  8
0
 10
3644.2614505469650794
 20
160.4218401826126126
 30
0.0
 11
3644.2549749948930184
 21
160.425919603650101
 31
0.0
  0
LINE
  5
102A1
  8
0
 10
3644.2457923401889275
 20
160.4262777273943072
 30
0.0
 11
3644.2319231690539709
 21
160.422073831945994
 31
0.0
  0
LINE
  5
102A2
  8
0
 10
3644.2319231690539709
 20
160.422073831945994
 30
0.0
 11
3644.2220804553949165
 21
160.4100223699979892
 31
0.0
  0
LINE
  5
102A3
  8
0
 10
3644.2319231450510415
 20
160.4038792652933978
 30
0.0
 11
3644.2319231690539709
 21
160.422073831945994
 31
0.0
  0
LINE
  5
102A4
  8
0
 10
3644.2516081920912256
 20
160.4097312044301873
 30
0.0
 11
3644.2516082137208286
 21
160.4260542341253029
 31
0.0
  0
LINE
  5
102A5
  8
0
 10
3644.2220810109170088
 20
160.3833315657907974
 30
0.0
 11
3644.2319237027459167
 21
160.3788824147638081
 31
0.0
  0
LINE
  5
102A6
  8
0
 10
3644.2319237027459167
 20
160.3788824147638081
 30
0.0
 11
3644.2516087493768282
 21
160.3846053089615111
 31
0.0
  0
LINE
  5
102A7
  8
0
 10
3644.2516087493768282
 20
160.3846053089615111
 30
0.0
 11
3644.2614511019419297
 21
160.3948481679526026
 31
0.0
  0
LINE
  5
102A8
  8
0
 10
3644.2614511019419297
 20
160.3948481679526026
 30
0.0
 11
3644.2516087690528366
 21
160.3993070225222084
 31
0.0
  0
LINE
  5
102A9
  8
0
 10
3644.2516087690528366
 20
160.3993070225222084
 30
0.0
 11
3644.2321103103367932
 21
160.3935648661644109
 31
0.0
  0
LINE
  5
102AA
  8
0
 10
3644.2321103103367932
 20
160.3935648661644109
 30
0.0
 11
3644.2220810109170088
 21
160.3833315657907974
 31
0.0
  0
LINE
  5
102AB
  8
0
 10
3644.2319237027459167
 20
160.3788824147638081
 30
0.0
 11
3644.2321103103367932
 21
160.3935648661644109
 31
0.0
  0
LINE
  5
102AC
  8
0
 10
3644.2516087493768282
 20
160.3846053089615111
 30
0.0
 11
3644.2516087690528366
 21
160.3993070225222084
 31
0.0
  0
LINE
  5
102AD
  8
0
 10
3644.24991958943383
 20
160.4038798609570904
 30
0.0
 11
3644.2597622836669871
 21
160.3990627974584982
 31
0.0
  0
LINE
  5
102AE
  8
0
 10
3644.2597622836669871
 20
160.3990627974584982
 30
0.0
 11
3644.2794473321519035
 21
160.405918880511706
 31
0.0
  0
LINE
  5
102AF
  8
0
 10
3644.2794473321519035
 20
160.405918880511706
 30
0.0
 11
3644.2892896864618706
 21
160.417704295588095
 31
0.0
  0
LINE
  5
102B0
  8
0
 10
3644.2892896864618706
 20
160.417704295588095
 30
0.0
 11
3644.2794473541530351
 21
160.4225440691911047
 31
0.0
  0
LINE
  5
102B1
  8
0
 10
3644.2794473541530351
 20
160.4225440691911047
 30
0.0
 11
3644.2597623055539771
 21
160.4155754306459869
 31
0.0
  0
LINE
  5
102B2
  8
0
 10
3644.2597623055539771
 20
160.4155754306459869
 30
0.0
 11
3644.24991958943383
 21
160.4038798609570904
 31
0.0
  0
LINE
  5
102B3
  8
0
 10
3644.2597622836669871
 20
160.3990627974584982
 30
0.0
 11
3644.2597623055539771
 21
160.4155754306459869
 31
0.0
  0
LINE
  5
102B4
  8
0
 10
3644.2794473321519035
 20
160.405918880511706
 30
0.0
 11
3644.2794473541530351
 21
160.4225440691911047
 31
0.0
  0
LINE
  5
102B5
  8
0
 10
3644.2837496414531415
 20
160.4246117877034976
 30
0.0
 11
3644.287600868483878
 21
160.4224364360007087
 31
0.0
  0
LINE
  5
102B6
  8
0
 10
3644.287600868483878
 20
160.4224364360007087
 30
0.0
 11
3644.29186571688615
 21
160.4241919938540093
 31
0.0
  0
LINE
  5
102B7
  8
0
 10
3644.287600868483878
 20
160.4224364360007087
 30
0.0
 11
3644.2875541762850844
 21
160.4244177938927862
 31
0.0
  0
LINE
  5
102B8
  8
0
 10
3644.1947270574528375
 20
160.3655430919459945
 30
0.0
 11
3644.2040847809062143
 21
160.3745344915955968
 31
0.0
  0
LINE
  5
102B9
  8
0
 10
3644.2040847809062143
 20
160.3745344915955968
 30
0.0
 11
3644.2237698264530081
 21
160.379248653546
 31
0.0
  0
LINE
  5
102BA
  8
0
 10
3644.2237698264530081
 20
160.379248653546
 30
0.0
 11
3644.2331279121540319
 21
160.3751471634460017
 31
0.0
  0
ARC
  5
102BB
  8
0
 10
3644.1294499446848931
 20
160.7081195528004116
 30
0.0
 40
0.3487402084802368
 50
280.7882444713475252
 51
287.2950772311019136
  0
LINE
  5
102BC
  8
0
 10
3644.2504047754650855
 20
160.3797026247887061
 30
0.0
 11
3644.2597625003741086
 21
160.3897372424112007
 31
0.0
  0
LINE
  5
102BD
  8
0
 10
3644.2597625003741086
 20
160.3897372424112007
 30
0.0
 11
3644.2794475486962256
 21
160.396538279655914
 31
0.0
  0
LINE
  5
102BE
  8
0
 10
3644.2794475486962256
 20
160.396538279655914
 30
0.0
 11
3644.2888056356528068
 21
160.3934122982458916
 31
0.0
  0
ARC
  5
102BF
  8
0
 10
3644.1503920080499483
 20
160.7204741905356116
 30
0.0
 40
0.3551447784980088
 50
286.3563931068997022
 51
292.9382351060866085
  0
LINE
  5
102C0
  8
0
 10
3644.2776137820869735
 20
160.4003313370363912
 30
0.0
 11
3644.2876014260859847
 21
160.397020621751409
 31
0.0
  0
LINE
  5
102C1
  8
0
 10
3644.2876014260859847
 20
160.397020621751409
 30
0.0
 11
3644.3071415281128793
 21
160.4048701760524125
 31
0.0
  0
LINE
  5
102C2
  8
0
 10
3644.3071415281128793
 20
160.4048701760524125
 30
0.0
 11
3644.3171288298899526
 21
160.4164311550628952
 31
0.0
  0
LINE
  5
102C3
  8
0
 10
3644.3171288298899526
 20
160.4164311550628952
 30
0.0
 11
3644.3068376454311874
 21
160.4197063288247023
 31
0.0
  0
LINE
  5
102C4
  8
0
 10
3644.3068376454311874
 20
160.4197063288247023
 30
0.0
 11
3644.2874564982071206
 21
160.4120269067252025
 31
0.0
  0
LINE
  5
102C5
  8
0
 10
3644.2874564982071206
 20
160.4120269067252025
 30
0.0
 11
3644.2776137820869735
 21
160.4003313370363912
 31
0.0
  0
LINE
  5
102C6
  8
0
 10
3644.2876014260859847
 20
160.397020621751409
 30
0.0
 11
3644.2874564982071206
 21
160.4120269067252025
 31
0.0
  0
LINE
  5
102C7
  8
0
 10
3644.3071415281128793
 20
160.4048701760524125
 30
0.0
 11
3644.3068376454311874
 21
160.4197063288247023
 31
0.0
  0
LINE
  5
102C8
  8
0
 10
3644.3079381350498807
 20
160.4232944959431109
 30
0.0
 11
3644.3152950638200309
 21
160.420594245312401
 31
0.0
  0
LINE
  5
102C9
  8
0
 10
3644.3152950638200309
 20
160.420594245312401
 30
0.0
 11
3644.3196470745210718
 21
160.4225852529104088
 31
0.0
  0
LINE
  5
102CA
  8
0
 10
3644.3152950638200309
 20
160.420594245312401
 30
0.0
 11
3644.3152950665748904
 21
160.422854322110112
 31
0.0
  0
LINE
  5
102CB
  8
0
 10
3644.3055978743532251
 20
160.3999438713460108
 30
0.0
 11
3644.3185100634859737
 21
160.4051940500206967
 31
0.0
  0
LINE
  5
102CC
  8
0
 10
3644.3230787917350426
 20
160.4012281719041937
 30
0.0
 11
3644.3351256234541324
 21
160.4068610423443033
 31
0.0
  0
LINE
  5
102CD
  8
0
 10
3644.3351256234541324
 20
160.4068610423443033
 30
0.0
 11
3644.3454460763309726
 21
160.4179584713205031
 31
0.0
  0
LINE
  5
102CE
  8
0
 10
3644.3454460763309726
 20
160.4179584713205031
 30
0.0
 11
3644.335152709841168
 21
160.420162133138092
 31
0.0
  0
LINE
  5
102CF
  8
0
 10
3644.335152709841168
 20
160.420162133138092
 30
0.0
 11
3644.3157965076497931
 21
160.411197270713302
 31
0.0
  0
LINE
  5
102D0
  8
0
 10
3644.3157965076497931
 20
160.411197270713302
 30
0.0
 11
3644.3055978743532251
 21
160.3999438713460108
 31
0.0
  0
LINE
  5
102D1
  8
0
 10
3644.3185100634859737
 20
160.4051940500206967
 30
0.0
 11
3644.3157965076497931
 21
160.411197270713302
 31
0.0
  0
LINE
  5
102D2
  8
0
 10
3644.3351256234541324
 20
160.4068610423443033
 30
0.0
 11
3644.335152709841168
 21
160.420162133138092
 31
0.0
  0
LINE
  5
102D3
  8
0
 10
3644.3230787917350426
 20
160.4012281719041937
 30
0.0
 11
3644.3185100634859737
 21
160.4051940500206967
 31
0.0
  0
ARC
  5
102D4
  8
0
 10
3644.0843808052018176
 20
161.351861343481005
 30
0.0
 40
1.0403966301012031
 50
269.4721461605050763
 51
282.0755078067879822
  0
ARC
  5
102D5
  8
0
 10
3644.2717854769048245
 20
160.5108516628316124
 30
0.0
 40
0.1789407248075816
 50
279.7316037150159218
 51
308.5518205217169907
  0
ARC
  5
102D6
  8
0
 10
3644.3682934018420383
 20
160.385788369658087
 30
0.0
 40
0.0211344226546186
 50
315.2598200033435774
 51
47.0808331692193605
  0
ARC
  5
102D7
  8
0
 10
3644.2660214626089328
 20
160.2479527987312906
 30
0.0
 40
0.1926530430604032
 50
52.7305574450989596
 51
63.5149166758116692
  0
ARC
  5
102D8
  8
0
 10
3644.0277674349717927
 20
163.3725885161589133
 30
0.0
 40
3.0658850496947139
 50
270.8789120357370734
 51
272.3596779490958966
  0
ARC
  5
102D9
  8
0
 10
3644.0886097415032054
 20
161.4620454552826061
 30
0.0
 40
1.154595313513886
 50
273.2465527269280869
 51
278.6772187640739276
  0
ARC
  5
102DA
  8
0
 10
3644.1879123248641008
 20
160.8350709271896903
 30
0.0
 40
0.5198279048003794
 50
278.28309865056832
 51
289.1031422483619053
  0
ARC
  5
102DB
  8
0
 10
3644.3236248626521956
 20
160.4545018798314118
 30
0.0
 40
0.1158606066960434
 50
287.2779171302543091
 51
311.960892677683205
  0
ARC
  5
102DC
  8
0
 10
3644.385080047809879
 20
160.3858586053814861
 30
0.0
 40
0.0237278392109242
 50
312.4398001626906876
 51
350.4974867505093243
  0
ARC
  5
102DD
  8
0
 10
3644.3822757796469887
 20
160.3852758620890882
 30
0.0
 40
0.0264178113244191
 50
352.7486756683135241
 51
59.5499027421765703
  0
ARC
  5
102DE
  8
0
 10
3644.2719257391158862
 20
160.2168956513770866
 30
0.0
 40
0.2277083658775007
 50
57.0841464387096309
 51
62.2130957560219784
  0
ARC
  5
102DF
  8
0
 10
3644.0758692691128999
 20
155.6867993945544981
 30
0.0
 40
4.7424723412465903
 50
88.4688864168855957
 51
91.5311135831144043
  0
ENDSEC
  0
EOF
