  0
SECTION
  2
HEADER
  9
$ACADVER
  1
AC1009
  9
$INSBASE
 10
4254.7855682731205889
 20
215.1136043295992124
 30
0.0
  9
$EXTMIN
 10
4252.5611089956446449
 20
211.8458878118821076
 30
0.0
  9
$EXTMAX
 10
4257.0100275505983518
 20
218.381367289265313
 30
0.0
  9
$LIMMIN
 10
0.0
 20
0.0
  9
$LIMMAX
 10
11.6929133858000007
 20
8.2677165353999982
  9
$ORTHOMODE
 70
     1
  9
$REGENMODE
 70
     1
  9
$FILLMODE
 70
     1
  9
$QTEXTMODE
 70
     0
  9
$MIRRTEXT
 70
     0
  9
$DRAGMODE
 70
     2
  9
$LTSCALE
 40
0.6431102362
  9
$OSMODE
 70
  3839
  9
$ATTMODE
 70
     1
  9
$TEXTSIZE
 40
0.2
  9
$TRACEWID
 40
0.05
  9
$TEXTSTYLE
  7
STANDARD
  9
$CLAYER
  8
0
  9
$CELTYPE
  6
BYLAYER
  9
$CECOLOR
 62
   256
  9
$DIMSCALE
 40
1.0
  9
$DIMASZ
 40
0.1875
  9
$DIMEXO
 40
0.0625
  9
$DIMDLI
 40
0.4443307087
  9
$DIMRND
 40
0.0
  9
$DIMDLE
 40
0.0
  9
$DIMEXE
 40
0.125
  9
$DIMTP
 40
0.01
  9
$DIMTM
 40
0.01
  9
$DIMTXT
 40
2.0
  9
$DIMCEN
 40
0.1052362205
  9
$DIMTSZ
 40
0.0
  9
$DIMTOL
 70
     1
  9
$DIMLIM
 70
     0
  9
$DIMTIH
 70
     1
  9
$DIMTOH
 70
     1
  9
$DIMSE1
 70
     0
  9
$DIMSE2
 70
     0
  9
$DIMTAD
 70
     0
  9
$DIMZIN
 70
     0
  9
$DIMBLK
  1

  9
$DIMASO
 70
     1
  9
$DIMSHO
 70
     1
  9
$DIMPOST
  1
\X
  9
$DIMAPOST
  1

  9
$DIMALT
 70
     1
  9
$DIMALTD
 70
     2
  9
$DIMALTF
 40
25.3999999999999986
  9
$DIMLFAC
 40
1.0
  9
$DIMTOFL
 70
     0
  9
$DIMTVP
 40
0.0
  9
$DIMTIX
 70
     0
  9
$DIMSOXD
 70
     0
  9
$DIMSAH
 70
     0
  9
$DIMBLK1
  1

  9
$DIMBLK2
  1

  9
$DIMSTYLE
  2
STANDARD
  9
$DIMCLRD
 70
     0
  9
$DIMCLRE
 70
     0
  9
$DIMCLRT
 70
     0
  9
$DIMTFAC
 40
1.0
  9
$DIMGAP
 40
0.09
  9
$LUNITS
 70
     2
  9
$LUPREC
 70
     4
  9
$SKETCHINC
 40
0.1
  9
$FILLETRAD
 40
0.0
  9
$AUNITS
 70
     0
  9
$AUPREC
 70
     0
  9
$MENU
  1
.
  9
$ELEVATION
 40
0.0
  9
$PELEVATION
 40
0.0
  9
$THICKNESS
 40
0.0
  9
$LIMCHECK
 70
     0
  9
$BLIPMODE
 70
     0
  9
$CHAMFERA
 40
0.0
  9
$CHAMFERB
 40
0.0
  9
$SKPOLY
 70
     0
  9
$TDCREATE
 40
2458060.468368056230247
  9
$TDUPDATE
 40
2459075.772314814850688
  9
$TDINDWG
 40
0.5482825231
  9
$TDUSRTIMER
 40
0.5482825231
  9
$USRTIMER
 70
     1
  9
$ANGBASE
 50
0.0
  9
$ANGDIR
 70
     0
  9
$PDMODE
 70
     0
  9
$PDSIZE
 40
0.3125
  9
$PLINEWID
 40
0.0
  9
$COORDS
 70
     1
  9
$SPLFRAME
 70
     0
  9
$SPLINETYPE
 70
     6
  9
$SPLINESEGS
 70
     8
  9
$ATTDIA
 70
     1
  9
$ATTREQ
 70
     1
  9
$HANDLING
 70
     1
  9
$HANDSEED
  5
9646
  9
$SURFTAB1
 70
     6
  9
$SURFTAB2
 70
     6
  9
$SURFTYPE
 70
     6
  9
$SURFU
 70
     6
  9
$SURFV
 70
     6
  9
$UCSNAME
  2

  9
$UCSORG
 10
0.0
 20
0.0
 30
0.0
  9
$UCSXDIR
 10
1.0
 20
0.0
 30
0.0
  9
$UCSYDIR
 10
0.0
 20
1.0
 30
0.0
  9
$PUCSNAME
  2

  9
$PUCSORG
 10
0.0
 20
0.0
 30
0.0
  9
$PUCSXDIR
 10
1.0
 20
0.0
 30
0.0
  9
$PUCSYDIR
 10
0.0
 20
1.0
 30
0.0
  9
$USERI1
 70
     0
  9
$USERI2
 70
     0
  9
$USERI3
 70
     0
  9
$USERI4
 70
     0
  9
$USERI5
 70
     0
  9
$USERR1
 40
0.0
  9
$USERR2
 40
0.0
  9
$USERR3
 40
0.0
  9
$USERR4
 40
0.0
  9
$USERR5
 40
0.0
  9
$WORLDVIEW
 70
     1
  9
$SHADEDGE
 70
     3
  9
$SHADEDIF
 70
    70
  9
$TILEMODE
 70
     1
  9
$MAXACTVP
 70
    64
  9
$PLIMCHECK
 70
     0
  9
$PEXTMIN
 10
1.0000000000000000E+20
 20
1.0000000000000000E+20
 30
1.0000000000000000E+20
  9
$PEXTMAX
 10
-1.0000000000000000E+20
 20
-1.0000000000000000E+20
 30
-1.0000000000000000E+20
  9
$PLIMMIN
 10
0.0
 20
0.0
  9
$PLIMMAX
 10
12.0
 20
9.0
  9
$UNITMODE
 70
     0
  9
$VISRETAIN
 70
     1
  9
$PLINEGEN
 70
     0
  9
$PSLTSCALE
 70
     1
  0
ENDSEC
  0
SECTION
  2
TABLES
  0
TABLE
  2
VPORT
 70
     1
  0
VPORT
  2
*ACTIVE
 70
     0
 10
0.0
 20
0.0
 11
1.0
 21
1.0
 12
0.0
 22
0.0
 13
0.0
 23
0.0
 14
1.0
 24
1.0
 15
0.0
 25
0.0
 16
0.0
 26
0.0
 36
32.8216699485205865
 17
4254.785400390625
 27
215.1136016845703125
 37
0.0
 40
7.9058876756175414
 41
3.314341846758349
 42
50.0
 43
0.0
 44
0.0
 50
0.0
 51
0.0
 71
     0
 72
   100
 73
     1
 74
     1
 75
     0
 76
     0
 77
     0
 78
     0
  0
ENDTAB
  0
TABLE
  2
LTYPE
 70
     2
  0
LTYPE
  2
CONTINUOUS
 70
     0
  3
Solid line
 72
    65
 73
     0
 40
0.0
  0
LTYPE
  2
PHANTOM2
 70
     0
  3
___ _ _ ___ _ _ ___ _ _ ___ _ _
 72
    65
 73
     6
 40
1.25
 49
0.625
 49
-0.125
 49
0.125
 49
-0.125
 49
0.125
 49
-0.125
  0
ENDTAB
  0
TABLE
  2
LAYER
 70
     2
  0
LAYER
  2
0
 70
     0
 62
   255
  6
CONTINUOUS
  0
LAYER
  2
DEFPOINTS
 70
     0
 62
     7
  6
CONTINUOUS
  0
ENDTAB
  0
TABLE
  2
STYLE
 70
     1
  0
STYLE
  2
STANDARD
 70
     0
 40
0.0
 41
0.8
 50
0.0
 71
     0
 42
0.2
  3
txt
  4

  0
ENDTAB
  0
TABLE
  2
VIEW
 70
     0
  0
ENDTAB
  0
TABLE
  2
UCS
 70
     0
  0
ENDTAB
  0
TABLE
  2
APPID
 70
     9
  0
APPID
  2
ACAD
 70
     0
  0
APPID
  2
ACAD_MLEADERVER
 70
     0
  0
APPID
  2
ACAD_EXEMPT_FROM_CAD_STANDARDS
 70
     0
  0
APPID
  2
ACAD_NAV_VCDISPLAY
 70
     0
  0
APPID
  2
ACAECLAYERSTANDARD
 70
     0
  0
APPID
  2
ACCMTRANSPARENCY
 70
     0
  0
APPID
  2
ACAD_DSTYLE_DIMJAG
 70
     0
  0
APPID
  2
ACAD_DSTYLE_DIMTALN
 70
     0
  0
APPID
  2
ACDBATTR
 70
     0
  0
ENDTAB
  0
TABLE
  2
DIMSTYLE
 70
     1
  0
DIMSTYLE
  2
STANDARD
 70
     0
  3

  4

  5

  6

  7

 40
1.0
 41
0.1875
 42
0.0625
 43
0.38
 44
0.125
 45
0.0
 46
0.0
 47
0.01
 48
0.01
140
0.15625
141
0.09
142
0.0
143
25.3999999999999986
144
1.0
145
0.0
146
1.0
147
0.09
 71
     1
 72
     0
 73
     1
 74
     1
 75
     0
 76
     0
 77
     0
 78
     4
170
     0
171
     2
172
     0
173
     0
174
     0
175
     0
176
     0
177
     0
178
     0
  0
ENDTAB
  0
ENDSEC
  0
SECTION
  2
BLOCKS
  0
BLOCK
  8
0
  2
$MODEL_SPACE
 70
     0
 10
0.0
 20
0.0
 30
0.0
  3
$MODEL_SPACE
  1

  0
ENDBLK
  5
21
  8
0
  0
BLOCK
 67
     1
  8
0
  2
$PAPER_SPACE
 70
     0
 10
0.0
 20
0.0
 30
0.0
  3
$PAPER_SPACE
  1

  0
ENDBLK
  5
1D
 67
     1
  8
0
  0
BLOCK
  8
0
  2
_FILLED
 70
     0
 10
0.0
 20
0.0
 30
0.0
  3
_FILLED
  1

  0
SOLID
  5
6F59
  8
0
  6
BYBLOCK
 62
     0
 10
0.0
 20
0.0
 30
0.0
 11
-1.0
 21
0.1666666667
 31
0.0
 12
-1.0
 22
-0.1666666667
 32
0.0
 13
-1.0
 23
-0.1666666667
 33
0.0
  0
ENDBLK
  5
6F5A
  8
0
  6
BYBLOCK
 62
     0
  0
ENDSEC
  0
SECTION
  2
ENTITIES
  0
ATTDEF
  5
3930
  8
DEFPOINTS
 10
4254.785756238779868
 20
215.1122827289046882
 30
0.0
 40
0.001
  1
K-22541IN-4FP
  3

  2
MODELNUMBER
 70
     0
1001
ACDBATTR
1070
     0
1070
     1
  0
ATTDEF
  5
3931
  8
DEFPOINTS
 10
4254.785756238779868
 20
215.1106160622379946
 30
0.0
 40
0.001
  1
HONE
  3

  2
TRADENAME
 70
     0
1001
ACDBATTR
1070
     0
1070
     1
  0
ATTDEF
  5
3932
  8
DEFPOINTS
 10
4254.785756238779868
 20
215.108949395571301
 30
0.0
 40
0.001
  1
VALVE TRIM
  3

  2
PRODUCT
 70
     0
1001
ACDBATTR
1070
     0
1070
     1
  0
LINE
  5
9469
  8
0
 10
4257.0099777218711097
 20
218.1558043336999049
 30
0.0
 11
4257.0099777218711097
 21
212.0620215719440864
 31
0.0
  0
LINE
  5
946A
  8
0
 10
4256.7846268155608414
 20
218.3813208473162888
 30
0.0
 11
4252.7774514181846826
 21
218.3813208473162888
 31
0.0
  0
LINE
  5
946B
  8
0
 10
4255.6402850963968376
 20
217.1955721226686933
 30
0.0
 11
4253.9308514498443401
 21
217.1955721226686933
 31
0.0
  0
LINE
  5
946C
  8
0
 10
4255.6034653296201213
 20
217.1500904200073023
 30
0.0
 11
4253.9676712166210564
 21
217.1500904200073023
 31
0.0
  0
LINE
  5
946D
  8
0
 10
4255.4831997386336297
 20
212.9659660603757914
 30
0.0
 11
4254.087936807607548
 21
212.9659660603757914
 31
0.0
  0
LINE
  5
946E
  8
0
 10
4256.7936851280583141
 20
211.8458878118821076
 30
0.0
 11
4254.9846313192438174
 21
211.8458878118821076
 31
0.0
  0
ARC
  5
946F
  8
0
 10
4256.7891559718100325
 20
218.1604957104771927
 30
0.0
 40
0.2208715787880714
 50
358.7829294006386931
 51
91.1749801803158846
  0
ARC
  5
9470
  8
0
 10
4256.7891559718100325
 20
212.0667129487212037
 30
0.0
 40
0.2208715787880714
 50
271.1749801803679816
 51
358.7829294006630789
  0
LINE
  5
9472
  8
0
 10
4255.8566793159716326
 20
216.9772936211655008
 30
0.0
 11
4255.7918267931718219
 21
215.0750941351998904
 31
0.0
  0
ARC
  5
9473
  8
0
 10
4255.7720136631442074
 20
215.075916957060798
 30
0.0
 40
0.0198302082008363
 50
259.5206397660139146
 51
357.6219231811498958
  0
ARC
  5
9474
  8
0
 10
4255.6030511646404193
 20
216.9336166293329882
 30
0.0
 40
0.2164741868711237
 50
358.1144802662636835
 51
89.8903799093760938
  0
LINE
  5
9475
  8
0
 10
4255.8194081444353287
 20
216.9264940683594034
 30
0.0
 11
4255.6981905119173462
 21
213.1752832019267032
 31
0.0
  0
ARC
  5
9476
  8
0
 10
4255.4815441550535979
 20
213.1827341856719897
 30
0.0
 40
0.2167744475287463
 50
270.4375925071011011
 51
358.0302381913263048
  0
ARC
  5
9477
  8
0
 10
4371.6787852590596231
 20
209.8279302570958862
 30
0.0
 40
116.0282417599257059
 50
177.4172518216579135
 51
178.0998680003102095
  0
LINE
  5
9478
  8
0
 10
4252.5611588243709775
 20
218.1558043336999049
 30
0.0
 11
4252.5611588243709775
 21
212.0620215719440864
 31
0.0
  0
ARC
  5
9479
  8
0
 10
4252.7819805744320547
 20
218.1604957104771927
 30
0.0
 40
0.2208715787880714
 50
88.8250198196841438
 51
181.2170705993613069
  0
ARC
  5
947A
  8
0
 10
4252.7819805744320547
 20
212.0667129487212037
 30
0.0
 40
0.2208715787880714
 50
181.2170705993368927
 51
268.8250198196320184
  0
LINE
  5
947C
  8
0
 10
4253.7144572302713641
 20
216.9772936211660976
 30
0.0
 11
4253.7793097530702653
 21
215.0750941351998904
 31
0.0
  0
ARC
  5
947D
  8
0
 10
4253.7991228830987893
 20
215.075916957060798
 30
0.0
 40
0.0198302082008363
 50
182.3780768188501042
 51
280.4793602339860854
  0
ARC
  5
947E
  8
0
 10
4253.9680853816025774
 20
216.9336166293329882
 30
0.0
 40
0.2164741868711237
 50
90.1096200906239204
 51
181.8855197337362881
  0
LINE
  5
947F
  8
0
 10
4253.751728401805849
 20
216.9264940683594034
 30
0.0
 11
4253.8729460343238316
 21
213.1752832019267032
 31
0.0
  0
ARC
  5
9480
  8
0
 10
4254.0895923911875798
 20
213.1827341856719897
 30
0.0
 40
0.2167744475287463
 50
181.9697618086736952
 51
269.5624074928990126
  0
ARC
  5
9481
  8
0
 10
4137.8923512871833736
 20
209.8279302570958862
 30
0.0
 40
116.0282417599257059
 50
1.9001319996898129
 51
2.5827481783421029
  0
ARC
  5
94D7
  8
0
 10
4254.988978267647326
 20
212.0055611132887918
 30
0.0
 40
0.159732461142189
 50
260.8364095114342263
 51
268.4405640020432884
  0
ARC
  5
94D8
  8
0
 10
4255.3443646854821054
 20
212.648266069998698
 30
0.0
 40
0.8863777857131537
 50
243.4113446979534103
 51
244.5552070482239913
  0
ARC
  5
94D9
  8
0
 10
4254.9310246400928008
 20
211.7846448575726015
 30
0.0
 40
0.0729023749898621
 50
76.8274838007623941
 51
89.0692997410632756
  0
ARC
  5
94DA
  8
0
 10
4254.5821582785947612
 20
212.0055611132887918
 30
0.0
 40
0.159732461142189
 50
271.5594359979567116
 51
279.1635904885657737
  0
ARC
  5
94DB
  8
0
 10
4254.2267718607608913
 20
212.648266069998698
 30
0.0
 40
0.8863777857131537
 50
295.4447929517759803
 51
296.5886553020466181
  0
ARC
  5
94DC
  8
0
 10
4254.6401119061492864
 20
211.7846448575726015
 30
0.0
 40
0.0729023749898621
 50
90.9307002589367244
 51
103.1725161992375064
  0
LINE
  5
94DD
  8
0
 10
4254.6389277478037911
 20
211.8575376147448992
 30
0.0
 11
4254.9322087984392056
 21
211.8575376147448992
 31
0.0
  0
LINE
  5
94DE
  8
0
 10
4254.5865052269991793
 20
211.8458878118821076
 30
0.0
 11
4252.7774514181846826
 21
211.8458878118821076
 31
0.0
  0
ARC
  5
9533
  8
0
 10
4255.638225902315753
 20
216.9771283519378073
 30
0.0
 40
0.2184534761715098
 50
0.0433466673720498
 51
89.4599084463659011
  0
ARC
  5
9534
  8
0
 10
4253.9329106439263342
 20
216.9771283519378073
 30
0.0
 40
0.2184534761715144
 50
90.5400915536340847
 51
179.9566533326278943
  0
ENDSEC
  0
EOF
