  0
SECTION
  2
HEADER
  9
$ACADVER
  1
AC1009
  9
$INSBASE
 10
4468.7599862329407188
 20
264.2888664461696067
 30
0.0
  9
$EXTMIN
 10
4463.4594638183370989
 20
264.274228405904978
 30
-0.0015258207003583
  9
$EXTMAX
 10
4469.9244925970979239
 20
270.2773767324820255
 30
0.0000000349246037
  9
$LIMMIN
 10
0.0
 20
0.0
  9
$LIMMAX
 10
11.6929133858000007
 20
8.2677165353999982
  9
$ORTHOMODE
 70
     0
  9
$REGENMODE
 70
     1
  9
$FILLMODE
 70
     1
  9
$QTEXTMODE
 70
     0
  9
$MIRRTEXT
 70
     0
  9
$DRAGMODE
 70
     2
  9
$LTSCALE
 40
0.6431102362
  9
$OSMODE
 70
  4095
  9
$ATTMODE
 70
     1
  9
$TEXTSIZE
 40
0.2
  9
$TRACEWID
 40
0.05
  9
$TEXTSTYLE
  7
STANDARD
  9
$CLAYER
  8
0
  9
$CELTYPE
  6
BYLAYER
  9
$CECOLOR
 62
   256
  9
$DIMSCALE
 40
1.0
  9
$DIMASZ
 40
0.1875
  9
$DIMEXO
 40
0.0625
  9
$DIMDLI
 40
0.4443307087
  9
$DIMRND
 40
0.0
  9
$DIMDLE
 40
0.0
  9
$DIMEXE
 40
0.125
  9
$DIMTP
 40
0.01
  9
$DIMTM
 40
0.01
  9
$DIMTXT
 40
2.0
  9
$DIMCEN
 40
0.1052362205
  9
$DIMTSZ
 40
0.0
  9
$DIMTOL
 70
     1
  9
$DIMLIM
 70
     0
  9
$DIMTIH
 70
     1
  9
$DIMTOH
 70
     1
  9
$DIMSE1
 70
     0
  9
$DIMSE2
 70
     0
  9
$DIMTAD
 70
     0
  9
$DIMZIN
 70
     0
  9
$DIMBLK
  1

  9
$DIMASO
 70
     1
  9
$DIMSHO
 70
     1
  9
$DIMPOST
  1
\X
  9
$DIMAPOST
  1

  9
$DIMALT
 70
     1
  9
$DIMALTD
 70
     2
  9
$DIMALTF
 40
25.3999999999999986
  9
$DIMLFAC
 40
1.0
  9
$DIMTOFL
 70
     0
  9
$DIMTVP
 40
0.0
  9
$DIMTIX
 70
     0
  9
$DIMSOXD
 70
     0
  9
$DIMSAH
 70
     0
  9
$DIMBLK1
  1

  9
$DIMBLK2
  1

  9
$DIMSTYLE
  2
STANDARD
  9
$DIMCLRD
 70
     0
  9
$DIMCLRE
 70
     0
  9
$DIMCLRT
 70
     0
  9
$DIMTFAC
 40
1.0
  9
$DIMGAP
 40
0.09
  9
$LUNITS
 70
     2
  9
$LUPREC
 70
     4
  9
$SKETCHINC
 40
0.1
  9
$FILLETRAD
 40
0.0
  9
$AUNITS
 70
     0
  9
$AUPREC
 70
     0
  9
$MENU
  1
.
  9
$ELEVATION
 40
0.0
  9
$PELEVATION
 40
0.0
  9
$THICKNESS
 40
0.0
  9
$LIMCHECK
 70
     0
  9
$BLIPMODE
 70
     0
  9
$CHAMFERA
 40
0.0
  9
$CHAMFERB
 40
0.0
  9
$SKPOLY
 70
     0
  9
$TDCREATE
 40
2458060.468368056230247
  9
$TDUPDATE
 40
2459979.48491898085922
  9
$TDINDWG
 40
0.6250996528
  9
$TDUSRTIMER
 40
0.6250996528
  9
$USRTIMER
 70
     1
  9
$ANGBASE
 50
0.0
  9
$ANGDIR
 70
     0
  9
$PDMODE
 70
     0
  9
$PDSIZE
 40
0.3125
  9
$PLINEWID
 40
0.0
  9
$COORDS
 70
     1
  9
$SPLFRAME
 70
     0
  9
$SPLINETYPE
 70
     6
  9
$SPLINESEGS
 70
     8
  9
$ATTDIA
 70
     1
  9
$ATTREQ
 70
     1
  9
$HANDLING
 70
     1
  9
$HANDSEED
  5
BF2D
  9
$SURFTAB1
 70
     6
  9
$SURFTAB2
 70
     6
  9
$SURFTYPE
 70
     6
  9
$SURFU
 70
     6
  9
$SURFV
 70
     6
  9
$UCSNAME
  2

  9
$UCSORG
 10
0.0
 20
0.0
 30
0.0
  9
$UCSXDIR
 10
1.0
 20
0.0
 30
0.0
  9
$UCSYDIR
 10
0.0
 20
1.0
 30
0.0
  9
$PUCSNAME
  2

  9
$PUCSORG
 10
0.0
 20
0.0
 30
0.0
  9
$PUCSXDIR
 10
1.0
 20
0.0
 30
0.0
  9
$PUCSYDIR
 10
0.0
 20
1.0
 30
0.0
  9
$USERI1
 70
     0
  9
$USERI2
 70
     0
  9
$USERI3
 70
     0
  9
$USERI4
 70
     0
  9
$USERI5
 70
     0
  9
$USERR1
 40
0.0
  9
$USERR2
 40
0.0
  9
$USERR3
 40
0.0
  9
$USERR4
 40
0.0
  9
$USERR5
 40
0.0
  9
$WORLDVIEW
 70
     1
  9
$SHADEDGE
 70
     3
  9
$SHADEDIF
 70
    70
  9
$TILEMODE
 70
     1
  9
$MAXACTVP
 70
    64
  9
$PLIMCHECK
 70
     0
  9
$PEXTMIN
 10
1.0000000000000000E+20
 20
1.0000000000000000E+20
 30
1.0000000000000000E+20
  9
$PEXTMAX
 10
-1.0000000000000000E+20
 20
-1.0000000000000000E+20
 30
-1.0000000000000000E+20
  9
$PLIMMIN
 10
0.0
 20
0.0
  9
$PLIMMAX
 10
12.0
 20
9.0
  9
$UNITMODE
 70
     0
  9
$VISRETAIN
 70
     1
  9
$PLINEGEN
 70
     0
  9
$PSLTSCALE
 70
     1
  0
ENDSEC
  0
SECTION
  2
TABLES
  0
TABLE
  2
VPORT
 70
     1
  0
VPORT
  2
*ACTIVE
 70
     0
 10
0.0
 20
0.0
 11
1.0
 21
1.0
 12
182.6231305514675114
 22
42.0274428890177134
 13
0.0
 23
0.0
 14
1.0
 24
1.0
 15
0.0
 25
0.0
 16
0.0
 26
0.0
 36
27.5337298366232197
 17
4284.0688476562490905
 27
225.2483596801758097
 37
0.0
 40
6.0366189916893953
 41
1.811304347826086
 42
50.0
 43
0.0
 44
0.0
 50
0.0
 51
0.0
 71
     0
 72
   100
 73
     1
 74
     1
 75
     0
 76
     0
 77
     0
 78
     0
  0
ENDTAB
  0
TABLE
  2
LTYPE
 70
     2
  0
LTYPE
  2
CONTINUOUS
 70
     0
  3
Solid line
 72
    65
 73
     0
 40
0.0
  0
LTYPE
  2
PHANTOM2
 70
     0
  3
___ _ _ ___ _ _ ___ _ _ ___ _ _
 72
    65
 73
     6
 40
1.25
 49
0.625
 49
-0.125
 49
0.125
 49
-0.125
 49
0.125
 49
-0.125
  0
ENDTAB
  0
TABLE
  2
LAYER
 70
     2
  0
LAYER
  2
0
 70
     0
 62
   255
  6
CONTINUOUS
  0
LAYER
  2
DEFPOINTS
 70
     0
 62
     7
  6
CONTINUOUS
  0
ENDTAB
  0
TABLE
  2
STYLE
 70
     1
  0
STYLE
  2
STANDARD
 70
     0
 40
0.0
 41
0.8
 50
0.0
 71
     0
 42
0.2
  3
txt
  4

  0
ENDTAB
  0
TABLE
  2
VIEW
 70
     0
  0
ENDTAB
  0
TABLE
  2
UCS
 70
     0
  0
ENDTAB
  0
TABLE
  2
APPID
 70
     9
  0
APPID
  2
ACAD
 70
     0
  0
APPID
  2
ACAD_MLEADERVER
 70
     0
  0
APPID
  2
ACAD_EXEMPT_FROM_CAD_STANDARDS
 70
     0
  0
APPID
  2
ACAD_NAV_VCDISPLAY
 70
     0
  0
APPID
  2
ACAECLAYERSTANDARD
 70
     0
  0
APPID
  2
ACCMTRANSPARENCY
 70
     0
  0
APPID
  2
ACAD_DSTYLE_DIMJAG
 70
     0
  0
APPID
  2
ACAD_DSTYLE_DIMTALN
 70
     0
  0
APPID
  2
ACDBATTR
 70
     0
  0
ENDTAB
  0
TABLE
  2
DIMSTYLE
 70
     1
  0
DIMSTYLE
  2
STANDARD
 70
     0
  3

  4

  5

  6

  7

 40
1.0
 41
0.1875
 42
0.0625
 43
0.38
 44
0.125
 45
0.0
 46
0.0
 47
0.01
 48
0.01
140
0.15625
141
0.09
142
0.0
143
25.3999999999999986
144
1.0
145
0.0
146
1.0
147
0.09
 71
     1
 72
     0
 73
     1
 74
     1
 75
     0
 76
     0
 77
     0
 78
     4
170
     0
171
     2
172
     0
173
     0
174
     0
175
     0
176
     0
177
     0
178
     0
  0
ENDTAB
  0
ENDSEC
  0
SECTION
  2
BLOCKS
  0
BLOCK
  8
0
  2
$MODEL_SPACE
 70
     0
 10
0.0
 20
0.0
 30
0.0
  3
$MODEL_SPACE
  1

  0
ENDBLK
  5
21
  8
0
  0
BLOCK
 67
     1
  8
0
  2
$PAPER_SPACE
 70
     0
 10
0.0
 20
0.0
 30
0.0
  3
$PAPER_SPACE
  1

  0
ENDBLK
  5
1D
 67
     1
  8
0
  0
ENDSEC
  0
SECTION
  2
ENTITIES
  0
ATTDEF
  5
3930
  8
DEFPOINTS
 10
4468.7565151675999005
 20
264.293601092240408
 30
0.0
 40
0.001
  1
K-22555T-4V
  3

  2
MODELNUMBER
 70
     0
1001
ACDBATTR
1070
     0
1070
     1
  0
ATTDEF
  5
3931
  8
DEFPOINTS
 10
4468.7565151675999005
 20
264.2919344255737997
 30
0.0
 40
0.001
  1
MEMOIRS
  3

  2
TRADENAME
 70
     0
1001
ACDBATTR
1070
     0
1070
     1
  0
ATTDEF
  5
3932
  8
DEFPOINTS
 10
4468.7565151675999005
 20
264.2902677589070777
 30
0.0
 40
0.001
  1
BATHROOM SINK FAUCET
  3

  2
PRODUCT
 70
     0
1001
ACDBATTR
1070
     0
1070
     1
  0
LINE
  5
BDB8
  8
0
 10
4464.8904781212995658
 20
269.4457270115505025
 30
0.0
 11
4469.3826733050173061
 21
269.2913846649307743
 31
0.0
  0
LINE
  5
BDB9
  8
0
 10
4467.8615970493410714
 20
264.3987089658696163
 30
0.0
 11
4469.6583890740730567
 21
264.3987089658696163
 31
0.0
  0
LINE
  5
BDBA
  8
0
 10
4467.7849862329412645
 20
264.2888664461696067
 30
0.0
 11
4469.7349862329419921
 21
264.2888664461696067
 31
0.0
  0
LINE
  5
BDBB
  8
0
 10
4467.7849862329412645
 20
264.2888664461696067
 30
0.0
 11
4467.7849862329412645
 21
264.3488664117696203
 31
0.0
  0
ARC
  5
BDBC
  8
0
 10
4458.277642093110444
 20
266.8955744682842806
 30
0.0
 40
9.8425258200462125
 50
345.0043697074289071
 51
349.3835628908619242
  0
ARC
  5
BDBD
  8
0
 10
4458.2968881376336867
 20
266.8926630322343954
 30
0.0
 40
9.8230728592583567
 50
349.3795723204140131
 51
359.6612483721028752
  0
ARC
  5
BDBE
  8
0
 10
4466.6688335528688185
 20
267.6101410529196869
 30
0.0
 40
1.4211229214944401
 50
3.9408086446120949
 51
18.11435403051604
  0
ARC
  5
BDBF
  8
0
 10
4467.1376940750405993
 20
267.7126066880695134
 30
0.0
 40
0.9448818897999927
 50
21.0498116670181012
 51
43.6152099462938168
  0
ARC
  5
BDC0
  8
0
 10
4467.1376940750833455
 20
267.7126066881295969
 30
0.0
 40
0.9448818897281261
 50
43.6152099454574795
 51
89.0000000010145129
  0
LINE
  5
BDC1
  8
0
 10
4467.1541845378405924
 20
268.6573446677696211
 30
0.0
 11
4465.1755809961950945
 21
268.6879280257005007
 31
0.0
  0
ARC
  5
BDC2
  8
0
 10
4464.571439890437432
 20
268.3059313073646877
 30
0.0
 40
0.0197093862070774
 50
245.4511467454044862
 51
338.1342324064182776
  0
ARC
  5
BDC3
  8
0
 10
4465.1724031113380988
 20
268.0647626220650181
 30
0.0
 40
0.6278391661376427
 50
148.1282262728913963
 51
158.134232406418306
  0
ARC
  5
BDC4
  8
0
 10
4465.1744396237290857
 20
268.0634963962912138
 30
0.0
 40
0.6302372300311559
 50
131.2115724888290913
 51
148.1282262728913963
  0
ARC
  5
BDC5
  8
0
 10
4465.1648088997208106
 20
268.0744930013976841
 30
0.0
 40
0.6156195637052543
 50
112.6745791887355068
 51
131.2115724888290913
  0
ARC
  5
BDC6
  8
0
 10
4465.1705446738551473
 20
268.0148541347683135
 30
0.0
 40
0.6730927329851051
 50
89.571288333977833
 51
111.167884443908406
  0
LINE
  5
BDC7
  8
0
 10
4463.7469505386034143
 20
268.6611125251625936
 30
0.0
 11
4464.5632512520405726
 21
268.2880035047696197
 31
0.0
  0
ARC
  5
BDC8
  8
0
 10
4463.7551338574339752
 20
268.6790159929590232
 30
0.0
 40
0.0196850416871667
 50
158.0695531918993026
 51
245.4358031968014018
  0
ARC
  5
BDC9
  8
0
 10
4464.8386983216141743
 20
268.2427568744382143
 30
0.0
 40
1.187774921160115
 50
136.8246985954557999
 51
158.0695531918993026
  0
ARC
  5
BDCA
  8
0
 10
4464.8735452543796782
 20
268.2100616830911122
 30
0.0
 40
1.2355586449623219
 50
114.5551486968067962
 51
136.8246985954557999
  0
ARC
  5
BDCB
  8
0
 10
4464.862148960291961
 20
268.2350049170041757
 30
0.0
 40
1.2081352892780399
 50
99.7113090230687504
 51
114.5551486968067962
  0
ARC
  5
BDCC
  8
0
 10
4464.8926190761121688
 20
268.0569590046092117
 30
0.0
 40
1.3887696572114541
 50
90.0883283436767783
 51
99.7113090230687504
  0
ARC
  5
BDCD
  8
0
 10
4469.3802803341022809
 20
269.2322220693200165
 30
0.0
 40
0.0592109705139712
 50
358.8798203984503061
 51
87.6837994134230314
  0
ARC
  5
BDCE
  8
0
 10
4527.0960656493916758
 20
268.7444267619965217
 30
0.0
 40
57.6586393036827687
 50
179.5164190301464942
 51
181.0301500888164128
  0
LINE
  5
BDCF
  8
0
 10
4463.8458748060347716
 20
268.6158969129410252
 30
0.0
 11
4463.8207219272471775
 21
268.5608665440847176
 31
0.0
  0
LINE
  5
BDD0
  8
0
 10
4463.8116269411411849
 20
268.5650236138695277
 30
0.0
 11
4464.4482759639413416
 21
268.2740287310696203
 31
0.0
  0
LINE
  5
BDD1
  8
0
 10
4464.4482759639413416
 20
268.2740287310696203
 30
0.0
 11
4464.3963125920417951
 21
268.1603414055696248
 31
0.0
  0
LINE
  5
BDD2
  8
0
 10
4464.3963125920417951
 20
268.1603414055696248
 30
0.0
 11
4463.7596635693862481
 21
268.4513362883034802
 31
0.0
  0
LINE
  5
BDD3
  8
0
 10
4463.7596635693862481
 20
268.4513362883034802
 30
0.0
 11
4463.8116269411411849
 21
268.5650236138695277
 31
0.0
  0
LINE
  5
BDD4
  8
0
 10
4463.8497039310423133
 20
268.4101812977694976
 30
0.0
 11
4463.8369780933162474
 21
268.3823392542587953
 31
0.0
  0
LINE
  5
BDD5
  8
0
 10
4463.8369780933162474
 20
268.3823392542587953
 30
0.0
 11
4464.2934268847420753
 21
268.1733928892696213
 31
0.0
  0
LINE
  5
BDD6
  8
0
 10
4464.2934268847420753
 20
268.1733928892696213
 30
0.0
 11
4464.3062722302765906
 21
268.2014963961224225
 31
0.0
  0
LINE
  5
BDD7
  8
0
 10
4464.4391809779172036
 20
268.2781858008165727
 30
0.0
 11
4464.4643337834950216
 21
268.3332160094033156
 31
0.0
  0
ARC
  5
BDD8
  8
0
 10
4467.8615902205747261
 20
264.3849400977338746
 30
0.0
 40
0.0137688698290656
 50
89.9715837622921839
 51
155.3177003098639943
  0
ARC
  5
BDD9
  8
0
 10
4468.0221192468261506
 20
264.3189810084671763
 30
0.0
 40
0.1873098185793589
 50
157.4905908760154887
 51
170.5957970292539869
  0
ARC
  5
BDDA
  8
0
 10
4468.0229783589402359
 20
264.3187877060695996
 30
0.0
 40
0.1881889763997008
 50
170.5804745457992055
 51
180.0000000000098055
  0
LINE
  5
BDDB
  8
0
 10
4467.8347893825412029
 20
264.3187877060694859
 30
0.0
 11
4467.8347893825412029
 21
264.2888664461696067
 31
0.0
  0
ARC
  5
BDDC
  8
0
 10
4469.6583839381946746
 20
264.3849427374075844
 30
0.0
 40
0.013766229419932
 50
24.6752592491005913
 51
89.9786242041573558
  0
ARC
  5
BDDD
  8
0
 10
4469.4978532190571059
 20
264.3189810084671763
 30
0.0
 40
0.1873098185793589
 50
9.4042029707460237
 51
22.5094091239845291
  0
ARC
  5
BDDE
  8
0
 10
4469.4969941069421111
 20
264.3187877060695996
 30
0.0
 40
0.1881889763997008
 50
359.9999999999902229
 51
9.4195254542008318
  0
LINE
  5
BDDF
  8
0
 10
4469.6851830833420536
 20
264.3187877060694859
 30
0.0
 11
4469.6851830833420536
 21
264.2888664461696067
 31
0.0
  0
ARC
  5
BDE0
  8
0
 10
4507.276484894384339
 20
268.2443087180599832
 30
0.0
 40
37.8323972739007317
 50
181.5684233215559971
 51
183.7502910252298136
  0
ARC
  5
BDE1
  8
0
 10
4482.7784117353467082
 20
266.6384952020619039
 30
0.0
 40
13.2817511407815694
 50
183.7502910252298136
 51
188.3555171182418064
  0
ARC
  5
BDE2
  8
0
 10
4471.4672591340349754
 20
264.9771816380205109
 30
0.0
 40
1.8492476560560911
 50
188.3555171182418064
 51
196.7949599081316023
  0
ARC
  5
BDE3
  8
0
 10
4470.2253352967445608
 20
264.6023419273622039
 30
0.0
 40
0.551989152011408
 50
196.7949599081316023
 51
207.3357380117111859
  0
LINE
  5
BDE4
  8
0
 10
4469.7349862329419921
 20
264.3488664461694952
 30
0.0
 11
4469.7349862329419921
 21
264.2888664461696067
 31
0.0
  0
ARC
  5
BDE5
  8
0
 10
4469.7374762725303299
 20
264.0533373902301832
 30
0.0
 40
0.3013282418019739
 50
95.8041343883440675
 51
100.4892666766009057
  0
ARC
  5
BDE6
  8
0
 10
4469.7181418320587909
 20
264.2435448936461739
 30
0.0
 40
0.1101405985189883
 50
87.3777380688311212
 51
95.8041343883440675
  0
ARC
  5
BDE7
  8
0
 10
4469.7222925783808023
 20
264.3341743505238242
 30
0.0
 40
0.0194161412379179
 50
49.1736902558583893
 51
87.3777380688833176
  0
ARC
  5
BDE8
  8
0
 10
4467.8052014555551068
 20
264.2923586007229915
 30
0.0
 40
0.0600148976053592
 50
84.5022106986023402
 51
109.6842680783437061
  0
ARC
  5
BDE9
  8
0
 10
4467.8029723417103014
 20
264.12844342439098
 30
0.0
 40
0.2237962812216121
 50
81.1648829396145857
 51
87.9568074445591463
  0
LINE
  5
BDEA
  8
0
 10
4468.4163486150418976
 20
266.8299086724819063
 30
0.0
 11
4469.104777452752387
 21
266.8299086724819063
 31
0.0
  0
LINE
  5
BDEB
  8
0
 10
4469.0166339402421727
 20
266.9226085245211948
 30
0.0
 11
4468.5033385255419489
 21
266.9226085245211948
 31
0.0
  0
LINE
  5
BDEC
  8
0
 10
4468.5068933197044316
 20
267.464351699312715
 30
0.0
 11
4469.0130787344423879
 21
267.464351699312715
 31
0.0
  0
LINE
  5
BDED
  8
0
 10
4469.0987297769406723
 20
267.5569679283817095
 30
0.0
 11
4468.4212465055406938
 21
267.5569679283817095
 31
0.0
  0
LINE
  5
BDEE
  8
0
 10
4468.396344224742279
 20
267.5320025724695938
 30
0.0
 11
4468.3963443889424525
 21
266.8499153446695118
 31
0.0
  0
LINE
  5
BDEF
  8
0
 10
4468.4891146270419995
 20
266.936832439969578
 30
0.0
 11
4468.4891146270419995
 21
267.4465718704695973
 31
0.0
  0
LINE
  5
BDF0
  8
0
 10
4469.0308578393423886
 20
267.4465718752696262
 30
0.0
 11
4469.0308578393423886
 21
266.9368324394695833
 31
0.0
  0
LINE
  5
BDF1
  8
0
 10
4469.1236280769417135
 20
266.8499149253696032
 30
0.0
 11
4469.1236282411409775
 21
267.5320005844695856
 31
0.0
  0
ARC
  5
BDF2
  8
0
 10
4468.4192266712916535
 20
266.8527906030990948
 30
0.0
 40
0.0230622192458955
 50
187.1619283542488006
 51
262.8310660293665819
  0
ARC
  5
BDF3
  8
0
 10
4469.2832919132597453
 20
269.3427620164480913
 30
0.0
 40
0.0349815115985852
 50
277.555626732301107
 51
351.4890908466559267
  0
ARC
  5
BDF4
  8
0
 10
4469.0999032190884463
 20
266.853385354653426
 30
0.0
 40
0.0239773384592758
 50
281.7291239841526931
 51
351.6778989456375939
  0
LINE
  5
BDF5
  8
0
 10
4467.9149862329422831
 20
264.4487089658696277
 30
0.0
 11
4467.9149862329422831
 21
264.3987089658696163
 31
0.0
  0
LINE
  5
BDF6
  8
0
 10
4468.409986232942174
 20
266.6523089657695778
 30
0.0
 11
4468.409986232942174
 21
266.7834741044944735
 31
0.0
  0
LINE
  5
BDF7
  8
0
 10
4468.385986232941832
 20
266.6523089657695778
 30
0.0
 11
4468.385986232941832
 21
266.6277089658696013
 31
0.0
  0
LINE
  5
BDF8
  8
0
 10
4469.6049862329409734
 20
264.4487089658696277
 30
0.0
 11
4467.9149862329422831
 21
264.4487089658696277
 31
0.0
  0
LINE
  5
BDF9
  8
0
 10
4468.4109862329405587
 20
266.6277089658696013
 30
0.0
 11
4469.1089862329408788
 21
266.6277089658696013
 31
0.0
  0
ARC
  5
BDFA
  8
0
 10
4462.402068685642007
 20
266.816775712669596
 30
0.0
 40
6.0
 50
336.7541197625939162
 51
357.9180161422005995
  0
ARC
  5
BDFB
  8
0
 10
4468.4317082179732097
 20
266.5939548269608963
 30
0.0
 40
0.0339477082260145
 50
96.1214913034733343
 51
171.7964228252178032
  0
ARC
  5
BDFC
  8
0
 10
4467.9896369231737481
 20
267.3169082402762911
 30
0.0
 40
1.018511225086042
 50
292.9055832747998238
 51
315.1657777404616922
  0
ARC
  5
BDFD
  8
0
 10
4468.7084945311089541
 20
266.6034221288372237
 30
0.0
 40
0.0057503680348896
 50
306.4865004115806073
 51
353.1695307516037019
  0
ARC
  5
BDFE
  8
0
 10
4468.8396843484069905
 20
266.6057270527472269
 30
0.0
 40
0.1255158535950533
 50
169.9136274618975904
 51
181.3644757789109008
  0
LINE
  5
BDFF
  8
0
 10
4469.1099862329419921
 20
266.6523089657695778
 30
0.0
 11
4469.1099862329419921
 21
266.7834681980720006
 31
0.0
  0
ARC
  5
BE00
  8
0
 10
4475.117903780242159
 20
266.816775712669596
 30
0.0
 40
6.0
 50
182.0819838577994005
 51
203.2458802374061122
  0
ARC
  5
BE01
  8
0
 10
4469.0882642479100468
 20
266.5939548269608963
 30
0.0
 40
0.0339477082260145
 50
8.2035771747822022
 51
83.8785086965266373
  0
ARC
  5
BE02
  8
0
 10
4469.5303355427076895
 20
267.3169082402762911
 30
0.0
 40
1.018511225086042
 50
224.8342222595383078
 51
247.0944167252000909
  0
ARC
  5
BE03
  8
0
 10
4468.8114779347743024
 20
266.6034221288372237
 30
0.0
 40
0.0057503680348896
 50
186.8304692483962981
 51
233.5134995884193927
  0
ARC
  5
BE04
  8
0
 10
4468.6802881174771755
 20
266.6057270527472269
 30
0.0
 40
0.1255158535950533
 50
358.6355242210890992
 51
10.0863725381024203
  0
ARC
  5
BE05
  8
0
 10
4468.4247444936636384
 20
267.5285764174661836
 30
0.0
 40
0.0286061848725381
 50
97.0237542929157541
 51
173.1211868362360065
  0
ARC
  5
BE06
  8
0
 10
4469.0971136454427324
 20
267.5304576962415126
 30
0.0
 40
0.0265594482085783
 50
3.3302943392621152
 51
86.5114202770180754
  0
ARC
  5
BE07
  8
0
 10
4468.5190833312672112
 20
267.4343837740273102
 30
0.0
 40
0.0323523249210629
 50
112.1349490046044934
 51
157.8687124720727013
  0
ARC
  5
BE08
  8
0
 10
4469.0014272959278969
 20
267.4349216271527894
 30
0.0
 40
0.0316525696706363
 50
21.5964179462054986
 51
68.4012645561256392
  0
ARC
  5
BE09
  8
0
 10
4469.0016687310126144
 20
266.9517976161744173
 30
0.0
 40
0.0328018377360903
 50
297.1441551614594232
 51
332.8559086826040243
  0
ARC
  5
BE0A
  8
0
 10
4468.5182464553627142
 20
266.951740335079478
 30
0.0
 40
0.0327247422903277
 50
207.1006006891416007
 51
242.8993310406524984
  0
ARC
  5
BE0B
  8
0
 10
4469.1480668774520382
 20
266.9441881596844723
 30
0.0
 40
0.1508972079812576
 50
229.2296720713142975
 51
250.2567587452695079
  0
ARC
  5
BE0C
  8
0
 10
4469.0863536554188613
 20
266.7809610205310946
 30
0.0
 40
0.023765198496014
 50
6.0558510501636089
 51
63.13490790555921
  0
ARC
  5
BE0D
  8
0
 10
4468.3709971851112641
 20
266.9457604723083932
 30
0.0
 40
0.1526816089707738
 50
289.8944472436912747
 51
310.6432089053981258
  0
ARC
  5
BE0E
  8
0
 10
4468.4360625364070074
 20
266.7792585832132204
 30
0.0
 40
0.0264148485155597
 50
119.7552061964672987
 51
170.816954433067508
  0
LINE
  5
BE0F
  8
0
 10
4468.4029182227377532
 20
266.8364841484764156
 30
0.0
 11
4468.4951065543909863
 21
266.9286004616794798
 31
0.0
  0
LINE
  5
BE10
  8
0
 10
4468.4044912976296473
 20
267.5487784436862171
 30
0.0
 11
4468.4962060519792431
 21
267.4572595913934947
 31
0.0
  0
LINE
  5
BE11
  8
0
 10
4469.1159199347821414
 20
267.5492121029363943
 30
0.0
 11
4469.0238094952292158
 21
267.4573029211563266
 31
0.0
  0
LINE
  5
BE12
  8
0
 10
4469.1173542805909165
 20
266.8369423253694208
 30
0.0
 11
4469.024863145834388
 21
266.92860322719838
 31
0.0
  0
LINE
  5
BE13
  8
0
 10
4468.8182488696347718
 20
270.2457523280642135
 30
0.0
 11
4468.751607099236935
 21
270.1573157116695825
 31
0.0
  0
LINE
  5
BE14
  8
0
 10
4469.4381694394369333
 20
270.1304823936695811
 30
0.0
 11
4468.746913803037387
 21
270.1304823936695811
 31
0.0
  0
LINE
  5
BE15
  8
0
 10
4468.8422079349365958
 20
270.2576978773695942
 30
0.0
 11
4469.3428753075513669
 21
270.2576978773695942
 31
0.0
  0
ARC
  5
BE16
  8
0
 10
4465.8678010778639873
 20
269.2881494095975086
 30
0.0
 40
2.999802483549336
 50
0.9442524620931884
 51
16.3077270839642203
  0
ARC
  5
BE17
  8
0
 10
4468.8427886451872837
 20
270.2265331527992203
 30
0.0
 40
0.0311701344552078
 50
91.0675017220819427
 51
141.9324983028047882
  0
ARC
  5
BE18
  8
0
 10
4468.775604431298234
 20
270.1392913443727934
 30
0.0
 40
0.0300124934398214
 50
143.0898314010262027
 51
197.0681794950650954
  0
LINE
  5
BE19
  8
0
 10
4469.366834372838639
 20
270.2457523280642135
 30
0.0
 11
4469.4334761432373853
 21
270.1573157116695825
 31
0.0
  0
ARC
  5
BE1A
  8
0
 10
4472.3172249838125936
 20
269.2881624428976011
 30
0.0
 40
2.9997439435833608
 50
163.6922051635092998
 51
179.0559786041835082
  0
ARC
  5
BE1B
  8
0
 10
4469.3422945972879461
 20
270.2265331527992203
 30
0.0
 40
0.0311701344552078
 50
38.0675016971951621
 51
88.9324982779180715
  0
ARC
  5
BE1C
  8
0
 10
4469.4094788111769958
 20
270.1392913443727934
 30
0.0
 40
0.0300124934398214
 50
342.9318205049348762
 51
36.9101685989712109
  0
LINE
  5
BE1D
  8
0
 10
4469.6049862329991811
 20
264.4487089658696277
 30
0.0
 11
4469.6049862329991811
 21
264.3987089658696163
 31
0.0
  0
ARC
  5
BE1E
  8
0
 10
4461.9943210775672924
 20
267.0389869742381279
 30
0.0
 40
6.1288776131450931
 50
358.0888052152131991
 51
6.2649554022717409
  0
ARC
  5
BE1F
  8
0
 10
4480.0936355203893982
 20
267.7038846522934818
 30
0.0
 40
10.6468907018961492
 50
179.9788840709881015
 51
182.665192927843691
  0
LINE
  5
BE20
  8
0
 10
4469.2878915865439922
 20
269.3080842258694929
 30
0.0
 11
4468.8966259637509211
 21
269.3080842258694929
 31
0.0
  0
ARC
  5
BE21
  8
0
 10
4468.9019838211761453
 20
269.3428604283880077
 30
0.0
 40
0.0351865158518197
 50
188.6230042014387038
 51
261.2414896645717022
  0
LINE
  5
BE23
  8
0
 10
4469.133986232942334
 20
266.6277089658696013
 30
0.0
 11
4468.385986232941832
 21
266.6277089658696013
 31
0.0
  0
LINE
  5
BE24
  8
0
 10
4469.133986232942334
 20
266.6523089657695778
 30
0.0
 11
4468.385986232941832
 21
266.6523089657695778
 31
0.0
  0
LINE
  5
BE25
  8
0
 10
4469.133986232942334
 20
266.6277089658696013
 30
0.0
 11
4469.133986232942334
 21
266.6523089657695778
 31
0.0
  0
LINE
  5
BE26
  8
0
 10
4469.2459949194071669
 20
269.3080842258694929
 30
0.0
 11
4469.2461792379035614
 21
269.2960947989213878
 31
0.0
  0
ENDSEC
  0
EOF
