  0
SECTION
  2
HEADER
  9
$ACADVER
  1
AC1009
  9
$INSBASE
 10
4675.8973333506810377
 20
-4.460185822608536
 30
0.0
  9
$EXTMIN
 10
4666.2988389782158265
 20
-7.6063943981742019
 30
0.0
  9
$EXTMAX
 10
4678.3381962311314055
 20
1.368179104049855
 30
0.0
  9
$LIMMIN
 10
0.0
 20
0.0
  9
$LIMMAX
 10
11.6929133858000007
 20
8.2677165353999982
  9
$ORTHOMODE
 70
     0
  9
$REGENMODE
 70
     1
  9
$FILLMODE
 70
     1
  9
$QTEXTMODE
 70
     0
  9
$MIRRTEXT
 70
     0
  9
$DRAGMODE
 70
     2
  9
$LTSCALE
 40
0.6431102362
  9
$OSMODE
 70
  2039
  9
$ATTMODE
 70
     1
  9
$TEXTSIZE
 40
0.2
  9
$TRACEWID
 40
0.05
  9
$TEXTSTYLE
  7
STANDARD
  9
$CLAYER
  8
0
  9
$CELTYPE
  6
BYLAYER
  9
$CECOLOR
 62
   256
  9
$DIMSCALE
 40
1.0
  9
$DIMASZ
 40
0.1875
  9
$DIMEXO
 40
0.0625
  9
$DIMDLI
 40
0.4443307087
  9
$DIMRND
 40
0.0
  9
$DIMDLE
 40
0.0
  9
$DIMEXE
 40
0.125
  9
$DIMTP
 40
0.01
  9
$DIMTM
 40
0.01
  9
$DIMTXT
 40
2.0
  9
$DIMCEN
 40
0.1052362205
  9
$DIMTSZ
 40
0.0
  9
$DIMTOL
 70
     1
  9
$DIMLIM
 70
     0
  9
$DIMTIH
 70
     1
  9
$DIMTOH
 70
     1
  9
$DIMSE1
 70
     0
  9
$DIMSE2
 70
     0
  9
$DIMTAD
 70
     0
  9
$DIMZIN
 70
     0
  9
$DIMBLK
  1

  9
$DIMASO
 70
     1
  9
$DIMSHO
 70
     1
  9
$DIMPOST
  1
\X
  9
$DIMAPOST
  1

  9
$DIMALT
 70
     1
  9
$DIMALTD
 70
     2
  9
$DIMALTF
 40
25.3999999999999986
  9
$DIMLFAC
 40
1.0
  9
$DIMTOFL
 70
     0
  9
$DIMTVP
 40
0.0
  9
$DIMTIX
 70
     0
  9
$DIMSOXD
 70
     0
  9
$DIMSAH
 70
     0
  9
$DIMBLK1
  1

  9
$DIMBLK2
  1

  9
$DIMSTYLE
  2
STANDARD
  9
$DIMCLRD
 70
     0
  9
$DIMCLRE
 70
     0
  9
$DIMCLRT
 70
     0
  9
$DIMTFAC
 40
1.0
  9
$DIMGAP
 40
0.09
  9
$LUNITS
 70
     2
  9
$LUPREC
 70
     4
  9
$SKETCHINC
 40
0.1
  9
$FILLETRAD
 40
0.0
  9
$AUNITS
 70
     0
  9
$AUPREC
 70
     0
  9
$MENU
  1
.
  9
$ELEVATION
 40
0.0
  9
$PELEVATION
 40
0.0
  9
$THICKNESS
 40
0.0
  9
$LIMCHECK
 70
     0
  9
$BLIPMODE
 70
     0
  9
$CHAMFERA
 40
0.0
  9
$CHAMFERB
 40
0.0
  9
$SKPOLY
 70
     0
  9
$TDCREATE
 40
2458060.468368056230247
  9
$TDUPDATE
 40
2459983.6973032411187887
  9
$TDINDWG
 40
0.4482709491
  9
$TDUSRTIMER
 40
0.4482709491
  9
$USRTIMER
 70
     1
  9
$ANGBASE
 50
0.0
  9
$ANGDIR
 70
     0
  9
$PDMODE
 70
     0
  9
$PDSIZE
 40
0.3125
  9
$PLINEWID
 40
0.0
  9
$COORDS
 70
     1
  9
$SPLFRAME
 70
     0
  9
$SPLINETYPE
 70
     6
  9
$SPLINESEGS
 70
     8
  9
$ATTDIA
 70
     1
  9
$ATTREQ
 70
     1
  9
$HANDLING
 70
     1
  9
$HANDSEED
  5
12F7A
  9
$SURFTAB1
 70
     6
  9
$SURFTAB2
 70
     6
  9
$SURFTYPE
 70
     6
  9
$SURFU
 70
     6
  9
$SURFV
 70
     6
  9
$UCSNAME
  2

  9
$UCSORG
 10
0.0
 20
0.0
 30
0.0
  9
$UCSXDIR
 10
1.0
 20
0.0
 30
0.0
  9
$UCSYDIR
 10
0.0
 20
1.0
 30
0.0
  9
$PUCSNAME
  2

  9
$PUCSORG
 10
0.0
 20
0.0
 30
0.0
  9
$PUCSXDIR
 10
1.0
 20
0.0
 30
0.0
  9
$PUCSYDIR
 10
0.0
 20
1.0
 30
0.0
  9
$USERI1
 70
     0
  9
$USERI2
 70
     0
  9
$USERI3
 70
     0
  9
$USERI4
 70
     0
  9
$USERI5
 70
     0
  9
$USERR1
 40
0.0
  9
$USERR2
 40
0.0
  9
$USERR3
 40
0.0
  9
$USERR4
 40
0.0
  9
$USERR5
 40
0.0
  9
$WORLDVIEW
 70
     1
  9
$SHADEDGE
 70
     3
  9
$SHADEDIF
 70
    70
  9
$TILEMODE
 70
     1
  9
$MAXACTVP
 70
    64
  9
$PLIMCHECK
 70
     0
  9
$PEXTMIN
 10
1.0000000000000000E+20
 20
1.0000000000000000E+20
 30
1.0000000000000000E+20
  9
$PEXTMAX
 10
-1.0000000000000000E+20
 20
-1.0000000000000000E+20
 30
-1.0000000000000000E+20
  9
$PLIMMIN
 10
0.0
 20
0.0
  9
$PLIMMAX
 10
12.0
 20
9.0
  9
$UNITMODE
 70
     0
  9
$VISRETAIN
 70
     1
  9
$PLINEGEN
 70
     0
  9
$PSLTSCALE
 70
     1
  0
ENDSEC
  0
SECTION
  2
TABLES
  0
TABLE
  2
VPORT
 70
     1
  0
VPORT
  2
*ACTIVE
 70
     0
 10
0.0
 20
0.0
 11
1.0
 21
1.0
 12
102.2778625748997996
 22
-3.3194942318984948
 13
0.0
 23
0.0
 14
1.0
 24
1.0
 15
0.0
 25
0.0
 16
0.0
 26
0.0
 36
143.5758621644795028
 17
4567.0861816406240905
 27
-0.6193671226501465
 37
0.0
 40
19.5666272406174997
 41
2.4628205128205121
 42
50.0
 43
0.0
 44
0.0
 50
0.0
 51
0.0
 71
     0
 72
   100
 73
     1
 74
     1
 75
     0
 76
     0
 77
     0
 78
     0
  0
ENDTAB
  0
TABLE
  2
LTYPE
 70
     2
  0
LTYPE
  2
CONTINUOUS
 70
     0
  3
Solid line
 72
    65
 73
     0
 40
0.0
  0
LTYPE
  2
PHANTOM2
 70
     0
  3
___ _ _ ___ _ _ ___ _ _ ___ _ _
 72
    65
 73
     6
 40
1.25
 49
0.625
 49
-0.125
 49
0.125
 49
-0.125
 49
0.125
 49
-0.125
  0
ENDTAB
  0
TABLE
  2
LAYER
 70
     2
  0
LAYER
  2
0
 70
     0
 62
   255
  6
CONTINUOUS
  0
LAYER
  2
DEFPOINTS
 70
     0
 62
     7
  6
CONTINUOUS
  0
ENDTAB
  0
TABLE
  2
STYLE
 70
     1
  0
STYLE
  2
STANDARD
 70
     0
 40
0.0
 41
0.8
 50
0.0
 71
     0
 42
0.2
  3
txt
  4

  0
ENDTAB
  0
TABLE
  2
VIEW
 70
     0
  0
ENDTAB
  0
TABLE
  2
UCS
 70
     0
  0
ENDTAB
  0
TABLE
  2
APPID
 70
    10
  0
APPID
  2
ACAD
 70
     0
  0
APPID
  2
ACAD_MLEADERVER
 70
     0
  0
APPID
  2
ACAD_EXEMPT_FROM_CAD_STANDARDS
 70
     0
  0
APPID
  2
ACAD_NAV_VCDISPLAY
 70
     0
  0
APPID
  2
ACAECLAYERSTANDARD
 70
     0
  0
APPID
  2
ACCMTRANSPARENCY
 70
     0
  0
APPID
  2
ACAD_DSTYLE_DIMJAG
 70
     0
  0
APPID
  2
ACAD_DSTYLE_DIMTALN
 70
     0
  0
APPID
  2
ACDBATTR
 70
     0
  0
APPID
  2
ACADANNOTATIVE
 70
     0
  0
ENDTAB
  0
TABLE
  2
DIMSTYLE
 70
     1
  0
DIMSTYLE
  2
STANDARD
 70
     0
  3

  4

  5

  6

  7

 40
1.0
 41
0.1875
 42
0.0625
 43
0.38
 44
0.125
 45
0.0
 46
0.0
 47
0.01
 48
0.01
140
0.15625
141
0.09
142
0.0
143
25.3999999999999986
144
1.0
145
0.0
146
1.0
147
0.09
 71
     1
 72
     0
 73
     1
 74
     1
 75
     0
 76
     0
 77
     0
 78
     4
170
     0
171
     2
172
     0
173
     0
174
     0
175
     0
176
     0
177
     0
178
     0
  0
ENDTAB
  0
ENDSEC
  0
SECTION
  2
BLOCKS
  0
BLOCK
  8
0
  2
$MODEL_SPACE
 70
     0
 10
0.0
 20
0.0
 30
0.0
  3
$MODEL_SPACE
  1

  0
ENDBLK
  5
21
  8
0
  0
BLOCK
 67
     1
  8
0
  2
$PAPER_SPACE
 70
     0
 10
0.0
 20
0.0
 30
0.0
  3
$PAPER_SPACE
  1

  0
ENDBLK
  5
1D
 67
     1
  8
0
  0
BLOCK
  8
0
  2
_FILLED
 70
     0
 10
0.0
 20
0.0
 30
0.0
  3
_FILLED
  1

  0
SOLID
  5
12273
  8
0
  6
BYBLOCK
 62
     0
 10
0.0
 20
0.0
 30
0.0
 11
-1.0
 21
0.1666666667
 31
0.0
 12
-1.0
 22
-0.1666666667
 32
0.0
 13
-1.0
 23
-0.1666666667
 33
0.0
  0
ENDBLK
  5
12274
  8
0
  6
BYBLOCK
 62
     0
  0
ENDSEC
  0
SECTION
  2
ENTITIES
  0
ATTDEF
  5
3930
  8
DEFPOINTS
 10
4675.8985020204054308
 20
-4.4557392669793776
 30
0.0
 40
0.001
  1
K-22557T-3S
  3

  2
MODELNUMBER
 70
     0
1001
ACDBATTR
1070
     0
1070
     1
  0
ATTDEF
  5
3931
  8
DEFPOINTS
 10
4675.8985020204054308
 20
-4.4574059336460428
 30
0.0
 40
0.001
  1
MEMOIRS
  3

  2
TRADENAME
 70
     0
1001
ACDBATTR
1070
     0
1070
     1
  0
ATTDEF
  5
3932
  8
DEFPOINTS
 10
4675.8985020204054308
 20
-4.4590726003127079
 30
0.0
 40
0.001
  1
BATHROOM SINK FAUCET
  3

  2
PRODUCT
 70
     0
1001
ACDBATTR
1070
     0
1070
     1
  0
LINE
  5
12E52
  8
0
 10
4675.867412091180995
 20
-5.3853838904085363
 30
0.0
 11
4675.8973333506810377
 21
-5.3853838904085363
 31
0.0
  0
LINE
  5
12E53
  8
0
 10
4675.8973333506810377
 20
-5.3853838904085363
 30
0.0
 11
4675.8973333506810377
 21
-3.534988566408535
 31
0.0
  0
LINE
  5
12E54
  8
0
 10
4675.7874908308813247
 20
-5.3585746004085371
 30
0.0
 11
4675.7874908308813247
 21
-3.5617962332085349
 31
0.0
  0
LINE
  5
12E55
  8
0
 10
4675.7874908309813691
 20
-5.3051854168085359
 30
0.0
 11
4675.736490830980074
 21
-5.3051854168085359
 31
0.0
  0
LINE
  5
12E56
  8
0
 10
4675.736490830980074
 20
-5.3051854168085359
 30
0.0
 11
4675.7364908310819374
 21
-3.6151854168085351
 31
0.0
  0
LINE
  5
12E57
  8
0
 10
4673.5338908309813633
 20
-4.8341854168085332
 30
0.0
 11
4673.5574908309818056
 21
-4.8341854168085332
 31
0.0
  0
LINE
  5
12E58
  8
0
 10
4673.5574908309818056
 20
-4.8341854168085332
 30
0.0
 11
4673.5574908309818056
 21
-4.0861854168085321
 31
0.0
  0
LINE
  5
12E59
  8
0
 10
4673.5338908309813633
 20
-4.0861854168085321
 30
0.0
 11
4673.5338908309813633
 21
-4.8341854168085332
 31
0.0
  0
LINE
  5
12E5A
  8
0
 10
4673.5038908309807084
 20
-4.7951821932085306
 30
0.0
 11
4673.4138908309805629
 21
-4.7951854168085308
 31
0.0
  0
LINE
  5
12E5B
  8
0
 10
4673.383890830981727
 20
-4.7651854166632353
 30
0.0
 11
4673.383890830981727
 21
-4.1551854170085338
 31
0.0
  0
LINE
  5
12E5C
  8
0
 10
4673.3538908309810722
 20
-4.6801854168085333
 30
0.0
 11
4673.2633908309808248
 21
-4.6801854168085333
 31
0.0
  0
LINE
  5
12E5D
  8
0
 10
4673.2333908309810795
 20
-4.7458047121085318
 30
0.0
 11
4673.2333908309810795
 21
-4.1745661215085326
 31
0.0
  0
LINE
  5
12E5E
  8
0
 10
4673.1890808837606528
 20
-4.7913461700592546
 30
0.0
 11
4673.0217007781948269
 21
-4.7957678413256124
 31
0.0
  0
LINE
  5
12E5F
  8
0
 10
4672.9510355881811847
 20
-5.7364308263085366
 30
0.0
 11
4672.5221416991817023
 21
-5.7193902001085331
 31
0.0
  0
LINE
  5
12E60
  8
0
 10
4672.4783901850560142
 20
-5.6740405492596713
 30
0.0
 11
4672.4783910926807948
 21
-4.4896947938085336
 31
0.0
  0
ARC
  5
12E61
  8
0
 10
4673.5038963332972344
 20
-4.76518769594239
 30
0.0
 40
0.0299944977708236
 50
269.9894894232219258
 51
0.0043529952109495
  0
ARC
  5
12E62
  8
0
 10
4673.4138908309805629
 20
-4.7651854168085341
 30
0.0
 40
0.0299999999999998
 50
179.9999999999996021
 51
270.0
  0
ARC
  5
12E63
  8
0
 10
4673.3538908309810722
 20
-4.7101854168085344
 30
0.0
 40
0.0300000000000008
 50
0.0000012447015761
 51
90.0
  0
ARC
  5
12E64
  8
0
 10
4673.2633908309808248
 20
-4.6501854168085348
 30
0.0
 40
0.0299999999999977
 50
179.9999999999957083
 51
270.0
  0
ARC
  5
12E65
  8
0
 10
4673.1878790025248236
 20
-4.745850191344263
 30
0.0
 40
0.0455118511790001
 50
271.5132482420661972
 51
0.057254728801979
  0
ARC
  5
12E66
  8
0
 10
4673.0229026419810907
 20
-4.8412637803085357
 30
0.0
 40
0.0455118110000008
 50
91.5132276040205141
 51
179.999999999997101
  0
ARC
  5
12E67
  8
0
 10
4672.9509277835759349
 20
-5.7099673757608818
 30
0.0
 40
0.0264636701294656
 50
270.2334054937774113
 51
359.6053966427214732
  0
LINE
  5
12E68
  8
0
 10
4672.9773908260885946
 20
-5.7101496329989256
 30
0.0
 11
4672.9773908260885946
 21
-3.210221211210178
 31
0.0
  0
ARC
  5
12E69
  8
0
 10
4672.5236173959183361
 20
-5.6741868338549839
 30
0.0
 40
0.0452274474352823
 50
179.8146810176475014
 51
268.1302016990068182
  0
ARC
  5
12E6A
  8
0
 10
4675.8674245335996602
 20
-5.197151856704183
 30
0.0
 40
0.1882320341156092
 50
247.7151326563875955
 51
269.9962125414995739
  0
ARC
  5
12E6B
  8
0
 10
4675.801270358142574
 20
-5.3585746005113517
 30
0.0
 40
0.0137795272621879
 50
179.9999995724841995
 51
247.7139147095143983
  0
ARC
  5
12E6C
  8
0
 10
4673.3684240843322186
 20
-10.8181029637035007
 30
0.0
 40
5.9999999995679136
 50
66.7541197624054803
 51
87.9553401324292281
  0
ARC
  5
12E6D
  8
0
 10
4673.5877684874940314
 20
-4.7934208284875472
 30
0.0
 40
0.0304431531013233
 50
185.9770140676097867
 51
248.3328485812363908
  0
LINE
  5
12E6E
  8
0
 10
4673.5824949218813344
 20
-4.8219230405085316
 30
0.0
 11
4673.5765284488579709
 21
-4.8217130023563604
 31
0.0
  0
ARC
  5
12E6F
  8
0
 10
4673.1020208104609992
 20
-5.100651729060611
 30
0.0
 40
0.7541152289945411
 50
20.6919988115491513
 51
36.3153538988024209
  0
ARC
  5
12E70
  8
0
 10
4673.6760386565838417
 20
-4.461308160312444
 30
0.0
 40
0.0995175445570909
 50
179.3535830366344044
 51
194.3015754004123039
  0
ARC
  5
12E71
  8
0
 10
4672.3731698528763445
 20
-5.6180159764708097
 30
0.0
 40
1.647865553240353
 50
35.8017854578895012
 51
40.5711036827902092
  0
ARC
  5
12E72
  8
0
 10
4674.2169815776178439
 20
-4.0352261795063971
 30
0.0
 40
0.7821314218878584
 50
215.783947314530792
 51
220.7972657750183885
  0
ARC
  5
12E73
  8
0
 10
4673.6039707145546345
 20
-4.4792979253695488
 30
0.0
 40
0.0252418485446526
 50
195.1423380877999136
 51
211.7010906623648907
  0
ARC
  5
12E74
  8
0
 10
4672.9524088790512906
 20
-4.5363983548958569
 30
0.0
 40
0.0249812194911354
 50
263.5549164778033742
 51
359.7050096722824719
  0
ARC
  5
12E75
  8
0
 10
4672.5233910401084358
 20
-4.4896970161755387
 30
0.0
 40
0.0449999474817235
 50
179.9971703911404859
 51
268.2778404347623109
  0
ARC
  5
12E76
  8
0
 10
4672.3890933654565742
 20
-10.13276608832434
 30
0.0
 40
5.5996678427922859
 50
84.255229425299774
 51
88.6395763959036316
  0
LINE
  5
12E77
  8
0
 10
4675.8382782413809764
 20
-3.5349901896085361
 30
0.0
 11
4675.8973333506810377
 21
-3.534988566408535
 31
0.0
  0
LINE
  5
12E78
  8
0
 10
4675.7874908309813691
 20
-3.6151854168085351
 30
0.0
 11
4675.736490830980074
 21
-3.6151854168085351
 31
0.0
  0
LINE
  5
12E79
  8
0
 10
4673.5338908309813633
 20
-4.0861854168085321
 30
0.0
 11
4673.5574908309818056
 21
-4.0861854168085321
 31
0.0
  0
LINE
  5
12E7A
  8
0
 10
4673.5038908309807084
 20
-4.1251886404085329
 30
0.0
 11
4673.4138908309805629
 21
-4.1251854168085327
 31
0.0
  0
LINE
  5
12E7B
  8
0
 10
4673.3538908309810722
 20
-4.240185416808532
 30
0.0
 11
4673.2633908309808248
 21
-4.240185416808532
 31
0.0
  0
LINE
  5
12E7C
  8
0
 10
4673.1890808837606528
 20
-4.1290246635578089
 30
0.0
 11
4673.0217007781948269
 21
-4.124602992291452
 31
0.0
  0
LINE
  5
12E7D
  8
0
 10
4672.9522418333690439
 20
-3.1839400077085358
 30
0.0
 11
4672.5221416991817023
 21
-3.2009806335085309
 31
0.0
  0
LINE
  5
12E7E
  8
0
 10
4672.4783901850560142
 20
-3.246330284357394
 30
0.0
 11
4672.4783910926807948
 21
-4.4306760398085343
 31
0.0
  0
ARC
  5
12E7F
  8
0
 10
4673.5038963332972344
 20
-4.1551831376746753
 30
0.0
 40
0.0299944977708236
 50
359.9956470047890775
 51
90.0105105767781737
  0
ARC
  5
12E80
  8
0
 10
4673.4138908309805629
 20
-4.1551854168085312
 30
0.0
 40
0.0299999999999998
 50
90.0
 51
180.0000000000001137
  0
ARC
  5
12E81
  8
0
 10
4673.3538908309810722
 20
-4.21018541680853
 30
0.0
 40
0.0300000000000008
 50
270.0
 51
359.9999987552984066
  0
ARC
  5
12E82
  8
0
 10
4673.2633908309808248
 20
-4.2701854168085287
 30
0.0
 40
0.0299999999999977
 50
90.0
 51
180.0000000000042064
  0
ARC
  5
12E83
  8
0
 10
4673.1878790025248236
 20
-4.1745206422728023
 30
0.0
 40
0.0455118511790001
 50
359.9427452711980209
 51
88.4867517579337886
  0
ARC
  5
12E84
  8
0
 10
4673.0229026419810907
 20
-4.0791070533085279
 30
0.0
 40
0.0455118110000008
 50
180.0000000000025011
 51
268.4867723959794716
  0
ARC
  5
12E85
  8
0
 10
4672.9522893212952113
 20
-3.2090679460232479
 30
0.0
 40
0.0251279831870949
 50
357.369472929531014
 51
90.1082800535693877
  0
ARC
  5
12E86
  8
0
 10
4672.5236173959183361
 20
-3.2461839997620801
 30
0.0
 40
0.0452274474352823
 50
91.8697983009932244
 51
180.1853189823524986
  0
ARC
  5
12E87
  8
0
 10
4675.8674120905534437
 20
-3.7231775404645111
 30
0.0
 40
0.1881889740559732
 50
89.999999930380767
 51
112.2861459224344998
  0
ARC
  5
12E88
  8
0
 10
4675.801270358142574
 20
-3.5617962331057189
 30
0.0
 40
0.0137795272621879
 50
112.2860852904855022
 51
180.0000004275158005
  0
ARC
  5
12E89
  8
0
 10
4673.3684240843322186
 20
1.8977321300864309
 30
0.0
 40
5.9999999995679136
 50
272.0446598675707719
 51
293.2458802375945197
  0
ARC
  5
12E8A
  8
0
 10
4673.5877684874940314
 20
-4.126950005129518
 30
0.0
 40
0.0304431531013233
 50
111.667151418763595
 51
174.0229859323900996
  0
LINE
  5
12E8B
  8
0
 10
4673.5824949218813344
 20
-4.0984477931085319
 30
0.0
 11
4673.5765284488579709
 21
-4.098657831260704
 31
0.0
  0
ARC
  5
12E8C
  8
0
 10
4673.1020208104609992
 20
-3.8197191045564538
 30
0.0
 40
0.7541152289945411
 50
323.6846461011974725
 51
339.3080011884505893
  0
ARC
  5
12E8D
  8
0
 10
4673.6760386565838417
 20
-4.4590626733046239
 30
0.0
 40
0.0995175445570909
 50
165.6984245995876108
 51
180.6464169633657093
  0
ARC
  5
12E8E
  8
0
 10
4672.3731698528763445
 20
-3.3023548571462542
 30
0.0
 40
1.647865553240353
 50
319.4288963172098192
 51
324.1982145421104065
  0
ARC
  5
12E8F
  8
0
 10
4674.2169815776178439
 20
-4.8851446541106673
 30
0.0
 40
0.7821314218878584
 50
139.2027342249814978
 51
144.216052685469009
  0
ARC
  5
12E90
  8
0
 10
4673.6039707145546345
 20
-4.4410729082475147
 30
0.0
 40
0.0252418485446526
 50
148.2989093376349956
 51
164.8576619122000011
  0
ARC
  5
12E91
  8
0
 10
4672.9524088790512906
 20
-4.3839724787212067
 30
0.0
 40
0.0249812194911354
 50
0.2949903277174593
 51
96.4450835221965548
  0
ARC
  5
12E92
  8
0
 10
4672.5233910401084358
 20
-4.4306738174415248
 30
0.0
 40
0.0449999474817235
 50
91.7221595652377317
 51
180.0028296088595141
  0
ARC
  5
12E93
  8
0
 10
4672.3890933654565742
 20
1.212395254707278
 30
0.0
 40
5.5996678427922859
 50
271.3604236040964111
 51
275.744770574700226
  0
LINE
  5
12E94
  8
0
 10
4672.4783910926807948
 20
-4.4896947938085336
 30
0.0
 11
4672.4783910926807948
 21
-4.4306760398085343
 31
0.0
  0
ARC
  5
12E95
  8
0
 10
4674.225374984112932
 20
0.5301010434279032
 30
0.0
 40
4.3733766874367701
 50
291.4882645119034805
 51
291.6416564719763755
  0
ARC
  5
12E96
  8
0
 10
4672.6057838167653244
 20
11.7065772364081209
 30
0.0
 40
15.7102199918740695
 50
271.3554180885540177
 51
273.3013763850008786
  0
ARC
  5
12E97
  8
0
 10
4672.8421182828569727
 20
7.7461519940081054
 30
0.0
 40
11.7427599437845203
 50
273.2629804155495776
 51
276.6639443324390868
  0
ARC
  5
12E98
  8
0
 10
4673.2297493670757831
 20
4.4682966863134661
 30
0.0
 40
8.4420685854564024
 50
276.6325132505131137
 51
281.7090945519041156
  0
ARC
  5
12E99
  8
0
 10
4674.1396613889201035
 20
0.7538043868861984
 30
0.0
 40
4.6129401050019263
 50
289.3224925725502885
 51
290.9635345180457193
  0
ARC
  5
12E9A
  8
0
 10
4673.6218228451425603
 20
2.499694106096976
 30
0.0
 40
6.4348818711945333
 50
281.8479863331331217
 51
285.1419511025220004
  0
ARC
  5
12E9B
  8
0
 10
4673.7981783791283306
 20
1.790789507600651
 30
0.0
 40
5.7045427823912807
 50
285.2920186304348249
 51
289.1128256320869809
  0
ARC
  5
12E9C
  8
0
 10
4671.9891214143781326
 20
-18.5752269165439614
 30
0.0
 40
13.8632948722355902
 50
84.2018557802324779
 51
84.8731172900122885
  0
ARC
  5
12E9D
  8
0
 10
4672.1005210603198066
 20
-17.5022788216624612
 30
0.0
 40
12.7845712873573003
 50
83.5626252408394947
 51
83.6906789498769257
  0
LINE
  5
12E9E
  8
0
 10
4673.5574942675812053
 20
-4.8009999156085357
 30
0.0
 11
4673.5583080296846674
 21
-4.8010933115530472
 31
0.0
  0
ARC
  5
12E9F
  8
0
 10
4673.9841035990002638
 20
-9.2134033651334288
 30
0.0
 40
4.2534556362306608
 50
64.909726407212176
 51
66.671144900087242
  0
ARC
  5
12EA0
  8
0
 10
4673.3608248210048259
 20
-10.7854213734948203
 30
0.0
 40
5.9439919855285961
 50
67.1551174648068496
 51
78.2358431621935608
  0
ARC
  5
12EA1
  8
0
 10
4672.3719961346878335
 20
-15.4101364300101498
 30
0.0
 40
10.6747822481973795
 50
80.6574430623819154
 51
82.1057705560035629
  0
ARC
  5
12EA2
  8
0
 10
4672.6329342219787577
 20
-13.8547581888419593
 30
0.0
 40
9.0976769764350731
 50
77.6890951113936836
 51
80.6888174767912574
  0
ARC
  5
12EA3
  8
0
 10
7173.855731211492639
 20
143427.3165503870113753
 30
0.0
 40
143453.8371244517911691
 50
268.999414418936226
 51
269.0002422148760957
  0
ARC
  5
12EA4
  8
0
 10
4671.535792379780105
 20
-26.5029036708600216
 30
0.0
 40
21.8051291805641796
 50
87.5224338851443804
 51
89.0396147252826751
  0
LINE
  5
12EA5
  8
0
 10
4670.8474118349022319
 20
-4.6824424524498118
 30
0.0
 11
4671.9012703356529528
 21
-4.7008376117713926
 31
0.0
  0
ARC
  5
12EA6
  8
0
 10
4668.7668025032280639
 20
-5.2750176436744773
 30
0.0
 40
0.6288083169600658
 50
89.2402439419608839
 51
157.9987468895409108
  0
ARC
  5
12EA7
  8
0
 10
4668.4589990118302012
 20
-5.1122950900475859
 30
0.0
 40
1.21849734776203
 50
89.9890233804676427
 51
157.7894145885933028
  0
ARC
  5
12EA8
  8
0
 10
4667.3491745349720077
 20
-4.659039757804174
 30
0.0
 40
0.0196853612191831
 50
158.0727461706773909
 51
245.4354937570485049
  0
LINE
  5
12EA9
  8
0
 10
4667.3409909869069452
 20
-4.6769434721499801
 30
0.0
 11
4668.1573171935806386
 21
-5.0500638823085362
 31
0.0
  0
ARC
  5
12EAA
  8
0
 10
4668.1655004347567228
 20
-5.0321597126332707
 30
0.0
 40
0.0196856477646961
 50
245.4368577754208047
 51
338.2663716523276207
  0
LINE
  5
12EAB
  8
0
 10
4667.4409778388026098
 20
-4.7226447308929931
 30
0.0
 11
4667.4240081586040105
 21
-4.7597716047561391
 31
0.0
  0
LINE
  5
12EAC
  8
0
 10
4668.0594368914553343
 20
-5.0053254699224041
 30
0.0
 11
4668.0424672092813125
 21
-5.0424523480085357
 31
0.0
  0
LINE
  5
12EAD
  8
0
 10
4668.0515621952818037
 20
-5.0466094178085363
 30
0.0
 11
4667.414913172580782
 21
-4.7556145350085357
 31
0.0
  0
LINE
  5
12EAE
  8
0
 10
4667.414913172580782
 20
-4.7556145350085357
 30
0.0
 11
4667.3629498005811911
 21
-4.8693018605085356
 31
0.0
  0
LINE
  5
12EAF
  8
0
 10
4667.3629498005811911
 20
-4.8693018605085356
 30
0.0
 11
4667.9995988233813478
 21
-5.1602967433085363
 31
0.0
  0
LINE
  5
12EB0
  8
0
 10
4667.9995988233813478
 20
-5.1602967433085363
 30
0.0
 11
4668.0515621952818037
 21
-5.0466094178085363
 31
0.0
  0
LINE
  5
12EB1
  8
0
 10
4667.3676737434852839
 20
-4.8589666491104024
 30
0.0
 11
4668.0043227662781646
 21
-5.1499615319069649
 31
0.0
  0
LINE
  5
12EB2
  8
0
 10
4667.4529901623809565
 20
-4.9104568511085356
 30
0.0
 11
4667.4319616086668248
 21
-4.9564638738022309
 31
0.0
  0
LINE
  5
12EB3
  8
0
 10
4667.4319616086668248
 20
-4.9564638738022309
 30
0.0
 11
4667.8885299079429387
 21
-5.1651487752716241
 31
0.0
  0
LINE
  5
12EB4
  8
0
 10
4667.8885299079429387
 20
-5.1651487752716241
 30
0.0
 11
4667.9095584615879488
 21
-5.1191417527426131
 31
0.0
  0
ARC
  5
12EB5
  8
0
 10
4661.6059646240792063
 20
-286.3203040718265129
 30
0.0
 40
282.5096436314411221
 50
87.9140923687247806
 51
88.6099524264870979
  0
ARC
  5
12EB6
  8
0
 10
4672.5073840307995852
 20
23.1509913208732385
 30
0.0
 40
27.1558972761529489
 50
268.6945917365442824
 51
269.9388273946894969
  0
ENDSEC
  0
EOF
