  0
SECTION
  2
HEADER
  9
$ACADVER
  1
AC1009
  9
$INSBASE
 10
2964.5324312271382041
 20
137.0639222787613107
 30
0.0
  9
$EXTMIN
 10
2957.8913411786688812
 20
136.1285448951580861
 30
-0.0000000000112498
  9
$EXTMAX
 10
2971.0389318974648631
 20
137.992078980699489
 30
0.0000000000002956
  9
$LIMMIN
 10
0.0
 20
0.0
  9
$LIMMAX
 10
11.6929133858000007
 20
8.2677165353999982
  9
$ORTHOMODE
 70
     0
  9
$REGENMODE
 70
     1
  9
$FILLMODE
 70
     1
  9
$QTEXTMODE
 70
     0
  9
$MIRRTEXT
 70
     0
  9
$DRAGMODE
 70
     2
  9
$LTSCALE
 40
0.6431102362
  9
$OSMODE
 70
  4095
  9
$ATTMODE
 70
     1
  9
$TEXTSIZE
 40
0.2
  9
$TRACEWID
 40
0.05
  9
$TEXTSTYLE
  7
STANDARD
  9
$CLAYER
  8
0
  9
$CELTYPE
  6
BYLAYER
  9
$CECOLOR
 62
   256
  9
$DIMSCALE
 40
1.0
  9
$DIMASZ
 40
0.1875
  9
$DIMEXO
 40
0.0625
  9
$DIMDLI
 40
0.4443307087
  9
$DIMRND
 40
0.0
  9
$DIMDLE
 40
0.0
  9
$DIMEXE
 40
0.125
  9
$DIMTP
 40
0.01
  9
$DIMTM
 40
0.01
  9
$DIMTXT
 40
2.0
  9
$DIMCEN
 40
0.1052362205
  9
$DIMTSZ
 40
0.0
  9
$DIMTOL
 70
     1
  9
$DIMLIM
 70
     0
  9
$DIMTIH
 70
     1
  9
$DIMTOH
 70
     1
  9
$DIMSE1
 70
     0
  9
$DIMSE2
 70
     0
  9
$DIMTAD
 70
     0
  9
$DIMZIN
 70
     0
  9
$DIMBLK
  1

  9
$DIMASO
 70
     1
  9
$DIMSHO
 70
     1
  9
$DIMPOST
  1
\X
  9
$DIMAPOST
  1

  9
$DIMALT
 70
     1
  9
$DIMALTD
 70
     2
  9
$DIMALTF
 40
25.3999999999999986
  9
$DIMLFAC
 40
1.0
  9
$DIMTOFL
 70
     0
  9
$DIMTVP
 40
0.0
  9
$DIMTIX
 70
     0
  9
$DIMSOXD
 70
     0
  9
$DIMSAH
 70
     0
  9
$DIMBLK1
  1

  9
$DIMBLK2
  1

  9
$DIMSTYLE
  2
STANDARD
  9
$DIMCLRD
 70
     0
  9
$DIMCLRE
 70
     0
  9
$DIMCLRT
 70
     0
  9
$DIMTFAC
 40
1.0
  9
$DIMGAP
 40
0.09
  9
$LUNITS
 70
     2
  9
$LUPREC
 70
     4
  9
$SKETCHINC
 40
0.1
  9
$FILLETRAD
 40
0.0
  9
$AUNITS
 70
     0
  9
$AUPREC
 70
     0
  9
$MENU
  1
.
  9
$ELEVATION
 40
0.0
  9
$PELEVATION
 40
0.0
  9
$THICKNESS
 40
0.0
  9
$LIMCHECK
 70
     0
  9
$BLIPMODE
 70
     0
  9
$CHAMFERA
 40
0.0
  9
$CHAMFERB
 40
0.0
  9
$SKPOLY
 70
     0
  9
$TDCREATE
 40
2458060.468368056230247
  9
$TDUPDATE
 40
2459970.4191898149438202
  9
$TDINDWG
 40
0.3070325231
  9
$TDUSRTIMER
 40
0.3070325231
  9
$USRTIMER
 70
     1
  9
$ANGBASE
 50
0.0
  9
$ANGDIR
 70
     0
  9
$PDMODE
 70
     0
  9
$PDSIZE
 40
0.3125
  9
$PLINEWID
 40
0.0
  9
$COORDS
 70
     1
  9
$SPLFRAME
 70
     0
  9
$SPLINETYPE
 70
     6
  9
$SPLINESEGS
 70
     8
  9
$ATTDIA
 70
     1
  9
$ATTREQ
 70
     1
  9
$HANDLING
 70
     1
  9
$HANDSEED
  5
7884
  9
$SURFTAB1
 70
     6
  9
$SURFTAB2
 70
     6
  9
$SURFTYPE
 70
     6
  9
$SURFU
 70
     6
  9
$SURFV
 70
     6
  9
$UCSNAME
  2

  9
$UCSORG
 10
0.0
 20
0.0
 30
0.0
  9
$UCSXDIR
 10
1.0
 20
0.0
 30
0.0
  9
$UCSYDIR
 10
0.0
 20
1.0
 30
0.0
  9
$PUCSNAME
  2

  9
$PUCSORG
 10
0.0
 20
0.0
 30
0.0
  9
$PUCSXDIR
 10
1.0
 20
0.0
 30
0.0
  9
$PUCSYDIR
 10
0.0
 20
1.0
 30
0.0
  9
$USERI1
 70
     0
  9
$USERI2
 70
     0
  9
$USERI3
 70
     0
  9
$USERI4
 70
     0
  9
$USERI5
 70
     0
  9
$USERR1
 40
0.0
  9
$USERR2
 40
0.0
  9
$USERR3
 40
0.0
  9
$USERR4
 40
0.0
  9
$USERR5
 40
0.0
  9
$WORLDVIEW
 70
     1
  9
$SHADEDGE
 70
     3
  9
$SHADEDIF
 70
    70
  9
$TILEMODE
 70
     1
  9
$MAXACTVP
 70
    64
  9
$PLIMCHECK
 70
     0
  9
$PEXTMIN
 10
1.0000000000000000E+20
 20
1.0000000000000000E+20
 30
1.0000000000000000E+20
  9
$PEXTMAX
 10
-1.0000000000000000E+20
 20
-1.0000000000000000E+20
 30
-1.0000000000000000E+20
  9
$PLIMMIN
 10
0.0
 20
0.0
  9
$PLIMMAX
 10
12.0
 20
9.0
  9
$UNITMODE
 70
     0
  9
$VISRETAIN
 70
     1
  9
$PLINEGEN
 70
     0
  9
$PSLTSCALE
 70
     1
  0
ENDSEC
  0
SECTION
  2
TABLES
  0
TABLE
  2
VPORT
 70
     1
  0
VPORT
  2
*ACTIVE
 70
     0
 10
0.0
 20
0.0
 11
1.0
 21
1.0
 12
11.4758787255668704
 22
12.6924683099991302
 13
0.0
 23
0.0
 14
1.0
 24
1.0
 15
0.0
 25
0.0
 16
0.0
 26
0.0
 36
25.5071890368134113
 17
2952.9892578125
 27
124.3678436279297017
 37
0.0
 40
8.2900717359300096
 41
1.593589743589743
 42
50.0
 43
0.0
 44
0.0
 50
0.0
 51
0.0
 71
     0
 72
   100
 73
     1
 74
     1
 75
     0
 76
     0
 77
     0
 78
     0
  0
ENDTAB
  0
TABLE
  2
LTYPE
 70
     2
  0
LTYPE
  2
CONTINUOUS
 70
     0
  3
Solid line
 72
    65
 73
     0
 40
0.0
  0
LTYPE
  2
PHANTOM2
 70
     0
  3
___ _ _ ___ _ _ ___ _ _ ___ _ _
 72
    65
 73
     6
 40
1.25
 49
0.625
 49
-0.125
 49
0.125
 49
-0.125
 49
0.125
 49
-0.125
  0
ENDTAB
  0
TABLE
  2
LAYER
 70
     2
  0
LAYER
  2
0
 70
     0
 62
   255
  6
CONTINUOUS
  0
LAYER
  2
DEFPOINTS
 70
     0
 62
     7
  6
CONTINUOUS
  0
ENDTAB
  0
TABLE
  2
STYLE
 70
     1
  0
STYLE
  2
STANDARD
 70
     0
 40
0.0
 41
0.8
 50
0.0
 71
     0
 42
0.2
  3
txt
  4

  0
ENDTAB
  0
TABLE
  2
VIEW
 70
     0
  0
ENDTAB
  0
TABLE
  2
UCS
 70
     0
  0
ENDTAB
  0
TABLE
  2
APPID
 70
     9
  0
APPID
  2
ACAD
 70
     0
  0
APPID
  2
ACAD_MLEADERVER
 70
     0
  0
APPID
  2
ACAD_EXEMPT_FROM_CAD_STANDARDS
 70
     0
  0
APPID
  2
ACAD_NAV_VCDISPLAY
 70
     0
  0
APPID
  2
ACAECLAYERSTANDARD
 70
     0
  0
APPID
  2
ACCMTRANSPARENCY
 70
     0
  0
APPID
  2
ACAD_DSTYLE_DIMJAG
 70
     0
  0
APPID
  2
ACAD_DSTYLE_DIMTALN
 70
     0
  0
APPID
  2
ACDBATTR
 70
     0
  0
ENDTAB
  0
TABLE
  2
DIMSTYLE
 70
     1
  0
DIMSTYLE
  2
STANDARD
 70
     0
  3

  4

  5

  6

  7

 40
1.0
 41
0.1875
 42
0.0625
 43
0.38
 44
0.125
 45
0.0
 46
0.0
 47
0.01
 48
0.01
140
0.15625
141
0.09
142
0.0
143
25.3999999999999986
144
1.0
145
0.0
146
1.0
147
0.09
 71
     1
 72
     0
 73
     1
 74
     1
 75
     0
 76
     0
 77
     0
 78
     4
170
     0
171
     2
172
     0
173
     0
174
     0
175
     0
176
     0
177
     0
178
     0
  0
ENDTAB
  0
ENDSEC
  0
SECTION
  2
BLOCKS
  0
BLOCK
  8
0
  2
$MODEL_SPACE
 70
     0
 10
0.0
 20
0.0
 30
0.0
  3
$MODEL_SPACE
  1

  0
ENDBLK
  5
21
  8
0
  0
BLOCK
 67
     1
  8
0
  2
$PAPER_SPACE
 70
     0
 10
0.0
 20
0.0
 30
0.0
  3
$PAPER_SPACE
  1

  0
ENDBLK
  5
1D
 67
     1
  8
0
  0
BLOCK
  8
0
  2
_FILLED
 70
     0
 10
0.0
 20
0.0
 30
0.0
  3
_FILLED
  1

  0
SOLID
  5
7206
  8
0
  6
BYBLOCK
 62
     0
 10
0.0
 20
0.0
 30
0.0
 11
-1.0
 21
0.1666666667
 31
0.0
 12
-1.0
 22
-0.1666666667
 32
0.0
 13
-1.0
 23
-0.1666666667
 33
0.0
  0
ENDBLK
  5
7207
  8
0
  6
BYBLOCK
 62
     0
  0
ENDSEC
  0
SECTION
  2
ENTITIES
  0
ATTDEF
  5
7032
  8
DEFPOINTS
 10
2964.5290433762202156
 20
137.0680331371879959
 30
0.0
 40
0.001
  1
K-22557T-4V
  3

  2
MODELNUMBER
 70
     0
1001
ACDBATTR
1070
     0
1070
     1
  0
ATTDEF
  5
7033
  8
DEFPOINTS
 10
2964.5290433762202156
 20
137.0663664705213023
 30
0.0
 40
0.001
  1
MEMOIRS
  3

  2
TRADENAME
 70
     0
1001
ACDBATTR
1070
     0
1070
     1
  0
ATTDEF
  5
7034
  8
DEFPOINTS
 10
2964.5290433762202156
 20
137.064699803854694
 30
0.0
 40
0.001
  1
BATHROOM SINK FAUCET
  3

  2
PRODUCT
 70
     0
1001
ACDBATTR
1070
     0
1070
     1
  0
LINE
  5
74E5
  8
0
 10
2963.6663343765148966
 20
137.9891191291613097
 30
0.0
 11
2965.3985280777601474
 21
137.9891191291613097
 31
0.0
  0
LINE
  5
74E6
  8
0
 10
2964.4481697290630109
 20
136.6548058349613086
 30
0.0
 11
2964.616692725051962
 21
136.6548058349613086
 31
0.0
  0
LINE
  5
74E7
  8
0
 10
2964.3721148470158369
 20
136.7684931604613041
 30
0.0
 11
2964.6927476072592071
 21
136.7684931604613041
 31
0.0
  0
LINE
  5
74E8
  8
0
 10
2963.6072343765149526
 20
137.9300191291613089
 30
0.0
 11
2963.6072343765149526
 21
136.1978254283613126
 31
0.0
  0
ARC
  5
74E9
  8
0
 10
2963.6663343765148966
 20
137.9300191291613089
 30
0.0
 40
0.0591
 50
90.0
 51
179.9999999999984084
  0
ARC
  5
74EA
  8
0
 10
2963.6663343765148966
 20
136.1978254283613126
 30
0.0
 40
0.0591
 50
180.0
 51
270.0
  0
ARC
  5
74EB
  8
0
 10
2964.5339797217370688
 20
135.997392813647906
 30
0.0
 40
1.6330073711720141
 50
90.0543305682710837
 51
101.825436061989393
  0
LINE
  5
74EC
  8
0
 10
2964.1523797850650226
 20
137.5432140316613072
 30
0.0
 11
2964.1523797850650226
 21
137.5183744165858002
 31
0.0
  0
ARC
  5
74ED
  8
0
 10
2964.2115409120160621
 20
137.537582238582786
 30
0.0
 40
0.0594285792815116
 50
101.8605298249349005
 51
174.5621633334264118
  0
ARC
  5
74EE
  8
0
 10
2964.4223555977018805
 20
136.6146851862017115
 30
0.0
 40
0.360703198264539
 50
141.0989149453039033
 51
164.4106395250342985
  0
ARC
  5
74EF
  8
0
 10
2958.2263195904129134
 20
137.6800997016376016
 30
0.0
 40
5.9282458331634178
 50
350.5976259664495274
 51
353.5806023425553803
  0
ARC
  5
74F0
  8
0
 10
2958.220573967645123
 20
137.680746146238306
 30
0.0
 40
5.9340277075669778
 50
353.5806023425553803
 51
358.4320302171851154
  0
ARC
  5
74F1
  8
0
 10
2964.3706637161858453
 20
136.6475620006256122
 30
0.0
 40
0.3026001337228054
 50
167.7783028138364898
 51
186.4669870082782097
  0
ARC
  5
74F2
  8
0
 10
2964.3538393154649384
 20
136.6456549214661891
 30
0.0
 40
0.2856679923763754
 50
186.4669870082782097
 51
206.027936543833988
  0
ARC
  5
74F3
  8
0
 10
2964.1310944625051889
 20
136.5420009367632872
 30
0.0
 40
0.0402931065834487
 50
212.5848908416876952
 51
247.0395720319760073
  0
ARC
  5
74F4
  8
0
 10
2964.1512896958270176
 20
136.5861808779810076
 30
0.0
 40
0.0888613560307591
 50
246.1620801306818862
 51
263.1474512547778204
  0
ARC
  5
74F5
  8
0
 10
2964.4627838136598257
 20
138.8797225666178008
 30
0.0
 40
2.4034488270709859
 50
262.2983729487708047
 51
262.9113395902928119
  0
ARC
  5
74F6
  8
0
 10
2964.9774882827928195
 20
123.0972851060732012
 30
0.0
 40
13.78234973226294
 50
91.8505062796861154
 51
93.2945842734144435
  0
ARC
  5
74F7
  8
0
 10
2964.1868913350631374
 20
136.7837205642290996
 30
0.0
 40
0.0731503123864228
 50
91.1514879623310179
 51
128.2094424645090953
  0
ARC
  5
74F8
  8
0
 10
3263.0791877441638462
 20
133.0517589648254102
 30
0.0
 40
298.9620080729038136
 50
179.2025947911373862
 51
179.2738486932825879
  0
ARC
  5
74F9
  8
0
 10
2985.507252407157921
 20
136.9293269158679891
 30
0.0
 40
21.3629951473078492
 50
178.419968101419812
 51
179.2408198009474916
  0
LINE
  5
74FA
  8
0
 10
2964.1480107767151821
 20
136.6142173353613032
 30
0.0
 11
2964.1616266132150486
 21
136.5111761439613076
 31
0.0
  0
ARC
  5
74FB
  8
0
 10
2964.255672802933077
 20
136.5282630643023936
 30
0.0
 40
0.0955844800265047
 50
190.2976682398276012
 51
235.9337807054909035
  0
ARC
  5
74FC
  8
0
 10
2964.3959466299847918
 20
136.6825517689970866
 30
0.0
 40
0.303434845025392
 50
230.3021779574980883
 51
254.1016299252812018
  0
ARC
  5
74FD
  8
0
 10
2964.4982903636091578
 20
136.9817473551539138
 30
0.0
 40
0.6194401304282016
 50
252.5780594131923067
 51
260.734410522971416
  0
ARC
  5
74FE
  8
0
 10
2964.5246839130682019
 20
137.131305130056802
 30
0.0
 40
0.7712987315434665
 50
260.5881644573884159
 51
264.3067944486035117
  0
ARC
  5
74FF
  8
0
 10
2964.5402723993352083
 20
137.0165359687136117
 30
0.0
 40
0.6576238746026759
 50
259.4952840239736815
 51
269.316818113356419
  0
ARC
  5
7500
  8
0
 10
2964.4854881273067804
 20
136.6924573509733136
 30
0.0
 40
0.329030161550822
 50
239.0367416182542968
 51
258.5864714218827771
  0
ARC
  5
7501
  8
0
 10
2964.3562232370959464
 20
136.4770116214731104
 30
0.0
 40
0.0777807352805938
 50
204.050978428879688
 51
239.0367416182542968
  0
ARC
  5
7502
  8
0
 10
2964.32242015540578
 20
136.4625208553649998
 30
0.0
 40
0.0410102314101746
 50
178.0151215491719938
 51
204.8106063701104915
  0
ARC
  5
7503
  8
0
 10
2964.5491320543510483
 20
137.1264847817853934
 30
0.0
 40
0.4823633692271962
 50
253.023315505826389
 51
257.9182203377467886
  0
ARC
  5
7504
  8
0
 10
2965.847447788215959
 20
137.2268852160563881
 30
0.0
 40
1.544904710337125
 50
197.2602360487090039
 51
201.3221191997913877
  0
ARC
  5
7505
  8
0
 10
2964.2245348772889884
 20
136.6224042336760078
 30
0.0
 40
0.0769607904884138
 50
135.1084640671826946
 51
186.1065373967356038
  0
ARC
  5
7506
  8
0
 10
2964.3574139207271401
 20
136.4900204352867092
 30
0.0
 40
0.2645302716259455
 50
114.0676358756009989
 51
135.1074053482259103
  0
ARC
  5
7507
  8
0
 10
2964.4549451027110081
 20
136.2717730626200137
 30
0.0
 40
0.5035788983445924
 50
99.4672123355040441
 51
114.0730716065078951
  0
ARC
  5
7508
  8
0
 10
2964.4476520997532134
 20
136.2379407746992115
 30
0.0
 40
0.42900981022379
 50
95.2643009504218128
 51
120.8647746125587048
  0
ARC
  5
7509
  8
0
 10
2964.3309605354588712
 20
136.4331904837825959
 30
0.0
 40
0.2015469119861089
 50
120.8647746125587048
 51
141.723982167400095
  0
ARC
  5
750A
  8
0
 10
2964.231581045341045
 20
136.5193389601969045
 30
0.0
 40
0.0704277227644836
 50
146.6674533409889136
 51
186.6557122408869134
  0
ARC
  5
750B
  8
0
 10
2964.4672991305728829
 20
136.1885467947500956
 30
0.0
 40
0.4666512901309411
 50
92.3493799013506447
 51
120.8827523023828974
  0
ARC
  5
750C
  8
0
 10
2964.2972405464729491
 20
136.4728881946930983
 30
0.0
 40
0.1353358003823109
 50
120.8827523023836932
 51
146.0290212532219982
  0
ARC
  5
750D
  8
0
 10
2964.2476092088281803
 20
136.5063283907159075
 30
0.0
 40
0.0754900287139849
 50
146.0290212532219982
 51
170.3741209248991879
  0
ARC
  5
750E
  8
0
 10
2964.2327978798948607
 20
136.5088404213051092
 30
0.0
 40
0.0604671873574822
 50
170.3741209248975963
 51
202.7611615792129101
  0
ARC
  5
750F
  8
0
 10
2964.2762816481158552
 20
136.5270846398971969
 30
0.0
 40
0.1076232008733055
 50
202.7611615792129101
 51
226.4503406490995019
  0
ARC
  5
7510
  8
0
 10
2964.329828038146843
 20
136.5049802901905878
 30
0.0
 40
0.0816039154986278
 50
123.9169579643358929
 51
151.2925642436460976
  0
ARC
  5
7511
  8
0
 10
2964.4247109897169139
 20
136.3638697974558056
 30
0.0
 40
0.2516478676361841
 50
103.9519809449407006
 51
123.9169579643358929
  0
ARC
  5
7512
  8
0
 10
2964.571805050086823
 20
135.7717942646137885
 30
0.0
 40
0.8617217149581513
 50
96.5787413552540244
 51
103.9519809449407006
  0
ARC
  5
7513
  8
0
 10
2964.5323950933238848
 20
135.9368409767278081
 30
0.0
 40
0.6935420743748149
 50
89.9970148858374444
 51
94.9063046722939561
  0
LINE
  5
7514
  8
0
 10
2964.2814345300148489
 20
136.4639412748906011
 30
0.0
 11
2964.2814345300148489
 21
136.5298549311841896
 31
0.0
  0
ARC
  5
7515
  8
0
 10
2964.3321146668890833
 20
136.5335659191055981
 30
0.0
 40
0.0508191156841007
 50
159.4754217878418956
 51
184.1876637298364869
  0
LINE
  5
7516
  8
0
 10
2964.2845214534149818
 20
136.5513835662613076
 30
0.0
 11
2964.2845214534149818
 21
136.5728519574533095
 31
0.0
  0
LINE
  5
7517
  8
0
 10
2964.2814345300148489
 20
136.5209226073303057
 30
0.0
 11
2964.2598292449160908
 21
136.5393949986597875
 31
0.0
  0
LINE
  5
7518
  8
0
 10
2964.2598292449160908
 20
136.5393949986597875
 30
0.0
 11
2964.2582545630989443
 21
136.5441776969196894
 31
0.0
  0
LINE
  5
7519
  8
0
 10
2964.2845214534149818
 20
136.5513835662613076
 30
0.0
 11
2964.284027609315217
 21
136.5514160817614027
 31
0.0
  0
LINE
  5
751A
  8
0
 10
2964.284027609315217
 20
136.5514160817614027
 30
0.0
 11
2964.2723658525628707
 21
136.562922470444704
 31
0.0
  0
ARC
  5
751B
  8
0
 10
2964.336456964007084
 20
136.4609408838117872
 30
0.0
 40
0.0551041794147759
 50
136.8469997381124017
 51
176.8787339602997974
  0
ARC
  5
751C
  8
0
 10
2964.3989963825279119
 20
136.4033648337712918
 30
0.0
 40
0.1401097500017285
 50
113.1177032449133009
 51
137.1620103715038113
  0
ARC
  5
751D
  8
0
 10
2964.5109952530069677
 20
136.1410118087813998
 30
0.0
 40
0.4253690297981924
 50
101.5805233872103059
 51
113.1177032449133009
  0
ARC
  5
751E
  8
0
 10
2964.5151974128398251
 20
136.1205050944550976
 30
0.0
 40
0.446301862375869
 50
93.635087716828707
 51
101.5805233872103059
  0
ARC
  5
751F
  8
0
 10
2964.5439459065801202
 20
135.6670914761650124
 30
0.0
 40
0.9006259576636866
 50
90.7325577326738966
 51
93.6314909080825259
  0
ARC
  5
7520
  8
0
 10
2964.3432744627748434
 20
136.4611507587293886
 30
0.0
 40
0.0521935993025731
 50
138.7992934528438127
 51
175.1392480809327026
  0
ARC
  5
7521
  8
0
 10
2964.395434410002963
 20
136.4154870405488111
 30
0.0
 40
0.1215177311243074
 50
119.9733990276817934
 51
138.7992934528438127
  0
ARC
  5
7522
  8
0
 10
2964.463953519568804
 20
136.2966811123596074
 30
0.0
 40
0.2586662526204281
 50
102.3819365025723016
 51
119.9733990276817934
  0
ARC
  5
7523
  8
0
 10
2964.5258879075840923
 20
136.0643035052493985
 30
0.0
 40
0.4990331598439238
 50
93.0633009116662038
 51
103.6065925943139945
  0
ARC
  5
7524
  8
0
 10
2964.533524539543123
 20
135.9485215528451931
 30
0.0
 40
0.615059449537608
 50
90.1018474223154584
 51
93.197297120121533
  0
ARC
  5
7525
  8
0
 10
2964.5297966350358365
 20
136.8865475780465033
 30
0.0
 40
0.5235324349766982
 50
256.6939325164678962
 51
270.2883329383358273
  0
ARC
  5
7526
  8
0
 10
2964.4609986416271568
 20
136.6190170433862932
 30
0.0
 40
0.2474083019250116
 50
235.5220649899588921
 51
257.9395299400597992
  0
ARC
  5
7527
  8
0
 10
2964.3642457646910771
 20
136.4781245268709995
 30
0.0
 40
0.0764936436727194
 50
204.9320631990649986
 51
235.5220649899588921
  0
ARC
  5
7528
  8
0
 10
2964.3310441110238571
 20
136.462690243199205
 30
0.0
 40
0.0398798905368387
 50
175.8541962668448946
 51
204.9320631990649986
  0
ARC
  5
7529
  8
0
 10
2964.5284923065910334
 20
136.8779487868960985
 30
0.0
 40
0.5103936793766121
 50
255.818521132803312
 51
270.4421797772179161
  0
ARC
  5
752A
  8
0
 10
2964.4699095633209254
 20
136.6461169395745969
 30
0.0
 40
0.2712745809308495
 50
237.2822357428958924
 51
255.818521132803312
  0
ARC
  5
752B
  8
0
 10
2964.3657101393341691
 20
136.4839202947003116
 30
0.0
 40
0.0784916159994993
 50
210.9880879868956072
 51
237.2822357428958924
  0
ARC
  5
752C
  8
0
 10
2964.3423898422811362
 20
136.4699529929459914
 30
0.0
 40
0.0513085308252489
 50
184.8966647077961056
 51
211.0247993079746038
  0
ARC
  5
752D
  8
0
 10
2964.3268725105958765
 20
136.5289482725443122
 30
0.0
 40
0.0776447096409128
 50
198.3458408342204109
 51
234.1826098297624128
  0
ARC
  5
752E
  8
0
 10
2964.2970297585111439
 20
136.5190522310346068
 30
0.0
 40
0.0462039480478327
 50
147.0576582844205973
 51
198.3458408342204109
  0
LINE
  5
752F
  8
0
 10
2964.4481697292148965
 20
136.3638109522613036
 30
0.0
 11
2964.4601524059198709
 21
136.3638109522613036
 31
0.0
  0
LINE
  5
7530
  8
0
 10
2963.6663343765148966
 20
136.1387254283613117
 30
0.0
 11
2965.3985280777601474
 21
136.1387254283613117
 31
0.0
  0
LINE
  5
7531
  8
0
 10
2959.6840265025148256
 20
136.1387254283613117
 30
0.0
 11
2961.5068202033148737
 21
136.1387254283613117
 31
0.0
  0
LINE
  5
7532
  8
0
 10
2961.5206202033150475
 20
137.9753191291613064
 30
0.0
 11
2961.5206202033150475
 21
136.1525254283614004
 31
0.0
  0
LINE
  5
7533
  8
0
 10
2959.6702265025151064
 20
137.9753191291613064
 30
0.0
 11
2959.6702265025151064
 21
137.3137685512996882
 31
0.0
  0
LINE
  5
7534
  8
0
 10
2959.6702265025151064
 20
136.8140760062229901
 30
0.0
 11
2959.6702265025151064
 21
136.1525254283614004
 31
0.0
  0
LINE
  5
7535
  8
0
 10
2958.1076449239149042
 20
137.3206952704958042
 30
0.0
 11
2958.1076449239149042
 21
136.8071492870267889
 31
0.0
  0
LINE
  5
7536
  8
0
 10
2958.1134959342211914
 20
137.334705819538101
 30
0.0
 11
2958.2002885023148337
 21
137.4204975595613121
 31
0.0
  0
ARC
  5
7537
  8
0
 10
2958.2177865195671984
 20
137.4015258400218045
 30
0.0
 40
0.0258090442351079
 50
91.9793218180074348
 51
132.6859832628240099
  0
ARC
  5
7538
  8
0
 10
2958.2139259607661188
 20
137.3697392178426071
 30
0.0
 40
0.0576567692764013
 50
79.0052789229063848
 51
87.0481391099208963
  0
ARC
  5
7539
  8
0
 10
2959.4691096013470997
 20
145.3112807884899098
 30
0.0
 40
7.9825014952349322
 50
261.0330707202635949
 51
264.6693791776025932
  0
ARC
  5
753A
  8
0
 10
2959.8764504703249258
 20
150.2341186985011916
 30
0.0
 40
12.9219958307990908
 50
264.8989081782539756
 51
269.2044474036413817
  0
ARC
  5
753B
  8
0
 10
2958.1273449239151887
 20
137.3206952704958042
 30
0.0
 40
0.0197
 50
134.6677416255884907
 51
180.0
  0
ARC
  5
753C
  8
0
 10
2959.6840265025148256
 20
137.9753191291613064
 30
0.0
 40
0.0138
 50
90.0
 51
180.0000000000032117
  0
LINE
  5
753D
  8
0
 10
2959.6840265025148256
 20
137.9891191291613097
 30
0.0
 11
2961.5068202033148737
 21
137.9891191291613097
 31
0.0
  0
ARC
  5
753E
  8
0
 10
2959.6840265025148256
 20
136.1525254283614004
 30
0.0
 40
0.0138
 50
180.0000000000032117
 51
270.0
  0
ARC
  5
753F
  8
0
 10
2961.5068202033148737
 20
137.9753191291613064
 30
0.0
 40
0.0138
 50
0.0
 51
90.0
  0
ARC
  5
7540
  8
0
 10
2961.5068202033148737
 20
136.1525254283614004
 30
0.0
 40
0.0138
 50
270.0
 51
359.9999999999968168
  0
ARC
  5
7541
  8
0
 10
2960.595423352915077
 20
137.0639222787613107
 30
0.0
 40
0.3740000000000001
 50
221.1574375592578008
 51
138.8425624407421139
  0
ARC
  5
7542
  8
0
 10
2960.5955258245571713
 20
137.0640478257708139
 30
0.0
 40
0.3500027005982033
 50
229.1969549390310021
 51
130.8299051343892927
  0
ARC
  5
7543
  8
0
 10
2960.3181315601132155
 20
137.3841354331111972
 30
0.0
 40
0.0735600967508468
 50
275.2806655912892779
 51
311.3075109388780106
  0
ARC
  5
7544
  8
0
 10
2960.2625035263999962
 20
174.319568300826802
 30
0.0
 40
37.010649775309993
 50
269.1245690462113771
 51
270.0258223451231174
  0
ARC
  5
7545
  8
0
 10
2960.2782060501808701
 20
137.8644186198145007
 30
0.0
 40
0.5554971958078988
 50
270.100834762097179
 51
274.8220238886933089
  0
LINE
  5
7546
  8
0
 10
2959.7504233529148223
 20
137.9089222787613096
 30
0.0
 11
2961.4404233529148769
 21
137.9089222787613096
 31
0.0
  0
LINE
  5
7547
  8
0
 10
2959.7504233529148223
 20
137.9089222787613096
 30
0.0
 11
2959.7504233529148223
 21
137.3124612714119053
 31
0.0
  0
LINE
  5
7548
  8
0
 10
2959.7504233529148223
 20
136.8153832861108015
 30
0.0
 11
2959.7504233529148223
 21
136.2189222787613971
 31
0.0
  0
LINE
  5
7549
  8
0
 10
2959.7504233529148223
 20
136.2189222787613971
 30
0.0
 11
2961.4404233529148769
 21
136.2189222787613971
 31
0.0
  0
LINE
  5
754A
  8
0
 10
2961.4404233529148769
 20
137.9089222787613096
 30
0.0
 11
2961.4404233529148769
 21
136.2189222787613971
 31
0.0
  0
LINE
  5
754B
  8
0
 10
2960.2214192891628954
 20
137.4379263456856961
 30
0.0
 11
2960.5077225199602253
 21
137.427494230235709
 31
0.0
  0
LINE
  5
754C
  8
0
 10
2960.2214192891628954
 20
137.4379263456856961
 30
0.0
 11
2960.2255863492978278
 21
137.3089506601058076
 31
0.0
  0
LINE
  5
754D
  8
0
 10
2960.2214192891628954
 20
137.4379263456856961
 30
0.0
 11
2959.7504233529148223
 21
137.9089222787613096
 31
0.0
  0
LINE
  5
754E
  8
0
 10
2960.2214192891628954
 20
136.6899182118370106
 30
0.0
 11
2960.5077225199602253
 21
136.7003503272869978
 31
0.0
  0
LINE
  5
754F
  8
0
 10
2960.2214192891628954
 20
136.6899182118370106
 30
0.0
 11
2960.2255863492978278
 21
136.8188938974168991
 31
0.0
  0
LINE
  5
7550
  8
0
 10
2960.2214192891628954
 20
136.6899182118370106
 30
0.0
 11
2959.7504233529148223
 21
136.2189222787613971
 31
0.0
  0
LINE
  5
7551
  8
0
 10
2958.1134959342211914
 20
136.7931387379846058
 30
0.0
 11
2958.2002885023148337
 21
136.7073469979613094
 31
0.0
  0
ARC
  5
7552
  8
0
 10
2958.2177865195671984
 20
136.7263187175009023
 30
0.0
 40
0.0258090442351079
 50
227.3140167371759901
 51
268.0206781819924799
  0
ARC
  5
7553
  8
0
 10
2958.2139259607661188
 20
136.7581053396800996
 30
0.0
 40
0.0576567692764013
 50
272.9518608900791037
 51
280.9947210770935726
  0
ARC
  5
7554
  8
0
 10
2959.4691096013470997
 20
128.8165637690327969
 30
0.0
 40
7.9825014952349322
 50
95.3306208223974352
 51
98.9669292797364193
  0
ARC
  5
7555
  8
0
 10
2959.8764504703249258
 20
123.8937258590215009
 30
0.0
 40
12.9219958307990908
 50
90.795552596358533
 51
95.1010918217460386
  0
ARC
  5
7556
  8
0
 10
2958.1273449239151887
 20
136.8071492870267889
 30
0.0
 40
0.0197
 50
180.0
 51
225.3322583744115093
  0
ARC
  5
7557
  8
0
 10
2960.3176347384978726
 20
136.74175821988851
 30
0.0
 40
0.0755491034065779
 50
49.3873928566022613
 51
84.4803173517296671
  0
ARC
  5
7558
  8
0
 10
2960.2625035264009057
 20
99.808276256663305
 30
0.0
 40
37.0106497753425501
 50
89.9741776548768684
 51
90.8754309537886513
  0
ARC
  5
7559
  8
0
 10
2960.2782060501808701
 20
136.2634259377078934
 30
0.0
 40
0.5554971958081707
 50
85.1779761113067337
 51
89.8991652379027641
  0
LINE
  5
755A
  8
0
 10
2960.8207233780340175
 20
137.308922284261314
 30
0.0
 11
2960.2791836684141344
 21
137.308922284261314
 31
0.0
  0
ARC
  5
755B
  8
0
 10
2960.8207233780340175
 20
137.2892222842613137
 30
0.0
 40
0.0197
 50
359.9999950106983988
 51
90.0
  0
LINE
  5
755C
  8
0
 10
2960.8404233387959721
 20
136.8386222715458871
 30
0.0
 11
2960.8404233780338473
 21
137.289222282545893
 31
0.0
  0
LINE
  5
755D
  8
0
 10
2960.8207233387961423
 20
136.8189222732613075
 30
0.0
 11
2960.2791836684141344
 21
136.8189222732613075
 31
0.0
  0
ARC
  5
755E
  8
0
 10
2960.8207233387961423
 20
136.8386222732613078
 30
0.0
 40
0.0197
 50
270.0
 51
359.9999950106983988
  0
LINE
  5
755F
  8
0
 10
2960.969427416668168
 20
137.4379263456856961
 30
0.0
 11
2960.6831241858699286
 21
137.427494230235709
 31
0.0
  0
LINE
  5
7560
  8
0
 10
2960.969427416668168
 20
137.4379263456856961
 30
0.0
 11
2960.9600343098531994
 21
137.1471980260153885
 31
0.0
  0
LINE
  5
7561
  8
0
 10
2960.969427416668168
 20
137.4379263456856961
 30
0.0
 11
2961.4404233529148769
 21
137.9089222787613096
 31
0.0
  0
LINE
  5
7562
  8
0
 10
2960.969427416668168
 20
136.6899182118370106
 30
0.0
 11
2960.6831241858699286
 21
136.7003503272869978
 31
0.0
  0
LINE
  5
7563
  8
0
 10
2960.969427416668168
 20
136.6899182118370106
 30
0.0
 11
2960.9600343098531994
 21
136.9806465315072899
 31
0.0
  0
LINE
  5
7564
  8
0
 10
2960.969427416668168
 20
136.6899182118370106
 30
0.0
 11
2961.4404233529148769
 21
136.2189222787613971
 31
0.0
  0
LINE
  5
7565
  8
0
 10
2958.2002885073329708
 20
137.4204975645216962
 30
0.0
 11
2958.2002885073329708
 21
136.7073469930008969
 31
0.0
  0
LINE
  5
7566
  8
0
 10
2965.4576280777600914
 20
137.9300191291613089
 30
0.0
 11
2965.4576280777600914
 21
136.1978254283613126
 31
0.0
  0
ARC
  5
7567
  8
0
 10
2965.3985280777601474
 20
137.9300191291613089
 30
0.0
 40
0.0591
 50
0.0000000000016284
 51
90.0
  0
ARC
  5
7568
  8
0
 10
2965.3985280777601474
 20
136.1978254283613126
 30
0.0
 40
0.0591
 50
270.0
 51
0.0
  0
ARC
  5
7569
  8
0
 10
2964.5308827325370657
 20
135.997392813647906
 30
0.0
 40
1.6330073711720141
 50
78.1745639380105644
 51
89.9456694317289305
  0
LINE
  5
756A
  8
0
 10
2964.9124826692100214
 20
137.5432140316613072
 30
0.0
 11
2964.9124826692100214
 21
137.5183744165858002
 31
0.0
  0
ARC
  5
756B
  8
0
 10
2964.8533215422589819
 20
137.537582238582786
 30
0.0
 40
0.0594285792815116
 50
5.4378366665736273
 51
78.1394701750651137
  0
ARC
  5
756C
  8
0
 10
2964.6425068565731635
 20
136.6146851862017115
 30
0.0
 40
0.360703198264539
 50
15.58936047496565
 51
38.9010850546961109
  0
ARC
  5
756D
  8
0
 10
2970.8385428638621306
 20
137.6800997016376016
 30
0.0
 40
5.9282458331634178
 50
186.4193976574445912
 51
189.4023740335505011
  0
ARC
  5
756E
  8
0
 10
2970.8442884866308304
 20
137.680746146238306
 30
0.0
 40
5.9340277075669778
 50
181.5679697828149131
 51
186.4193976574445912
  0
ARC
  5
756F
  8
0
 10
2964.6941987380891987
 20
136.6475620006256122
 30
0.0
 40
0.3026001337228054
 50
353.533012991721705
 51
12.2216971861634995
  0
ARC
  5
7570
  8
0
 10
2964.7110231388101056
 20
136.6456549214661891
 30
0.0
 40
0.2856679923763754
 50
333.9720634561659836
 51
353.533012991721705
  0
ARC
  5
7571
  8
0
 10
2964.9337679917698551
 20
136.5420009367632872
 30
0.0
 40
0.0402931065834487
 50
292.9604279680240211
 51
327.4151091583123048
  0
ARC
  5
7572
  8
0
 10
2964.9135727584480264
 20
136.5861808779810076
 30
0.0
 40
0.0888613560307591
 50
276.8525487452221796
 51
293.8379198693180001
  0
ARC
  5
7573
  8
0
 10
2964.6020786406152183
 20
138.8797225666178008
 30
0.0
 40
2.4034488270709859
 50
277.0886604097071881
 51
277.7016270512291953
  0
ARC
  5
7574
  8
0
 10
2964.0873741714822245
 20
123.0972851060732012
 30
0.0
 40
13.78234973226294
 50
86.7054157265855565
 51
88.1494937203138704
  0
ARC
  5
7575
  8
0
 10
2964.8779711192119066
 20
136.7837205642290996
 30
0.0
 40
0.0731503123864228
 50
51.7905575354908905
 51
88.8485120376689963
  0
ARC
  5
7576
  8
0
 10
2665.9856747101121073
 20
133.0517589648254102
 30
0.0
 40
298.9620080729038136
 50
0.7261513067174068
 51
0.7974052088625307
  0
ARC
  5
7577
  8
0
 10
2943.557610047117123
 20
136.9293269158679891
 30
0.0
 40
21.3629951473078492
 50
0.7591801990524183
 51
1.5800318985801509
  0
LINE
  5
7578
  8
0
 10
2964.9168516775598619
 20
136.6142173353613032
 30
0.0
 11
2964.9032358410599954
 21
136.5111761439613076
 31
0.0
  0
ARC
  5
7579
  8
0
 10
2964.809189651341967
 20
136.5282630643023936
 30
0.0
 40
0.0955844800265047
 50
304.0662192945090965
 51
349.7023317601723988
  0
ARC
  5
757A
  8
0
 10
2964.6689158242911617
 20
136.6825517689970866
 30
0.0
 40
0.303434845025392
 50
285.8983700747187982
 51
309.6978220425020254
  0
ARC
  5
757B
  8
0
 10
2964.5665720906658862
 20
136.9817473551539138
 30
0.0
 40
0.6194401304282016
 50
279.2655894770286977
 51
287.4219405868076933
  0
ARC
  5
757C
  8
0
 10
2964.5401785412068421
 20
137.131305130056802
 30
0.0
 40
0.7712987315434665
 50
275.6932055513963746
 51
279.4118355426116977
  0
ARC
  5
757D
  8
0
 10
2964.5245900549411999
 20
137.0165359687136117
 30
0.0
 40
0.6576238746026759
 50
270.683181886643581
 51
280.5047159760263185
  0
ARC
  5
757E
  8
0
 10
2964.5793743269678089
 20
136.6924573509733136
 30
0.0
 40
0.329030161550822
 50
281.4135285781172229
 51
300.9632583817456748
  0
ARC
  5
757F
  8
0
 10
2964.7086392171781881
 20
136.4770116214731104
 30
0.0
 40
0.0777807352805938
 50
300.9632583817456748
 51
335.9490215711202836
  0
ARC
  5
7580
  8
0
 10
2964.7424422988688093
 20
136.4625208553649998
 30
0.0
 40
0.0410102314101746
 50
335.1893936298894801
 51
1.9848784508279449
  0
ARC
  5
7581
  8
0
 10
2964.5157303999239957
 20
137.1264847817853934
 30
0.0
 40
0.4823633692271962
 50
282.0817796622532114
 51
286.9766844941735826
  0
ARC
  5
7582
  8
0
 10
2963.217414666059085
 20
137.2268852160563881
 30
0.0
 40
1.544904710337125
 50
338.6778808002085839
 51
342.7397639512909109
  0
ARC
  5
7583
  8
0
 10
2964.8403275769860556
 20
136.6224042336760078
 30
0.0
 40
0.0769607904884138
 50
353.8934626032644246
 51
44.8915359328172272
  0
ARC
  5
7584
  8
0
 10
2964.7074485335479039
 20
136.4900204352867092
 30
0.0
 40
0.2645302716259455
 50
44.89259465177404
 51
65.9323641243990153
  0
ARC
  5
7585
  8
0
 10
2964.6099173515640359
 20
136.2717730626200137
 30
0.0
 40
0.5035788983445924
 50
65.9269283934920907
 51
80.5327876644959417
  0
ARC
  5
7586
  8
0
 10
2964.6172103545218306
 20
136.2379407746992115
 30
0.0
 40
0.42900981022379
 50
59.1352253874412668
 51
84.7356990495782014
  0
ARC
  5
7587
  8
0
 10
2964.7339019188161728
 20
136.4331904837825959
 30
0.0
 40
0.2015469119861089
 50
38.2760178325998766
 51
59.1352253874412668
  0
ARC
  5
7588
  8
0
 10
2964.833281408933999
 20
136.5193389601969045
 30
0.0
 40
0.0704277227644836
 50
353.344287759113115
 51
33.332546659011129
  0
ARC
  5
7589
  8
0
 10
2964.5975633237021611
 20
136.1885467947500956
 30
0.0
 40
0.4666512901309411
 50
59.1172476976170671
 51
87.6506200986493411
  0
ARC
  5
758A
  8
0
 10
2964.7676219078020949
 20
136.4728881946930983
 30
0.0
 40
0.1353358003823109
 50
33.9709787467779591
 51
59.1172476976162429
  0
ARC
  5
758B
  8
0
 10
2964.8172532454477732
 20
136.5063283907159075
 30
0.0
 40
0.0754900287139849
 50
9.6258790751007783
 51
33.9709787467779591
  0
ARC
  5
758C
  8
0
 10
2964.8320645743801833
 20
136.5088404213051092
 30
0.0
 40
0.0604671873574822
 50
337.238838420785612
 51
9.6258790751023842
  0
ARC
  5
758D
  8
0
 10
2964.7885808061591888
 20
136.5270846398971969
 30
0.0
 40
0.1076232008733055
 50
313.5496593509005834
 51
337.2388384207869763
  0
ARC
  5
758E
  8
0
 10
2964.735034416128201
 20
136.5049802901905878
 30
0.0
 40
0.0816039154986278
 50
28.7074357563539095
 51
56.0830420356640289
  0
ARC
  5
758F
  8
0
 10
2964.6401514645581301
 20
136.3638697974558056
 30
0.0
 40
0.2516478676361841
 50
56.0830420356640289
 51
76.0480190550592425
  0
ARC
  5
7590
  8
0
 10
2964.493057404188221
 20
135.7717942646137885
 30
0.0
 40
0.8617217149581513
 50
76.0480190550592425
 51
83.4212586447459898
  0
ARC
  5
7591
  8
0
 10
2964.5324673609511592
 20
135.9368409767278081
 30
0.0
 40
0.6935420743748149
 50
85.0936953277060439
 51
90.0029851141625699
  0
LINE
  5
7592
  8
0
 10
2964.7834279242601951
 20
136.4639412748906011
 30
0.0
 11
2964.7834279242601951
 21
136.5298549311841896
 31
0.0
  0
ARC
  5
7593
  8
0
 10
2964.7327477873868702
 20
136.5335659191055981
 30
0.0
 40
0.0508191156841007
 50
355.8123362701634278
 51
20.5245782121581186
  0
LINE
  5
7594
  8
0
 10
2964.7803410008600622
 20
136.5513835662613076
 30
0.0
 11
2964.7803410008600622
 21
136.5728519574533095
 31
0.0
  0
LINE
  5
7595
  8
0
 10
2964.7834279242601951
 20
136.5209226073303057
 30
0.0
 11
2964.8050332093580437
 21
136.5393949986597875
 31
0.0
  0
LINE
  5
7596
  8
0
 10
2964.8050332093580437
 20
136.5393949986597875
 30
0.0
 11
2964.8066078911760997
 21
136.5441776969196894
 31
0.0
  0
LINE
  5
7597
  8
0
 10
2964.7803410008600622
 20
136.5513835662613076
 30
0.0
 11
2964.780834844959827
 21
136.5514160817614027
 31
0.0
  0
LINE
  5
7598
  8
0
 10
2964.780834844959827
 20
136.5514160817614027
 30
0.0
 11
2964.7924966017121733
 21
136.562922470444704
 31
0.0
  0
ARC
  5
7599
  8
0
 10
2964.72840549026796
 20
136.4609408838117872
 30
0.0
 40
0.0551041794147759
 50
3.1212660397001621
 51
43.153000261887577
  0
ARC
  5
759A
  8
0
 10
2964.6658660717471321
 20
136.4033648337712918
 30
0.0
 40
0.1401097500017285
 50
42.8379896284961674
 51
66.8822967550866991
  0
ARC
  5
759B
  8
0
 10
2964.5538672012680763
 20
136.1410118087813998
 30
0.0
 40
0.4253690297981924
 50
66.8822967550866991
 51
78.4194766127897083
  0
ARC
  5
759C
  8
0
 10
2964.5496650414352189
 20
136.1205050944550976
 30
0.0
 40
0.446301862375869
 50
78.4194766127897083
 51
86.364912283171293
  0
ARC
  5
759D
  8
0
 10
2964.5209165476958333
 20
135.6670914761650124
 30
0.0
 40
0.9006259576636866
 50
86.3685090919174741
 51
89.2674422673261176
  0
ARC
  5
759E
  8
0
 10
2964.7215879915002006
 20
136.4611507587293886
 30
0.0
 40
0.0521935993025731
 50
4.8607519190673214
 51
41.2007065471562299
  0
ARC
  5
759F
  8
0
 10
2964.669428044272081
 20
136.4154870405488111
 30
0.0
 40
0.1215177311243074
 50
41.2007065471562299
 51
60.026600972318171
  0
ARC
  5
75A0
  8
0
 10
2964.6009089347057852
 20
136.2966811123596074
 30
0.0
 40
0.2586662526204281
 50
60.026600972318171
 51
77.6180634974277552
  0
ARC
  5
75A1
  8
0
 10
2964.5389745466909517
 20
136.0643035052493985
 30
0.0
 40
0.4990331598439238
 50
76.3934074056859345
 51
86.936699088333782
  0
ARC
  5
75A2
  8
0
 10
2964.531337914731921
 20
135.9485215528451931
 30
0.0
 40
0.615059449537608
 50
86.802702879878467
 51
89.8981525776845274
  0
ARC
  5
75A3
  8
0
 10
2964.5350658192392075
 20
136.8865475780465033
 30
0.0
 40
0.5235324349766982
 50
269.7116670616641727
 51
283.3060674835321038
  0
ARC
  5
75A4
  8
0
 10
2964.6038638126478872
 20
136.6190170433862932
 30
0.0
 40
0.2474083019250116
 50
282.0604700599402008
 51
304.4779350100411079
  0
ARC
  5
75A5
  8
0
 10
2964.7006166895848764
 20
136.4781245268709995
 30
0.0
 40
0.0764936436727194
 50
304.4779350100411079
 51
335.0679368009350014
  0
ARC
  5
75A6
  8
0
 10
2964.7338183432520964
 20
136.462690243199205
 30
0.0
 40
0.0398798905368387
 50
335.0679368009350014
 51
4.1458037331550264
  0
ARC
  5
75A7
  8
0
 10
2964.5363701476840106
 20
136.8779487868960985
 30
0.0
 40
0.5103936793766121
 50
269.5578202227820839
 51
284.1814788671968017
  0
ARC
  5
75A8
  8
0
 10
2964.5949528909541186
 20
136.6461169395745969
 30
0.0
 40
0.2712745809308495
 50
284.1814788671968017
 51
302.7177642571040224
  0
ARC
  5
75A9
  8
0
 10
2964.6991523149408749
 20
136.4839202947003116
 30
0.0
 40
0.0784916159994993
 50
302.7177642571040224
 51
329.0119120131043928
  0
ARC
  5
75AA
  8
0
 10
2964.7224726119939078
 20
136.4699529929459914
 30
0.0
 40
0.0513085308252489
 50
328.9752006920253962
 51
355.1033352922038944
  0
ARC
  5
75AB
  8
0
 10
2964.7379899436791675
 20
136.5289482725443122
 30
0.0
 40
0.0776447096409128
 50
305.8173901702375019
 51
341.6541591657796175
  0
ARC
  5
75AC
  8
0
 10
2964.7678326957639001
 20
136.5190522310346068
 30
0.0
 40
0.0462039480478327
 50
341.6541591657796175
 51
32.9423417155794098
  0
LINE
  5
75AD
  8
0
 10
2964.6166927250601475
 20
136.3638109522613036
 30
0.0
 11
2964.6047100483560826
 21
136.3638109522613036
 31
0.0
  0
LINE
  5
75AE
  8
0
 10
2969.3808359517602184
 20
136.1387254283613117
 30
0.0
 11
2967.5580422509601703
 21
136.1387254283613117
 31
0.0
  0
LINE
  5
75AF
  8
0
 10
2967.5442422509599965
 20
137.9753191291613064
 30
0.0
 11
2967.5442422509599965
 21
136.1525254283614004
 31
0.0
  0
LINE
  5
75B0
  8
0
 10
2969.3946359517599376
 20
137.9753191291613064
 30
0.0
 11
2969.3946359517599376
 21
137.3137685512996882
 31
0.0
  0
LINE
  5
75B1
  8
0
 10
2969.3946359517599376
 20
136.8140760062229901
 30
0.0
 11
2969.3946359517599376
 21
136.1525254283614004
 31
0.0
  0
LINE
  5
75B2
  8
0
 10
2970.9572175303601398
 20
137.3206952704958042
 30
0.0
 11
2970.9572175303601398
 21
136.8071492870267889
 31
0.0
  0
LINE
  5
75B3
  8
0
 10
2970.9513665200538526
 20
137.334705819538101
 30
0.0
 11
2970.8645739519602103
 21
137.4204975595613121
 31
0.0
  0
ARC
  5
75B4
  8
0
 10
2970.8470759347092098
 20
137.4015258400218045
 30
0.0
 40
0.0258090442351079
 50
47.3140167371759901
 51
88.0206781819925794
  0
ARC
  5
75B5
  8
0
 10
2970.8509364935089252
 20
137.3697392178426071
 30
0.0
 40
0.0576567692764013
 50
92.9518608900790895
 51
100.994721077093601
  0
ARC
  5
75B6
  8
0
 10
2969.5957528529288538
 20
145.3112807884899098
 30
0.0
 40
7.9825014952349322
 50
275.3306208223974068
 51
278.9669292797364051
  0
ARC
  5
75B7
  8
0
 10
2969.1884119839510277
 20
150.2341186985011916
 30
0.0
 40
12.9219958307990908
 50
270.7955525963586183
 51
275.1010918217460244
  0
ARC
  5
75B8
  8
0
 10
2970.9375175303598553
 20
137.3206952704958042
 30
0.0
 40
0.0197
 50
0.0
 51
45.3322583744114809
  0
ARC
  5
75B9
  8
0
 10
2969.3808359517602184
 20
137.9753191291613064
 30
0.0
 40
0.0138
 50
359.9999999999968168
 51
90.0
  0
LINE
  5
75BA
  8
0
 10
2969.3808359517602184
 20
137.9891191291613097
 30
0.0
 11
2967.5580422509601703
 21
137.9891191291613097
 31
0.0
  0
ARC
  5
75BB
  8
0
 10
2969.3808359517602184
 20
136.1525254283614004
 30
0.0
 40
0.0138
 50
270.0
 51
359.9999999999968168
  0
ARC
  5
75BC
  8
0
 10
2967.5580422509601703
 20
137.9753191291613064
 30
0.0
 40
0.0138
 50
90.0
 51
180.0
  0
ARC
  5
75BD
  8
0
 10
2967.5580422509601703
 20
136.1525254283614004
 30
0.0
 40
0.0138
 50
180.0000000000032117
 51
270.0
  0
ARC
  5
75BE
  8
0
 10
2968.469439101359967
 20
137.0639222787613107
 30
0.0
 40
0.3740000000000001
 50
41.1574375592578718
 51
318.8425624407420855
  0
ARC
  5
75BF
  8
0
 10
2968.4693366297178727
 20
137.0640478257708139
 30
0.0
 40
0.3500027005982033
 50
49.1700948656107002
 51
310.8030450609688842
  0
ARC
  5
75C0
  8
0
 10
2968.7467308941618285
 20
137.3841354331111972
 30
0.0
 40
0.0735600967508468
 50
228.6924890611219894
 51
264.7193344087106084
  0
ARC
  5
75C1
  8
0
 10
2968.8023589278750478
 20
174.319568300826802
 30
0.0
 40
37.010649775309993
 50
269.9741776548768826
 51
270.8754309537886229
  0
ARC
  5
75C2
  8
0
 10
2968.7866564040928097
 20
137.8644186198145007
 30
0.0
 40
0.5554971958078988
 50
265.1779761113068048
 51
269.8991652379027073
  0
LINE
  5
75C3
  8
0
 10
2969.3144391013602217
 20
137.9089222787613096
 30
0.0
 11
2967.6244391013601671
 21
137.9089222787613096
 31
0.0
  0
LINE
  5
75C4
  8
0
 10
2969.3144391013602217
 20
137.9089222787613096
 30
0.0
 11
2969.3144391013602217
 21
137.3124612714119053
 31
0.0
  0
LINE
  5
75C5
  8
0
 10
2969.3144391013602217
 20
136.8153832861108015
 30
0.0
 11
2969.3144391013602217
 21
136.2189222787613971
 31
0.0
  0
LINE
  5
75C6
  8
0
 10
2969.3144391013602217
 20
136.2189222787613971
 30
0.0
 11
2967.6244391013601671
 21
136.2189222787613971
 31
0.0
  0
LINE
  5
75C7
  8
0
 10
2967.6244391013601671
 20
137.9089222787613096
 30
0.0
 11
2967.6244391013601671
 21
136.2189222787613971
 31
0.0
  0
LINE
  5
75C8
  8
0
 10
2968.8434431651121486
 20
137.4379263456856961
 30
0.0
 11
2968.5571399343148187
 21
137.427494230235709
 31
0.0
  0
LINE
  5
75C9
  8
0
 10
2968.8434431651121486
 20
137.4379263456856961
 30
0.0
 11
2968.8392761049772162
 21
137.3089506601058076
 31
0.0
  0
LINE
  5
75CA
  8
0
 10
2968.8434431651121486
 20
137.4379263456856961
 30
0.0
 11
2969.3144391013602217
 21
137.9089222787613096
 31
0.0
  0
LINE
  5
75CB
  8
0
 10
2968.8434431651121486
 20
136.6899182118370106
 30
0.0
 11
2968.5571399343148187
 21
136.7003503272869978
 31
0.0
  0
LINE
  5
75CC
  8
0
 10
2968.8434431651121486
 20
136.6899182118370106
 30
0.0
 11
2968.8392761049772162
 21
136.8188938974168991
 31
0.0
  0
LINE
  5
75CD
  8
0
 10
2968.8434431651121486
 20
136.6899182118370106
 30
0.0
 11
2969.3144391013602217
 21
136.2189222787613971
 31
0.0
  0
LINE
  5
75CE
  8
0
 10
2970.9513665200538526
 20
136.7931387379846058
 30
0.0
 11
2970.8645739519602103
 21
136.7073469979613094
 31
0.0
  0
ARC
  5
75CF
  8
0
 10
2970.8470759347092098
 20
136.7263187175009023
 30
0.0
 40
0.0258090442351079
 50
271.9793218180074064
 51
312.6859832628239815
  0
ARC
  5
75D0
  8
0
 10
2970.8509364935089252
 20
136.7581053396800996
 30
0.0
 40
0.0576567692764013
 50
259.0052789229064274
 51
267.0481391099208963
  0
ARC
  5
75D1
  8
0
 10
2969.5957528529288538
 20
128.8165637690327969
 30
0.0
 40
7.9825014952349322
 50
81.0330707202635949
 51
84.669379177602579
  0
ARC
  5
75D2
  8
0
 10
2969.1884119839510277
 20
123.8937258590215009
 30
0.0
 40
12.9219958307990908
 50
84.8989081782539756
 51
89.2044474036414385
  0
ARC
  5
75D3
  8
0
 10
2970.9375175303598553
 20
136.8071492870267889
 30
0.0
 40
0.0197
 50
314.6677416255885191
 51
0.0
  0
ARC
  5
75D4
  8
0
 10
2968.7472277157780809
 20
136.74175821988851
 30
0.0
 40
0.0755491034065779
 50
95.5196826482703472
 51
130.6126071433976961
  0
ARC
  5
75D5
  8
0
 10
2968.8023589278741383
 20
99.808276256663305
 30
0.0
 40
37.0106497753425501
 50
89.1245690462113487
 51
90.0258223451231316
  0
ARC
  5
75D6
  8
0
 10
2968.7866564040928097
 20
136.2634259377078934
 30
0.0
 40
0.5554971958081707
 50
90.1008347620972643
 51
94.8220238886932805
  0
LINE
  5
75D7
  8
0
 10
2968.244139076240117
 20
137.308922284261314
 30
0.0
 11
2968.7856787858618191
 21
137.308922284261314
 31
0.0
  0
ARC
  5
75D8
  8
0
 10
2968.244139076240117
 20
137.2892222842613137
 30
0.0
 40
0.0197
 50
90.0
 51
180.0000049893016012
  0
LINE
  5
75D9
  8
0
 10
2968.2244391154790719
 20
136.8386222715458871
 30
0.0
 11
2968.2244390762411967
 21
137.289222282545893
 31
0.0
  0
LINE
  5
75DA
  8
0
 10
2968.2441391154789017
 20
136.8189222732613075
 30
0.0
 11
2968.7856787858618191
 21
136.8189222732613075
 31
0.0
  0
ARC
  5
75DB
  8
0
 10
2968.2441391154789017
 20
136.8386222732613078
 30
0.0
 40
0.0197
 50
180.0000049893016012
 51
270.0
  0
LINE
  5
75DC
  8
0
 10
2968.0954350376077855
 20
137.4379263456856961
 30
0.0
 11
2968.3817382684051154
 21
137.427494230235709
 31
0.0
  0
LINE
  5
75DD
  8
0
 10
2968.0954350376077855
 20
137.4379263456856961
 30
0.0
 11
2968.1048281444218446
 21
137.1471980260153885
 31
0.0
  0
LINE
  5
75DE
  8
0
 10
2968.0954350376077855
 20
137.4379263456856961
 30
0.0
 11
2967.6244391013601671
 21
137.9089222787613096
 31
0.0
  0
LINE
  5
75DF
  8
0
 10
2968.0954350376077855
 20
136.6899182118370106
 30
0.0
 11
2968.3817382684051154
 21
136.7003503272869978
 31
0.0
  0
LINE
  5
75E0
  8
0
 10
2968.0954350376077855
 20
136.6899182118370106
 30
0.0
 11
2968.1048281444218446
 21
136.9806465315072899
 31
0.0
  0
LINE
  5
75E1
  8
0
 10
2968.0954350376077855
 20
136.6899182118370106
 30
0.0
 11
2967.6244391013601671
 21
136.2189222787613971
 31
0.0
  0
LINE
  5
75E2
  8
0
 10
2970.8645739469420732
 20
137.4204975645216962
 30
0.0
 11
2970.8645739469420732
 21
136.7073469930008969
 31
0.0
  0
LINE
  5
75E4
  8
0
 10
2964.1924312269147777
 20
136.6967980340467079
 30
0.0
 11
2964.1924312269147777
 21
136.7359361992702134
 31
0.0
  0
ARC
  5
75E5
  8
0
 10
2964.4208728072289887
 20
136.4045348524514907
 30
0.0
 40
0.4025076499765803
 50
103.1328088431119028
 51
124.5792729795980023
  0
ARC
  5
75E6
  8
0
 10
2964.5380493173288414
 20
135.9023017413780963
 30
0.0
 40
0.9182289239005536
 50
90.3505605812615045
 51
103.1328088431119028
  0
LINE
  5
75E7
  8
0
 10
2964.8724312273598116
 20
136.6967980340467079
 30
0.0
 11
2964.8724312273598116
 21
136.7359361992702134
 31
0.0
  0
ARC
  5
75E8
  8
0
 10
2964.6439896470460553
 20
136.4045348524514907
 30
0.0
 40
0.4025076499765744
 50
55.4207270204019693
 51
76.867191156888083
  0
ARC
  5
75E9
  8
0
 10
2964.5268131369448383
 20
135.9023017413780963
 30
0.0
 40
0.9182289239005536
 50
76.867191156888083
 51
89.6494394187384813
  0
ARC
  5
75EA
  8
0
 10
2964.4713299295858633
 20
136.5304455570613129
 30
0.0
 40
0.0028250978856391
 50
142.7499637499647065
 51
217.2500362500352082
  0
ARC
  5
75EB
  8
0
 10
2964.4955680025300353
 20
136.5304455570613129
 30
0.0
 40
0.0029273603858342
 50
316.099739132443915
 51
43.9002608675835972
  0
ARC
  5
75EC
  8
0
 10
2964.4872318304092005
 20
136.5406946568679984
 30
0.0
 40
0.0161208091538162
 50
277.7821710453341097
 51
310.3872061052938989
  0
ARC
  5
75ED
  8
0
 10
2964.4835557830078869
 20
136.5583417965443118
 30
0.0
 40
0.0341261801722961
 50
256.1433543576285956
 51
279.8857500338676232
  0
ARC
  5
75EE
  8
0
 10
2964.478278902116017
 20
136.5377767825299031
 30
0.0
 40
0.0128973930754516
 50
224.5083427407975023
 51
257.0235532696253244
  0
ARC
  5
75EF
  8
0
 10
2964.4872318304092005
 20
136.5201964572547126
 30
0.0
 40
0.0161208091538162
 50
49.6127938947061509
 51
82.217828954665876
  0
ARC
  5
75F0
  8
0
 10
2964.4835557830078869
 20
136.5025493175783993
 30
0.0
 40
0.0341261801722961
 50
80.11424996613232
 51
103.8566456423714044
  0
ARC
  5
75F1
  8
0
 10
2964.478278902116017
 20
136.523114331592808
 30
0.0
 40
0.0128973930754516
 50
102.976446730374704
 51
135.4916572592024124
  0
ARC
  5
75F2
  8
0
 10
2964.4807656856378344
 20
136.4961757313857049
 30
0.0
 40
0.0028250978856391
 50
142.7499637499647065
 51
217.2500362500352082
  0
ARC
  5
75F3
  8
0
 10
2964.5050037585820064
 20
136.4961757313857049
 30
0.0
 40
0.0029273603858342
 50
316.099739132443915
 51
43.9002608675835972
  0
ARC
  5
75F4
  8
0
 10
2964.4966675864598074
 20
136.5064248311923052
 30
0.0
 40
0.0161208091538162
 50
277.7821710453341097
 51
310.3872061052938989
  0
ARC
  5
75F5
  8
0
 10
2964.492991539059858
 20
136.5240719708687038
 30
0.0
 40
0.0341261801722961
 50
256.1433543576285956
 51
279.8857500338676232
  0
ARC
  5
75F6
  8
0
 10
2964.4877146581679881
 20
136.5035069568542951
 30
0.0
 40
0.0128973930754516
 50
224.5083427407975023
 51
257.0235532696253244
  0
ARC
  5
75F7
  8
0
 10
2964.4966675864598074
 20
136.4859266315791047
 30
0.0
 40
0.0161208091538162
 50
49.6127938947061509
 51
82.217828954665876
  0
ARC
  5
75F8
  8
0
 10
2964.492991539059858
 20
136.4682794919027913
 30
0.0
 40
0.0341261801722961
 50
80.11424996613232
 51
103.8566456423714044
  0
ARC
  5
75F9
  8
0
 10
2964.4877146581679881
 20
136.4888445059172
 30
0.0
 40
0.0128973930754516
 50
102.976446730374704
 51
135.4916572592024124
  0
ARC
  5
75FA
  8
0
 10
2964.4358151502528926
 20
136.5029355849437138
 30
0.0
 40
0.0028250978856391
 50
142.7499637499647065
 51
217.2500362500352082
  0
ARC
  5
75FB
  8
0
 10
2964.4600532231961552
 20
136.5029355849437138
 30
0.0
 40
0.0029273603858342
 50
316.099739132443915
 51
43.9002608675835972
  0
ARC
  5
75FC
  8
0
 10
2964.4517170510748656
 20
136.5131846847503141
 30
0.0
 40
0.0161208091538162
 50
277.7821710453341097
 51
310.3872061052938989
  0
ARC
  5
75FD
  8
0
 10
2964.4480410036740068
 20
136.530831824426599
 30
0.0
 40
0.0341261801722961
 50
256.1433543576285956
 51
279.8857500338676232
  0
ARC
  5
75FE
  8
0
 10
2964.4427641227821368
 20
136.5102668104121904
 30
0.0
 40
0.0128973930754516
 50
224.5083427407975023
 51
257.0235532696253244
  0
ARC
  5
75FF
  8
0
 10
2964.4517170510748656
 20
136.4926864851371136
 30
0.0
 40
0.0161208091538162
 50
49.6127938947061509
 51
82.217828954665876
  0
ARC
  5
7600
  8
0
 10
2964.4480410036740068
 20
136.4750393454606865
 30
0.0
 40
0.0341261801722961
 50
80.11424996613232
 51
103.8566456423714044
  0
ARC
  5
7601
  8
0
 10
2964.4427641227821368
 20
136.4956043594750952
 30
0.0
 40
0.0128973930754516
 50
102.976446730374704
 51
135.4916572592024124
  0
ARC
  5
7602
  8
0
 10
2964.423455488736181
 20
136.537667397704098
 30
0.0
 40
0.0028250978856391
 50
142.7499637499647065
 51
217.2500362500352082
  0
ARC
  5
7603
  8
0
 10
2964.4476935616789888
 20
136.537667397704098
 30
0.0
 40
0.0029273603858342
 50
316.099739132443915
 51
43.9002608675835972
  0
ARC
  5
7604
  8
0
 10
2964.439357389558154
 20
136.5479164975106983
 30
0.0
 40
0.0161208091538162
 50
277.7821710453341097
 51
310.3872061052938989
  0
ARC
  5
7605
  8
0
 10
2964.4356813421582046
 20
136.5655636371870969
 30
0.0
 40
0.0341261801722961
 50
256.1433543576285956
 51
279.8857500338676232
  0
ARC
  5
7606
  8
0
 10
2964.4304044612658799
 20
136.5449986231726882
 30
0.0
 40
0.0128973930754516
 50
224.5083427407975023
 51
257.0235532696253244
  0
ARC
  5
7607
  8
0
 10
2964.439357389558154
 20
136.5274182978974977
 30
0.0
 40
0.0161208091538162
 50
49.6127938947061509
 51
82.217828954665876
  0
ARC
  5
7608
  8
0
 10
2964.4356813421582046
 20
136.5097711582212128
 30
0.0
 40
0.0341261801722961
 50
80.11424996613232
 51
103.8566456423714044
  0
ARC
  5
7609
  8
0
 10
2964.4304044612658799
 20
136.530336172235593
 30
0.0
 40
0.0128973930754516
 50
102.976446730374704
 51
135.4916572592024124
  0
ARC
  5
760A
  8
0
 10
2964.3923322387468033
 20
136.5066291821393065
 30
0.0
 40
0.0028250978856391
 50
142.7499637499647065
 51
217.2500362500352082
  0
ARC
  5
760B
  8
0
 10
2964.4165703116900659
 20
136.5066291821393065
 30
0.0
 40
0.0029273603858342
 50
316.099739132443915
 51
43.9002608675835972
  0
ARC
  5
760C
  8
0
 10
2964.4082341395687763
 20
136.5168782819459068
 30
0.0
 40
0.0161208091538162
 50
277.7821710453341097
 51
310.3872061052938989
  0
ARC
  5
760D
  8
0
 10
2964.4045580921679175
 20
136.5345254216221917
 30
0.0
 40
0.0341261801722961
 50
256.1433543576285956
 51
279.8857500338676232
  0
ARC
  5
760E
  8
0
 10
2964.3992812112760475
 20
136.5139604076078967
 30
0.0
 40
0.0128973930754516
 50
224.5083427407975023
 51
257.0235532696253244
  0
ARC
  5
760F
  8
0
 10
2964.4082341395687763
 20
136.4963800823327063
 30
0.0
 40
0.0161208091538162
 50
49.6127938947061509
 51
82.217828954665876
  0
ARC
  5
7610
  8
0
 10
2964.4045580921679175
 20
136.4787329426563076
 30
0.0
 40
0.0341261801722961
 50
80.11424996613232
 51
103.8566456423714044
  0
ARC
  5
7611
  8
0
 10
2964.3992812112760475
 20
136.4992979566706879
 30
0.0
 40
0.0128973930754516
 50
102.976446730374704
 51
135.4916572592024124
  0
ARC
  5
7612
  8
0
 10
2964.4007293157910681
 20
136.4678849801902061
 30
0.0
 40
0.0028250978856391
 50
142.7499637499647065
 51
217.2500362500352082
  0
ARC
  5
7613
  8
0
 10
2964.4249673887338759
 20
136.4678849801902061
 30
0.0
 40
0.0029273603858342
 50
316.099739132443915
 51
43.9002608675835972
  0
ARC
  5
7614
  8
0
 10
2964.416631216613041
 20
136.4781340799968063
 30
0.0
 40
0.0161208091538162
 50
277.7821710453341097
 51
310.3872061052938989
  0
ARC
  5
7615
  8
0
 10
2964.4129551692121822
 20
136.495781219673205
 30
0.0
 40
0.0341261801722961
 50
256.1433543576285956
 51
279.8857500338676232
  0
ARC
  5
7616
  8
0
 10
2964.4076782883198575
 20
136.4752162056587963
 30
0.0
 40
0.0128973930754516
 50
224.5083427407975023
 51
257.0235532696253244
  0
ARC
  5
7617
  8
0
 10
2964.416631216613041
 20
136.4576358803836058
 30
0.0
 40
0.0161208091538162
 50
49.6127938947061509
 51
82.217828954665876
  0
ARC
  5
7618
  8
0
 10
2964.4129551692121822
 20
136.4399887407072924
 30
0.0
 40
0.0341261801722961
 50
80.11424996613232
 51
103.8566456423714044
  0
ARC
  5
7619
  8
0
 10
2964.4076782883198575
 20
136.4605537547217011
 30
0.0
 40
0.0128973930754516
 50
102.976446730374704
 51
135.4916572592024124
  0
ARC
  5
761A
  8
0
 10
2964.4420259145358614
 20
136.4678210127476916
 30
0.0
 40
0.0028250978856391
 50
142.7499637499647065
 51
217.2500362500352082
  0
ARC
  5
761B
  8
0
 10
2964.4662639874791239
 20
136.4678210127476916
 30
0.0
 40
0.0029273603858342
 50
316.099739132443915
 51
43.9002608675835972
  0
ARC
  5
761C
  8
0
 10
2964.4579278153578343
 20
136.4780701125542919
 30
0.0
 40
0.0161208091538162
 50
277.7821710453341097
 51
310.3872061052938989
  0
ARC
  5
761D
  8
0
 10
2964.4542517679569755
 20
136.4957172522306053
 30
0.0
 40
0.0341261801722961
 50
256.1433543576285956
 51
279.8857500338676232
  0
ARC
  5
761E
  8
0
 10
2964.4489748870651056
 20
136.4751522382163103
 30
0.0
 40
0.0128973930754516
 50
224.5083427407975023
 51
257.0235532696253244
  0
ARC
  5
761F
  8
0
 10
2964.4579278153578343
 20
136.4575719129410913
 30
0.0
 40
0.0161208091538162
 50
49.6127938947061509
 51
82.217828954665876
  0
ARC
  5
7620
  8
0
 10
2964.4542517679569755
 20
136.4399247732648064
 30
0.0
 40
0.0341261801722961
 50
80.11424996613232
 51
103.8566456423714044
  0
ARC
  5
7621
  8
0
 10
2964.4489748870651056
 20
136.4604897872791014
 30
0.0
 40
0.0128973930754516
 50
102.976446730374704
 51
135.4916572592024124
  0
ARC
  5
7622
  8
0
 10
2964.4358893907119636
 20
136.4327923576068997
 30
0.0
 40
0.0028250978856391
 50
142.7499637499647065
 51
217.2500362500352082
  0
ARC
  5
7623
  8
0
 10
2964.4601274636552262
 20
136.4327923576068997
 30
0.0
 40
0.0029273603858342
 50
316.099739132443915
 51
43.9002608675835972
  0
ARC
  5
7624
  8
0
 10
2964.4517912915339366
 20
136.4430414574135
 30
0.0
 40
0.0161208091538162
 50
277.7821710453341097
 51
310.3872061052938989
  0
ARC
  5
7625
  8
0
 10
2964.4481152441330778
 20
136.4606885970898134
 30
0.0
 40
0.0341261801722961
 50
256.1433543576285956
 51
279.8857500338676232
  0
ARC
  5
7626
  8
0
 10
2964.4428383632412078
 20
136.4401235830754899
 30
0.0
 40
0.0128973930754516
 50
224.5083427407975023
 51
257.0235532696253244
  0
ARC
  5
7627
  8
0
 10
2964.4517912915339366
 20
136.4225432578002994
 30
0.0
 40
0.0161208091538162
 50
49.6127938947061509
 51
82.217828954665876
  0
ARC
  5
7628
  8
0
 10
2964.4481152441330778
 20
136.4048961181239861
 30
0.0
 40
0.0341261801722961
 50
80.11424996613232
 51
103.8566456423714044
  0
ARC
  5
7629
  8
0
 10
2964.4428383632412078
 20
136.4254611321383095
 30
0.0
 40
0.0128973930754516
 50
102.976446730374704
 51
135.4916572592024124
  0
ARC
  5
762A
  8
0
 10
2964.4809237903177745
 20
136.4396429362303991
 30
0.0
 40
0.0028250978856391
 50
142.7499637499647065
 51
217.2500362500352082
  0
ARC
  5
762B
  8
0
 10
2964.5051618632610371
 20
136.4396429362303991
 30
0.0
 40
0.0029273603858342
 50
316.099739132443915
 51
43.9002608675835972
  0
ARC
  5
762C
  8
0
 10
2964.4968256911402023
 20
136.4498920360369993
 30
0.0
 40
0.0161208091538162
 50
277.7821710453341097
 51
310.3872061052938989
  0
ARC
  5
762D
  8
0
 10
2964.4931496437397982
 20
136.4675391757133127
 30
0.0
 40
0.0341261801722961
 50
256.1433543576285956
 51
279.8857500338676232
  0
ARC
  5
762E
  8
0
 10
2964.4878727628479282
 20
136.4469741616989893
 30
0.0
 40
0.0128973930754516
 50
224.5083427407975023
 51
257.0235532696253244
  0
ARC
  5
762F
  8
0
 10
2964.4968256911402023
 20
136.4293938364237988
 30
0.0
 40
0.0161208091538162
 50
49.6127938947061509
 51
82.217828954665876
  0
ARC
  5
7630
  8
0
 10
2964.4931496437397982
 20
136.4117466967475139
 30
0.0
 40
0.0341261801722961
 50
80.11424996613232
 51
103.8566456423714044
  0
ARC
  5
7631
  8
0
 10
2964.4878727628479282
 20
136.4323117107618089
 30
0.0
 40
0.0128973930754516
 50
102.976446730374704
 51
135.4916572592024124
  0
ARC
  5
7632
  8
0
 10
2964.4832128711218502
 20
136.4679529194673933
 30
0.0
 40
0.0028250978856391
 50
142.7499637499647065
 51
217.2500362500352082
  0
ARC
  5
7633
  8
0
 10
2964.5074509440651127
 20
136.4679529194673933
 30
0.0
 40
0.0029273603858342
 50
316.099739132443915
 51
43.9002608675835972
  0
ARC
  5
7634
  8
0
 10
2964.4991147719438231
 20
136.4782020192739935
 30
0.0
 40
0.0161208091538162
 50
277.7821710453341097
 51
310.3872061052938989
  0
ARC
  5
7635
  8
0
 10
2964.4954387245429643
 20
136.4958491589503069
 30
0.0
 40
0.0341261801722961
 50
256.1433543576285956
 51
279.8857500338676232
  0
ARC
  5
7636
  8
0
 10
2964.4901618436510944
 20
136.4752841449360119
 30
0.0
 40
0.0128973930754516
 50
224.5083427407975023
 51
257.0235532696253244
  0
ARC
  5
7637
  8
0
 10
2964.4991147719438231
 20
136.457703819660793
 30
0.0
 40
0.0161208091538162
 50
49.6127938947061509
 51
82.217828954665876
  0
ARC
  5
7638
  8
0
 10
2964.4954387245429643
 20
136.440056679984508
 30
0.0
 40
0.0341261801722961
 50
80.11424996613232
 51
103.8566456423714044
  0
ARC
  5
7639
  8
0
 10
2964.4901618436510944
 20
136.460621693998803
 30
0.0
 40
0.0128973930754516
 50
102.976446730374704
 51
135.4916572592024124
  0
ARC
  5
763A
  8
0
 10
2964.4714471332740686
 20
136.4056672353640067
 30
0.0
 40
0.0028250978856391
 50
142.7499637499647065
 51
217.2500362500352082
  0
ARC
  5
763B
  8
0
 10
2964.4956852062159669
 20
136.4056672353640067
 30
0.0
 40
0.0029273603858342
 50
316.099739132443915
 51
43.9002608675835972
  0
ARC
  5
763C
  8
0
 10
2964.4873490340951321
 20
136.415916335170607
 30
0.0
 40
0.0161208091538162
 50
277.7821710453341097
 51
310.3872061052938989
  0
ARC
  5
763D
  8
0
 10
2964.4836729866938185
 20
136.4335634748468919
 30
0.0
 40
0.0341261801722961
 50
256.1433543576285956
 51
279.8857500338676232
  0
ARC
  5
763E
  8
0
 10
2964.4783961058019486
 20
136.4129984608325969
 30
0.0
 40
0.0128973930754516
 50
224.5083427407975023
 51
257.0235532696253244
  0
ARC
  5
763F
  8
0
 10
2964.4873490340951321
 20
136.3954181355574065
 30
0.0
 40
0.0161208091538162
 50
49.6127938947061509
 51
82.217828954665876
  0
ARC
  5
7640
  8
0
 10
2964.4836729866938185
 20
136.3777709958810931
 30
0.0
 40
0.0341261801722961
 50
80.11424996613232
 51
103.8566456423714044
  0
ARC
  5
7641
  8
0
 10
2964.4783961058019486
 20
136.3983360098953881
 30
0.0
 40
0.0128973930754516
 50
102.976446730374704
 51
135.4916572592024124
  0
ARC
  5
7642
  8
0
 10
2964.4700286593279088
 20
136.3764207353214886
 30
0.0
 40
0.0028250978856391
 50
142.7499637499647065
 51
217.2500362500352082
  0
ARC
  5
7643
  8
0
 10
2964.4942667322720808
 20
136.3764207353214886
 30
0.0
 40
0.0029273603858342
 50
316.099739132443915
 51
43.9002608675835972
  0
ARC
  5
7644
  8
0
 10
2964.4859305601498818
 20
136.3866698351280888
 30
0.0
 40
0.0161208091538162
 50
277.7821710453341097
 51
310.3872061052938989
  0
ARC
  5
7645
  8
0
 10
2964.482254512749023
 20
136.4043169748044022
 30
0.0
 40
0.0341261801722961
 50
256.1433543576285956
 51
279.8857500338676232
  0
ARC
  5
7646
  8
0
 10
2964.476977631857153
 20
136.3837519607901072
 30
0.0
 40
0.0128973930754516
 50
224.5083427407975023
 51
257.0235532696253244
  0
ARC
  5
7647
  8
0
 10
2964.4859305601498818
 20
136.3661716355148883
 30
0.0
 40
0.0161208091538162
 50
49.6127938947061509
 51
82.217828954665876
  0
ARC
  5
7648
  8
0
 10
2964.482254512749023
 20
136.3485244958386033
 30
0.0
 40
0.0341261801722961
 50
80.11424996613232
 51
103.8566456423714044
  0
ARC
  5
7649
  8
0
 10
2964.476977631857153
 20
136.3690895098528983
 30
0.0
 40
0.0128973930754516
 50
102.976446730374704
 51
135.4916572592024124
  0
ARC
  5
764A
  8
0
 10
2964.4234592695011088
 20
136.398568103508012
 30
0.0
 40
0.0028250978856391
 50
142.7499637499647065
 51
217.2500362500352082
  0
ARC
  5
764B
  8
0
 10
2964.4476973424439166
 20
136.398568103508012
 30
0.0
 40
0.0029273603858342
 50
316.099739132443915
 51
43.9002608675835972
  0
ARC
  5
764C
  8
0
 10
2964.4393611703221723
 20
136.4088172033146122
 30
0.0
 40
0.0161208091538162
 50
277.7821710453341097
 51
310.3872061052938989
  0
ARC
  5
764D
  8
0
 10
2964.4356851229222229
 20
136.4264643429908972
 30
0.0
 40
0.0341261801722961
 50
256.1433543576285956
 51
279.8857500338676232
  0
ARC
  5
764E
  8
0
 10
2964.4304082420298982
 20
136.4058993289766022
 30
0.0
 40
0.0128973930754516
 50
224.5083427407975023
 51
257.0235532696253244
  0
ARC
  5
764F
  8
0
 10
2964.4393611703221723
 20
136.3883190037014117
 30
0.0
 40
0.0161208091538162
 50
49.6127938947061509
 51
82.217828954665876
  0
ARC
  5
7650
  8
0
 10
2964.4356851229222229
 20
136.3706718640250983
 30
0.0
 40
0.0341261801722961
 50
80.11424996613232
 51
103.8566456423714044
  0
ARC
  5
7651
  8
0
 10
2964.4304082420298982
 20
136.3912368780393933
 30
0.0
 40
0.0128973930754516
 50
102.976446730374704
 51
135.4916572592024124
  0
ARC
  5
7652
  8
0
 10
2964.3928072401981808
 20
136.4291092126078127
 30
0.0
 40
0.0028250978856391
 50
142.7499637499647065
 51
217.2500362500352082
  0
ARC
  5
7653
  8
0
 10
2964.4170453131418981
 20
136.4291092126078127
 30
0.0
 40
0.0029273603858342
 50
316.099739132443915
 51
43.9002608675835972
  0
ARC
  5
7654
  8
0
 10
2964.4087091410201538
 20
136.4393583124144129
 30
0.0
 40
0.0161208091538162
 50
277.7821710453341097
 51
310.3872061052938989
  0
ARC
  5
7655
  8
0
 10
2964.4050330936188402
 20
136.4570054520906979
 30
0.0
 40
0.0341261801722961
 50
256.1433543576285956
 51
279.8857500338676232
  0
ARC
  5
7656
  8
0
 10
2964.3997562127278798
 20
136.4364404380764029
 30
0.0
 40
0.0128973930754516
 50
224.5083427407975023
 51
257.0235532696253244
  0
ARC
  5
7657
  8
0
 10
2964.4087091410201538
 20
136.4188601128012124
 30
0.0
 40
0.0161208091538162
 50
49.6127938947061509
 51
82.217828954665876
  0
ARC
  5
7658
  8
0
 10
2964.4050330936188402
 20
136.4012129731248137
 30
0.0
 40
0.0341261801722961
 50
80.11424996613232
 51
103.8566456423714044
  0
ARC
  5
7659
  8
0
 10
2964.3997562127278798
 20
136.421777987139194
 30
0.0
 40
0.0128973930754516
 50
102.976446730374704
 51
135.4916572592024124
  0
ARC
  5
765A
  8
0
 10
2964.3622208587089517
 20
136.4682290664987079
 30
0.0
 40
0.0028250978856391
 50
142.7499637499647065
 51
217.2500362500352082
  0
ARC
  5
765B
  8
0
 10
2964.3864589316522142
 20
136.4682290664987079
 30
0.0
 40
0.0029273603858342
 50
316.099739132443915
 51
43.9002608675835972
  0
ARC
  5
765C
  8
0
 10
2964.3781227595309247
 20
136.4784781663053082
 30
0.0
 40
0.0161208091538162
 50
277.7821710453341097
 51
310.3872061052938989
  0
ARC
  5
765D
  8
0
 10
2964.3744467121300659
 20
136.4961253059815931
 30
0.0
 40
0.0341261801722961
 50
256.1433543576285956
 51
279.8857500338676232
  0
ARC
  5
765E
  8
0
 10
2964.3691698312381959
 20
136.4755602919672981
 30
0.0
 40
0.0128973930754516
 50
224.5083427407975023
 51
257.0235532696253244
  0
ARC
  5
765F
  8
0
 10
2964.3781227595309247
 20
136.4579799666921076
 30
0.0
 40
0.0161208091538162
 50
49.6127938947061509
 51
82.217828954665876
  0
ARC
  5
7660
  8
0
 10
2964.3744467121300659
 20
136.440332827015709
 30
0.0
 40
0.0341261801722961
 50
80.11424996613232
 51
103.8566456423714044
  0
ARC
  5
7661
  8
0
 10
2964.3691698312381959
 20
136.4608978410300892
 30
0.0
 40
0.0128973930754516
 50
102.976446730374704
 51
135.4916572592024124
  0
ARC
  5
7662
  8
0
 10
2964.3270748757281581
 20
136.4678084701118905
 30
0.0
 40
0.0028250978856391
 50
142.7499637499647065
 51
217.2500362500352082
  0
ARC
  5
7663
  8
0
 10
2964.3513129486709659
 20
136.4678084701118905
 30
0.0
 40
0.0029273603858342
 50
316.099739132443915
 51
43.9002608675835972
  0
ARC
  5
7664
  8
0
 10
2964.342976776550131
 20
136.4780575699184908
 30
0.0
 40
0.0161208091538162
 50
277.7821710453341097
 51
310.3872061052938989
  0
ARC
  5
7665
  8
0
 10
2964.339300729147908
 20
136.4957047095948042
 30
0.0
 40
0.0341261801722961
 50
256.1433543576285956
 51
279.8857500338676232
  0
ARC
  5
7666
  8
0
 10
2964.3340238482569475
 20
136.4751396955805092
 30
0.0
 40
0.0128973930754516
 50
224.5083427407975023
 51
257.0235532696253244
  0
ARC
  5
7667
  8
0
 10
2964.342976776550131
 20
136.4575593703052903
 30
0.0
 40
0.0161208091538162
 50
49.6127938947061509
 51
82.217828954665876
  0
ARC
  5
7668
  8
0
 10
2964.339300729147908
 20
136.4399122306290053
 30
0.0
 40
0.0341261801722961
 50
80.11424996613232
 51
103.8566456423714044
  0
ARC
  5
7669
  8
0
 10
2964.3340238482569475
 20
136.4604772446433003
 30
0.0
 40
0.0128973930754516
 50
102.976446730374704
 51
135.4916572592024124
  0
ARC
  5
766A
  8
0
 10
2964.294721846290031
 20
136.467896686650306
 30
0.0
 40
0.0028250978856391
 50
142.7499637499647065
 51
217.2500362500352082
  0
ARC
  5
766B
  8
0
 10
2964.318959919234203
 20
136.467896686650306
 30
0.0
 40
0.0029273603858342
 50
316.099739132443915
 51
43.9002608675835972
  0
ARC
  5
766C
  8
0
 10
2964.3106237471129134
 20
136.4781457864569063
 30
0.0
 40
0.0161208091538162
 50
277.7821710453341097
 51
310.3872061052938989
  0
ARC
  5
766D
  8
0
 10
2964.3069476997120546
 20
136.4957929261331913
 30
0.0
 40
0.0341261801722961
 50
256.1433543576285956
 51
279.8857500338676232
  0
ARC
  5
766E
  8
0
 10
2964.3016708188201846
 20
136.4752279121188963
 30
0.0
 40
0.0128973930754516
 50
224.5083427407975023
 51
257.0235532696253244
  0
ARC
  5
766F
  8
0
 10
2964.3106237471129134
 20
136.4576475868437058
 30
0.0
 40
0.0161208091538162
 50
49.6127938947061509
 51
82.217828954665876
  0
ARC
  5
7670
  8
0
 10
2964.3069476997120546
 20
136.4400004471673924
 30
0.0
 40
0.0341261801722961
 50
80.11424996613232
 51
103.8566456423714044
  0
ARC
  5
7671
  8
0
 10
2964.3016708188201846
 20
136.4605654611816874
 30
0.0
 40
0.0128973930754516
 50
102.976446730374704
 51
135.4916572592024124
  0
ARC
  5
7672
  8
0
 10
2964.3526393713877951
 20
136.5083519131646881
 30
0.0
 40
0.0028250978856391
 50
142.7499637499647065
 51
217.2500362500352082
  0
ARC
  5
7673
  8
0
 10
2964.3768774443310576
 20
136.5083519131646881
 30
0.0
 40
0.0029273603858342
 50
316.099739132443915
 51
43.9002608675835972
  0
ARC
  5
7674
  8
0
 10
2964.3685412722088586
 20
136.5186010129712884
 30
0.0
 40
0.0161208091538162
 50
277.7821710453341097
 51
310.3872061052938989
  0
ARC
  5
7675
  8
0
 10
2964.3648652248089093
 20
136.536248152647687
 30
0.0
 40
0.0341261801722961
 50
256.1433543576285956
 51
279.8857500338676232
  0
ARC
  5
7676
  8
0
 10
2964.3595883439170393
 20
136.5156831386333067
 30
0.0
 40
0.0128973930754516
 50
224.5083427407975023
 51
257.0235532696253244
  0
ARC
  5
7677
  8
0
 10
2964.3685412722088586
 20
136.4981028133580878
 30
0.0
 40
0.0161208091538162
 50
49.6127938947061509
 51
82.217828954665876
  0
ARC
  5
7678
  8
0
 10
2964.3648652248089093
 20
136.4804556736818029
 30
0.0
 40
0.0341261801722961
 50
80.11424996613232
 51
103.8566456423714044
  0
ARC
  5
7679
  8
0
 10
2964.3595883439170393
 20
136.5010206876962116
 30
0.0
 40
0.0128973930754516
 50
102.976446730374704
 51
135.4916572592024124
  0
ARC
  5
767A
  8
0
 10
2964.3799962929319918
 20
136.541779082759291
 30
0.0
 40
0.0028250978856391
 50
207.614980442923212
 51
217.2500362500352082
  0
ARC
  5
767B
  8
0
 10
2964.4042343658761638
 20
136.541779082759291
 30
0.0
 40
0.0029273603858342
 50
316.099739132443915
 51
43.9002608675835972
  0
ARC
  5
767C
  8
0
 10
2964.3958981937539647
 20
136.5520281825658913
 30
0.0
 40
0.0161208091538162
 50
277.7821710453341097
 51
310.3872061052938989
  0
ARC
  5
767D
  8
0
 10
2964.3922221463531059
 20
136.5696753222422899
 30
0.0
 40
0.0341261801722961
 50
256.1433543576285956
 51
279.8857500338676232
  0
ARC
  5
767E
  8
0
 10
2964.3869452654621455
 20
136.5491103082279096
 30
0.0
 40
0.0128973930754516
 50
224.5083427407975023
 51
257.0235532696253244
  0
ARC
  5
767F
  8
0
 10
2964.3958981937539647
 20
136.5315299829526907
 30
0.0
 40
0.0161208091538162
 50
49.6127938947061509
 51
76.6820968468551314
  0
ARC
  5
7680
  8
0
 10
2964.4708494288411202
 20
136.5594844764816003
 30
0.0
 40
0.0028250978856391
 50
169.987562454014693
 51
217.2500362500352082
  0
ARC
  5
7681
  8
0
 10
2964.4950875017848375
 20
136.5594844764816003
 30
0.0
 40
0.0029273603858342
 50
316.099739132443915
 51
43.9002608675835972
  0
ARC
  5
7682
  8
0
 10
2964.4867513296630932
 20
136.5697335762882005
 30
0.0
 40
0.0161208091538162
 50
277.7821710453341097
 51
310.3872061052938989
  0
ARC
  5
7683
  8
0
 10
2964.4830752822631439
 20
136.5873807159645139
 30
0.0
 40
0.0341261801722961
 50
256.1433543576285956
 51
279.8857500338676232
  0
ARC
  5
7684
  8
0
 10
2964.4777984013699097
 20
136.5668157019501905
 30
0.0
 40
0.0128973930754516
 50
224.5083427407975023
 51
257.0235532696253244
  0
ARC
  5
7685
  8
0
 10
2964.4867513296630932
 20
136.549235376675
 30
0.0
 40
0.0161208091538162
 50
49.6127938947061509
 51
54.9996783769258286
  0
ARC
  5
7686
  8
0
 10
2964.3528332214727925
 20
136.427606395796488
 30
0.0
 40
0.0028250978856391
 50
142.7499637499647065
 51
217.2500362500352082
  0
ARC
  5
7687
  8
0
 10
2964.377071294416055
 20
136.427606395796488
 30
0.0
 40
0.0029273603858342
 50
316.099739132443915
 51
43.9002608675835972
  0
ARC
  5
7688
  8
0
 10
2964.3687351222952202
 20
136.4378554956030882
 30
0.0
 40
0.0161208091538162
 50
277.7821710453341097
 51
310.3872061052938989
  0
ARC
  5
7689
  8
0
 10
2964.3650590748948161
 20
136.4555026352794016
 30
0.0
 40
0.0341261801722961
 50
256.1433543576285956
 51
279.8857500338676232
  0
ARC
  5
768A
  8
0
 10
2964.3597821940029462
 20
136.4349376212651066
 30
0.0
 40
0.0128973930754516
 50
224.5083427407975023
 51
257.0235532696253244
  0
ARC
  5
768B
  8
0
 10
2964.3687351222952202
 20
136.4173572959898877
 30
0.0
 40
0.0161208091538162
 50
49.6127938947061509
 51
82.217828954665876
  0
ARC
  5
768C
  8
0
 10
2964.3650590748948161
 20
136.3997101563134891
 30
0.0
 40
0.0341261801722961
 50
80.11424996613232
 51
103.8566456423714044
  0
ARC
  5
768D
  8
0
 10
2964.3597821940029462
 20
136.4202751703278977
 30
0.0
 40
0.0128973930754516
 50
102.976446730374704
 51
135.4916572592024124
  0
ARC
  5
768E
  8
0
 10
2964.3167183317668787
 20
136.4272232182732125
 30
0.0
 40
0.0028250978856391
 50
142.7499637499647065
 51
217.2500362500352082
  0
ARC
  5
768F
  8
0
 10
2964.3409564047101412
 20
136.4272232182732125
 30
0.0
 40
0.0029273603858342
 50
316.099739132443915
 51
43.9002608675835972
  0
ARC
  5
7690
  8
0
 10
2964.3326202325888516
 20
136.4374723180798128
 30
0.0
 40
0.0161208091538162
 50
277.7821710453341097
 51
310.3872061052938989
  0
ARC
  5
7691
  8
0
 10
2964.3289441851879928
 20
136.4551194577560977
 30
0.0
 40
0.0341261801722961
 50
256.1433543576285956
 51
279.8857500338676232
  0
ARC
  5
7692
  8
0
 10
2964.3236673042970324
 20
136.4345544437416891
 30
0.0
 40
0.0128973930754516
 50
224.5083427407975023
 51
257.0235532696253244
  0
ARC
  5
7693
  8
0
 10
2964.3326202325888516
 20
136.4169741184666123
 30
0.0
 40
0.0161208091538162
 50
49.6127938947061509
 51
82.217828954665876
  0
ARC
  5
7694
  8
0
 10
2964.3289441851879928
 20
136.3993269787902136
 30
0.0
 40
0.0341261801722961
 50
80.11424996613232
 51
103.8566456423714044
  0
ARC
  5
7695
  8
0
 10
2964.3236673042970324
 20
136.4198919928045939
 30
0.0
 40
0.0128973930754516
 50
102.976446730374704
 51
135.4916572592024124
  0
ARC
  5
7696
  8
0
 10
2964.3793765913269453
 20
136.3945730649656127
 30
0.0
 40
0.0028250978856391
 50
142.7499637499647065
 51
217.2500362500352082
  0
ARC
  5
7697
  8
0
 10
2964.4036146642702079
 20
136.3945730649656127
 30
0.0
 40
0.0029273603858342
 50
316.099739132443915
 51
43.9002608675835972
  0
ARC
  5
7698
  8
0
 10
2964.3952784921489183
 20
136.404822164772213
 30
0.0
 40
0.0161208091538162
 50
277.7821710453341097
 51
310.3872061052938989
  0
ARC
  5
7699
  8
0
 10
2964.3916024447480595
 20
136.422469304448498
 30
0.0
 40
0.0341261801722961
 50
256.1433543576285956
 51
279.8857500338676232
  0
ARC
  5
769A
  8
0
 10
2964.3863255638561895
 20
136.4019042904342029
 30
0.0
 40
0.0128973930754516
 50
224.5083427407975023
 51
257.0235532696253244
  0
ARC
  5
769B
  8
0
 10
2964.3952784921489183
 20
136.3843239651590125
 30
0.0
 40
0.0161208091538162
 50
49.6127938947061509
 51
82.217828954665876
  0
ARC
  5
769C
  8
0
 10
2964.3916024447480595
 20
136.3666768254826991
 30
0.0
 40
0.0341261801722961
 50
80.11424996613232
 51
103.8566456423714044
  0
ARC
  5
769D
  8
0
 10
2964.3863255638561895
 20
136.3872418394969941
 30
0.0
 40
0.0128973930754516
 50
102.976446730374704
 51
135.4916572592024124
  0
ARC
  5
769E
  8
0
 10
2964.341215558903059
 20
136.5089568862975966
 30
0.0
 40
0.0029273603858342
 50
316.099739132443915
 51
43.9002608675835972
  0
ARC
  5
769F
  8
0
 10
2964.3328793867822242
 20
136.5192059861041969
 30
0.0
 40
0.0161208091538162
 50
277.7821710453341097
 51
310.3872061052938989
  0
ARC
  5
76A0
  8
0
 10
2964.3292033393809106
 20
136.5368531257805103
 30
0.0
 40
0.0341261801722961
 50
256.1433543576285956
 51
279.8857500338676232
  0
ARC
  5
76A1
  8
0
 10
2964.3239264584890407
 20
136.5162881117661868
 30
0.0
 40
0.0128973930754516
 50
227.5578985217586876
 51
257.0235532696253244
  0
ARC
  5
76A2
  8
0
 10
2964.3328793867822242
 20
136.4987077864909963
 30
0.0
 40
0.0161208091538162
 50
49.6127938947061509
 51
82.217828954665876
  0
ARC
  5
76A3
  8
0
 10
2964.3292033393809106
 20
136.4810606468147114
 30
0.0
 40
0.0341261801722961
 50
80.11424996613232
 51
95.8857865036500101
  0
ARC
  5
76A4
  8
0
 10
2964.329247110048982
 20
136.5435336577311034
 30
0.0
 40
0.0327547006840461
 50
255.9344723397641985
 51
290.3816371360479138
  0
ARC
  5
76A5
  8
0
 10
2964.3922531793459711
 20
136.5747049071252093
 30
0.0
 40
0.0313704412809171
 50
260.9128367963855908
 51
291.6882649013002151
  0
ARC
  5
76A6
  8
0
 10
2964.3067093188528816
 20
136.5028176065787022
 30
0.0
 40
0.0330183452174071
 50
249.8912324278153108
 51
290.3941630585114808
  0
ARC
  5
76A7
  8
0
 10
2964.3290035551231085
 20
136.4622486942247122
 30
0.0
 40
0.0331503137399474
 50
249.5731357679532891
 51
290.0562491147703099
  0
ARC
  5
76A8
  8
0
 10
2964.3914855036327936
 20
136.4294206161600016
 30
0.0
 40
0.0329718927340773
 50
249.6783724758392964
 51
290.3396471953744822
  0
ARC
  5
76A9
  8
0
 10
2964.4820450628508297
 20
136.4119691798333918
 30
0.0
 40
0.0336555601366515
 50
250.1576043017813902
 51
290.0635029733971919
  0
ARC
  5
76AA
  8
0
 10
2964.5935325246878165
 20
136.5304455570613129
 30
0.0
 40
0.0028250978856391
 50
322.7499637499648202
 51
37.2500362500352367
  0
ARC
  5
76AB
  8
0
 10
2964.5692944517450087
 20
136.5304455570613129
 30
0.0
 40
0.0029273603858342
 50
136.0997391324164028
 51
223.9002608675561987
  0
ARC
  5
76AC
  8
0
 10
2964.5776306238658435
 20
136.5406946568679984
 30
0.0
 40
0.0161208091538162
 50
229.6127938947061864
 51
262.2178289546658903
  0
ARC
  5
76AD
  8
0
 10
2964.5813066712671571
 20
136.5583417965443118
 30
0.0
 40
0.0341261801722961
 50
260.11424996613232
 51
283.8566456423714044
  0
ARC
  5
76AE
  8
0
 10
2964.586583552159027
 20
136.5377767825299031
 30
0.0
 40
0.0128973930754516
 50
282.9764467303746756
 51
315.491657259202384
  0
ARC
  5
76AF
  8
0
 10
2964.5776306238658435
 20
136.5201964572547126
 30
0.0
 40
0.0161208091538162
 50
97.7821710453341382
 51
130.3872061052938136
  0
ARC
  5
76B0
  8
0
 10
2964.5813066712671571
 20
136.5025493175783993
 30
0.0
 40
0.0341261801722961
 50
76.1433543576285956
 51
99.8857500338676942
  0
ARC
  5
76B1
  8
0
 10
2964.586583552159027
 20
136.523114331592808
 30
0.0
 40
0.0128973930754516
 50
44.5083427407975307
 51
77.0235532696252676
  0
ARC
  5
76B2
  8
0
 10
2964.5840967686372096
 20
136.4961757313857049
 30
0.0
 40
0.0028250978856391
 50
322.7499637499648202
 51
37.2500362500352367
  0
ARC
  5
76B3
  8
0
 10
2964.5598586956930376
 20
136.4961757313857049
 30
0.0
 40
0.0029273603858342
 50
136.0997391324164028
 51
223.9002608675561987
  0
ARC
  5
76B4
  8
0
 10
2964.5681948678147819
 20
136.5064248311923052
 30
0.0
 40
0.0161208091538162
 50
229.6127938947061864
 51
262.2178289546658903
  0
ARC
  5
76B5
  8
0
 10
2964.5718709152160955
 20
136.5240719708687038
 30
0.0
 40
0.0341261801722961
 50
260.11424996613232
 51
283.8566456423714044
  0
ARC
  5
76B6
  8
0
 10
2964.5771477961079654
 20
136.5035069568542951
 30
0.0
 40
0.0128973930754516
 50
282.9764467303746756
 51
315.491657259202384
  0
ARC
  5
76B7
  8
0
 10
2964.5681948678147819
 20
136.4859266315791047
 30
0.0
 40
0.0161208091538162
 50
97.7821710453341382
 51
130.3872061052938136
  0
ARC
  5
76B8
  8
0
 10
2964.5718709152160955
 20
136.4682794919027913
 30
0.0
 40
0.0341261801722961
 50
76.1433543576285956
 51
99.8857500338676942
  0
ARC
  5
76B9
  8
0
 10
2964.5771477961079654
 20
136.4888445059172
 30
0.0
 40
0.0128973930754516
 50
44.5083427407975307
 51
77.0235532696252676
  0
ARC
  5
76BA
  8
0
 10
2964.6290473040221514
 20
136.5029355849437138
 30
0.0
 40
0.0028250978856391
 50
322.7499637499648202
 51
37.2500362500352367
  0
ARC
  5
76BB
  8
0
 10
2964.6048092310788888
 20
136.5029355849437138
 30
0.0
 40
0.0029273603858342
 50
136.0997391324164028
 51
223.9002608675561987
  0
ARC
  5
76BC
  8
0
 10
2964.6131454032001784
 20
136.5131846847503141
 30
0.0
 40
0.0161208091538162
 50
229.6127938947061864
 51
262.2178289546658903
  0
ARC
  5
76BD
  8
0
 10
2964.6168214506010372
 20
136.530831824426599
 30
0.0
 40
0.0341261801722961
 50
260.11424996613232
 51
283.8566456423714044
  0
ARC
  5
76BE
  8
0
 10
2964.6220983314919977
 20
136.5102668104121904
 30
0.0
 40
0.0128973930754516
 50
282.9764467303746756
 51
315.491657259202384
  0
ARC
  5
76BF
  8
0
 10
2964.6131454032001784
 20
136.4926864851371136
 30
0.0
 40
0.0161208091538162
 50
97.7821710453341382
 51
130.3872061052938136
  0
ARC
  5
76C0
  8
0
 10
2964.6168214506010372
 20
136.4750393454606865
 30
0.0
 40
0.0341261801722961
 50
76.1433543576285956
 51
99.8857500338676942
  0
ARC
  5
76C1
  8
0
 10
2964.6220983314919977
 20
136.4956043594750952
 30
0.0
 40
0.0128973930754516
 50
44.5083427407975307
 51
77.0235532696252676
  0
ARC
  5
76C2
  8
0
 10
2964.641406965538863
 20
136.537667397704098
 30
0.0
 40
0.0028250978856391
 50
322.7499637499648202
 51
37.2500362500352367
  0
ARC
  5
76C3
  8
0
 10
2964.6171688925960552
 20
136.537667397704098
 30
0.0
 40
0.0029273603858342
 50
136.0997391324164028
 51
223.9002608675561987
  0
ARC
  5
76C4
  8
0
 10
2964.62550506471689
 20
136.5479164975106983
 30
0.0
 40
0.0161208091538162
 50
229.6127938947061864
 51
262.2178289546658903
  0
ARC
  5
76C5
  8
0
 10
2964.6291811121182036
 20
136.5655636371870969
 30
0.0
 40
0.0341261801722961
 50
260.11424996613232
 51
283.8566456423714044
  0
ARC
  5
76C6
  8
0
 10
2964.6344579930091641
 20
136.5449986231726882
 30
0.0
 40
0.0128973930754516
 50
282.9764467303746756
 51
315.491657259202384
  0
ARC
  5
76C7
  8
0
 10
2964.62550506471689
 20
136.5274182978974977
 30
0.0
 40
0.0161208091538162
 50
97.7821710453341382
 51
130.3872061052938136
  0
ARC
  5
76C8
  8
0
 10
2964.6291811121182036
 20
136.5097711582212128
 30
0.0
 40
0.0341261801722961
 50
76.1433543576285956
 51
99.8857500338676942
  0
ARC
  5
76C9
  8
0
 10
2964.6344579930091641
 20
136.530336172235593
 30
0.0
 40
0.0128973930754516
 50
44.5083427407975307
 51
77.0235532696252676
  0
ARC
  5
76CA
  8
0
 10
2964.6725302155277859
 20
136.5066291821393065
 30
0.0
 40
0.0028250978856391
 50
322.7499637499648202
 51
37.2500362500352367
  0
ARC
  5
76CB
  8
0
 10
2964.6482921425849781
 20
136.5066291821393065
 30
0.0
 40
0.0029273603858342
 50
136.0997391324164028
 51
223.9002608675561987
  0
ARC
  5
76CC
  8
0
 10
2964.6566283147071772
 20
136.5168782819459068
 30
0.0
 40
0.0161208091538162
 50
229.6127938947061864
 51
262.2178289546658903
  0
ARC
  5
76CD
  8
0
 10
2964.6603043621071265
 20
136.5345254216221917
 30
0.0
 40
0.0341261801722961
 50
260.11424996613232
 51
283.8566456423714044
  0
ARC
  5
76CE
  8
0
 10
2964.6655812429989965
 20
136.5139604076078967
 30
0.0
 40
0.0128973930754516
 50
282.9764467303746756
 51
315.491657259202384
  0
ARC
  5
76CF
  8
0
 10
2964.6566283147071772
 20
136.4963800823327063
 30
0.0
 40
0.0161208091538162
 50
97.7821710453341382
 51
130.3872061052938136
  0
ARC
  5
76D0
  8
0
 10
2964.6603043621071265
 20
136.4787329426563076
 30
0.0
 40
0.0341261801722961
 50
76.1433543576285956
 51
99.8857500338676942
  0
ARC
  5
76D1
  8
0
 10
2964.6655812429989965
 20
136.4992979566706879
 30
0.0
 40
0.0128973930754516
 50
44.5083427407975307
 51
77.0235532696252676
  0
ARC
  5
76D2
  8
0
 10
2964.6641331384848854
 20
136.4678849801902061
 30
0.0
 40
0.0028250978856391
 50
322.7499637499648202
 51
37.2500362500352367
  0
ARC
  5
76D3
  8
0
 10
2964.6398950655420776
 20
136.4678849801902061
 30
0.0
 40
0.0029273603858342
 50
136.0997391324164028
 51
223.9002608675561987
  0
ARC
  5
76D4
  8
0
 10
2964.6482312376629125
 20
136.4781340799968063
 30
0.0
 40
0.0161208091538162
 50
229.6127938947061864
 51
262.2178289546658903
  0
ARC
  5
76D5
  8
0
 10
2964.6519072850628618
 20
136.495781219673205
 30
0.0
 40
0.0341261801722961
 50
260.11424996613232
 51
283.8566456423714044
  0
ARC
  5
76D6
  8
0
 10
2964.6571841659551865
 20
136.4752162056587963
 30
0.0
 40
0.0128973930754516
 50
282.9764467303746756
 51
315.491657259202384
  0
ARC
  5
76D7
  8
0
 10
2964.6482312376629125
 20
136.4576358803836058
 30
0.0
 40
0.0161208091538162
 50
97.7821710453341382
 51
130.3872061052938136
  0
ARC
  5
76D8
  8
0
 10
2964.6519072850628618
 20
136.4399887407072924
 30
0.0
 40
0.0341261801722961
 50
76.1433543576285956
 51
99.8857500338676942
  0
ARC
  5
76D9
  8
0
 10
2964.6571841659551865
 20
136.4605537547217011
 30
0.0
 40
0.0128973930754516
 50
44.5083427407975307
 51
77.0235532696252676
  0
ARC
  5
76DA
  8
0
 10
2964.6228365397391826
 20
136.4678210127476916
 30
0.0
 40
0.0028250978856391
 50
322.7499637499648202
 51
37.2500362500352367
  0
ARC
  5
76DB
  8
0
 10
2964.5985984667959201
 20
136.4678210127476916
 30
0.0
 40
0.0029273603858342
 50
136.0997391324164028
 51
223.9002608675561987
  0
ARC
  5
76DC
  8
0
 10
2964.6069346389172097
 20
136.4780701125542919
 30
0.0
 40
0.0161208091538162
 50
229.6127938947061864
 51
262.2178289546658903
  0
ARC
  5
76DD
  8
0
 10
2964.6106106863180685
 20
136.4957172522306053
 30
0.0
 40
0.0341261801722961
 50
260.11424996613232
 51
283.8566456423714044
  0
ARC
  5
76DE
  8
0
 10
2964.6158875672099384
 20
136.4751522382163103
 30
0.0
 40
0.0128973930754516
 50
282.9764467303746756
 51
315.491657259202384
  0
ARC
  5
76DF
  8
0
 10
2964.6069346389172097
 20
136.4575719129410913
 30
0.0
 40
0.0161208091538162
 50
97.7821710453341382
 51
130.3872061052938136
  0
ARC
  5
76E0
  8
0
 10
2964.6106106863180685
 20
136.4399247732648064
 30
0.0
 40
0.0341261801722961
 50
76.1433543576285956
 51
99.8857500338676942
  0
ARC
  5
76E1
  8
0
 10
2964.6158875672099384
 20
136.4604897872791014
 30
0.0
 40
0.0128973930754516
 50
44.5083427407975307
 51
77.0235532696252676
  0
ARC
  5
76E2
  8
0
 10
2964.6289730635639899
 20
136.4327923576068997
 30
0.0
 40
0.0028250978856391
 50
322.7499637499648202
 51
37.2500362500352367
  0
ARC
  5
76E3
  8
0
 10
2964.6047349906211821
 20
136.4327923576068997
 30
0.0
 40
0.0029273603858342
 50
136.0997391324164028
 51
223.9002608675561987
  0
ARC
  5
76E4
  8
0
 10
2964.6130711627420169
 20
136.4430414574135
 30
0.0
 40
0.0161208091538162
 50
229.6127938947061864
 51
262.2178289546658903
  0
ARC
  5
76E5
  8
0
 10
2964.6167472101428757
 20
136.4606885970898134
 30
0.0
 40
0.0341261801722961
 50
260.11424996613232
 51
283.8566456423714044
  0
ARC
  5
76E6
  8
0
 10
2964.6220240910338362
 20
136.4401235830754899
 30
0.0
 40
0.0128973930754516
 50
282.9764467303746756
 51
315.491657259202384
  0
ARC
  5
76E7
  8
0
 10
2964.6130711627420169
 20
136.4225432578002994
 30
0.0
 40
0.0161208091538162
 50
97.7821710453341382
 51
130.3872061052938136
  0
ARC
  5
76E8
  8
0
 10
2964.6167472101428757
 20
136.4048961181239861
 30
0.0
 40
0.0341261801722961
 50
76.1433543576285956
 51
99.8857500338676942
  0
ARC
  5
76E9
  8
0
 10
2964.6220240910338362
 20
136.4254611321383095
 30
0.0
 40
0.0128973930754516
 50
44.5083427407975307
 51
77.0235532696252676
  0
ARC
  5
76EA
  8
0
 10
2964.5839386639559052
 20
136.4396429362303991
 30
0.0
 40
0.0028250978856391
 50
322.7499637499648202
 51
37.2500362500352367
  0
ARC
  5
76EB
  8
0
 10
2964.5597005910140069
 20
136.4396429362303991
 30
0.0
 40
0.0029273603858342
 50
136.0997391324164028
 51
223.9002608675561987
  0
ARC
  5
76EC
  8
0
 10
2964.5680367631339323
 20
136.4498920360369993
 30
0.0
 40
0.0161208091538162
 50
229.6127938947061864
 51
262.2178289546658903
  0
ARC
  5
76ED
  8
0
 10
2964.5717128105347911
 20
136.4675391757133127
 30
0.0
 40
0.0341261801722961
 50
260.11424996613232
 51
283.8566456423714044
  0
ARC
  5
76EE
  8
0
 10
2964.5769896914271158
 20
136.4469741616989893
 30
0.0
 40
0.0128973930754516
 50
282.9764467303746756
 51
315.491657259202384
  0
ARC
  5
76EF
  8
0
 10
2964.5680367631339323
 20
136.4293938364237988
 30
0.0
 40
0.0161208091538162
 50
97.7821710453341382
 51
130.3872061052938136
  0
ARC
  5
76F0
  8
0
 10
2964.5717128105347911
 20
136.4117466967475139
 30
0.0
 40
0.0341261801722961
 50
76.1433543576285956
 51
99.8857500338676942
  0
ARC
  5
76F1
  8
0
 10
2964.5769896914271158
 20
136.4323117107618089
 30
0.0
 40
0.0128973930754516
 50
44.5083427407975307
 51
77.0235532696252676
  0
ARC
  5
76F2
  8
0
 10
2964.5816495831531938
 20
136.4679529194673933
 30
0.0
 40
0.0028250978856391
 50
322.7499637499648202
 51
37.2500362500352367
  0
ARC
  5
76F3
  8
0
 10
2964.5574115102099313
 20
136.4679529194673933
 30
0.0
 40
0.0029273603858342
 50
136.0997391324164028
 51
223.9002608675561987
  0
ARC
  5
76F4
  8
0
 10
2964.5657476823312209
 20
136.4782020192739935
 30
0.0
 40
0.0161208091538162
 50
229.6127938947061864
 51
262.2178289546658903
  0
ARC
  5
76F5
  8
0
 10
2964.5694237297320797
 20
136.4958491589503069
 30
0.0
 40
0.0341261801722961
 50
260.11424996613232
 51
283.8566456423714044
  0
ARC
  5
76F6
  8
0
 10
2964.5747006106239496
 20
136.4752841449360119
 30
0.0
 40
0.0128973930754516
 50
282.9764467303746756
 51
315.491657259202384
  0
ARC
  5
76F7
  8
0
 10
2964.5657476823312209
 20
136.457703819660793
 30
0.0
 40
0.0161208091538162
 50
97.7821710453341382
 51
130.3872061052938136
  0
ARC
  5
76F8
  8
0
 10
2964.5694237297320797
 20
136.440056679984508
 30
0.0
 40
0.0341261801722961
 50
76.1433543576285956
 51
99.8857500338676942
  0
ARC
  5
76F9
  8
0
 10
2964.5747006106239496
 20
136.460621693998803
 30
0.0
 40
0.0128973930754516
 50
44.5083427407975307
 51
77.0235532696252676
  0
ARC
  5
76FA
  8
0
 10
2964.5934153210009754
 20
136.4056672353640067
 30
0.0
 40
0.0028250978856391
 50
322.7499637499648202
 51
37.2500362500352367
  0
ARC
  5
76FB
  8
0
 10
2964.5691772480581676
 20
136.4056672353640067
 30
0.0
 40
0.0029273603858342
 50
136.0997391324164028
 51
223.9002608675561987
  0
ARC
  5
76FC
  8
0
 10
2964.5775134201790024
 20
136.415916335170607
 30
0.0
 40
0.0161208091538162
 50
229.6127938947061864
 51
262.2178289546658903
  0
ARC
  5
76FD
  8
0
 10
2964.5811894675798612
 20
136.4335634748468919
 30
0.0
 40
0.0341261801722961
 50
260.11424996613232
 51
283.8566456423714044
  0
ARC
  5
76FE
  8
0
 10
2964.5864663484721859
 20
136.4129984608325969
 30
0.0
 40
0.0128973930754516
 50
282.9764467303746756
 51
315.491657259202384
  0
ARC
  5
76FF
  8
0
 10
2964.5775134201790024
 20
136.3954181355574065
 30
0.0
 40
0.0161208091538162
 50
97.7821710453341382
 51
130.3872061052938136
  0
ARC
  5
7700
  8
0
 10
2964.5811894675798612
 20
136.3777709958810931
 30
0.0
 40
0.0341261801722961
 50
76.1433543576285956
 51
99.8857500338676942
  0
ARC
  5
7701
  8
0
 10
2964.5864663484721859
 20
136.3983360098953881
 30
0.0
 40
0.0128973930754516
 50
44.5083427407975307
 51
77.0235532696252676
  0
ARC
  5
7702
  8
0
 10
2964.5948337949471352
 20
136.3764207353214886
 30
0.0
 40
0.0028250978856391
 50
322.7499637499648202
 51
37.2500362500352367
  0
ARC
  5
7703
  8
0
 10
2964.5705957220029632
 20
136.3764207353214886
 30
0.0
 40
0.0029273603858342
 50
136.0997391324164028
 51
223.9002608675561987
  0
ARC
  5
7704
  8
0
 10
2964.5789318941251622
 20
136.3866698351280888
 30
0.0
 40
0.0161208091538162
 50
229.6127938947061864
 51
262.2178289546658903
  0
ARC
  5
7705
  8
0
 10
2964.582607941526021
 20
136.4043169748044022
 30
0.0
 40
0.0341261801722961
 50
260.11424996613232
 51
283.8566456423714044
  0
ARC
  5
7706
  8
0
 10
2964.587884822417891
 20
136.3837519607901072
 30
0.0
 40
0.0128973930754516
 50
282.9764467303746756
 51
315.491657259202384
  0
ARC
  5
7707
  8
0
 10
2964.5789318941251622
 20
136.3661716355148883
 30
0.0
 40
0.0161208091538162
 50
97.7821710453341382
 51
130.3872061052938136
  0
ARC
  5
7708
  8
0
 10
2964.582607941526021
 20
136.3485244958386033
 30
0.0
 40
0.0341261801722961
 50
76.1433543576285956
 51
99.8857500338676942
  0
ARC
  5
7709
  8
0
 10
2964.587884822417891
 20
136.3690895098528983
 30
0.0
 40
0.0128973930754516
 50
44.5083427407975307
 51
77.0235532696252676
  0
ARC
  5
770A
  8
0
 10
2964.6414031847748447
 20
136.398568103508012
 30
0.0
 40
0.0028250978856391
 50
322.7499637499648202
 51
37.2500362500352367
  0
ARC
  5
770B
  8
0
 10
2964.6171651118311274
 20
136.398568103508012
 30
0.0
 40
0.0029273603858342
 50
136.0997391324164028
 51
223.9002608675561987
  0
ARC
  5
770C
  8
0
 10
2964.6255012839528717
 20
136.4088172033146122
 30
0.0
 40
0.0161208091538162
 50
229.6127938947061864
 51
262.2178289546658903
  0
ARC
  5
770D
  8
0
 10
2964.6291773313528211
 20
136.4264643429908972
 30
0.0
 40
0.0341261801722961
 50
260.11424996613232
 51
283.8566456423714044
  0
ARC
  5
770E
  8
0
 10
2964.6344542122451458
 20
136.4058993289766022
 30
0.0
 40
0.0128973930754516
 50
282.9764467303746756
 51
315.491657259202384
  0
ARC
  5
770F
  8
0
 10
2964.6255012839528717
 20
136.3883190037014117
 30
0.0
 40
0.0161208091538162
 50
97.7821710453341382
 51
130.3872061052938136
  0
ARC
  5
7710
  8
0
 10
2964.6291773313528211
 20
136.3706718640250983
 30
0.0
 40
0.0341261801722961
 50
76.1433543576285956
 51
99.8857500338676942
  0
ARC
  5
7711
  8
0
 10
2964.6344542122451458
 20
136.3912368780393933
 30
0.0
 40
0.0128973930754516
 50
44.5083427407975307
 51
77.0235532696252676
  0
ARC
  5
7712
  8
0
 10
2964.6720552140768632
 20
136.4291092126078127
 30
0.0
 40
0.0028250978856391
 50
322.7499637499648202
 51
37.2500362500352367
  0
ARC
  5
7713
  8
0
 10
2964.6478171411331459
 20
136.4291092126078127
 30
0.0
 40
0.0029273603858342
 50
136.0997391324164028
 51
223.9002608675561987
  0
ARC
  5
7714
  8
0
 10
2964.6561533132548902
 20
136.4393583124144129
 30
0.0
 40
0.0161208091538162
 50
229.6127938947061864
 51
262.2178289546658903
  0
ARC
  5
7715
  8
0
 10
2964.6598293606562038
 20
136.4570054520906979
 30
0.0
 40
0.0341261801722961
 50
260.11424996613232
 51
283.8566456423714044
  0
ARC
  5
7716
  8
0
 10
2964.6651062415471642
 20
136.4364404380764029
 30
0.0
 40
0.0128973930754516
 50
282.9764467303746756
 51
315.491657259202384
  0
ARC
  5
7717
  8
0
 10
2964.6561533132548902
 20
136.4188601128012124
 30
0.0
 40
0.0161208091538162
 50
97.7821710453341382
 51
130.3872061052938136
  0
ARC
  5
7718
  8
0
 10
2964.6598293606562038
 20
136.4012129731248137
 30
0.0
 40
0.0341261801722961
 50
76.1433543576285956
 51
99.8857500338676942
  0
ARC
  5
7719
  8
0
 10
2964.6651062415471642
 20
136.421777987139194
 30
0.0
 40
0.0128973930754516
 50
44.5083427407975307
 51
77.0235532696252676
  0
ARC
  5
771A
  8
0
 10
2964.7026415955660923
 20
136.4682290664987079
 30
0.0
 40
0.0028250978856391
 50
322.7499637499648202
 51
37.2500362500352367
  0
ARC
  5
771B
  8
0
 10
2964.6784035226219203
 20
136.4682290664987079
 30
0.0
 40
0.0029273603858342
 50
136.0997391324164028
 51
223.9002608675561987
  0
ARC
  5
771C
  8
0
 10
2964.6867396947441193
 20
136.4784781663053082
 30
0.0
 40
0.0161208091538162
 50
229.6127938947061864
 51
262.2178289546658903
  0
ARC
  5
771D
  8
0
 10
2964.6904157421449781
 20
136.4961253059815931
 30
0.0
 40
0.0341261801722961
 50
260.11424996613232
 51
283.8566456423714044
  0
ARC
  5
771E
  8
0
 10
2964.6956926230368481
 20
136.4755602919672981
 30
0.0
 40
0.0128973930754516
 50
282.9764467303746756
 51
315.491657259202384
  0
ARC
  5
771F
  8
0
 10
2964.6867396947441193
 20
136.4579799666921076
 30
0.0
 40
0.0161208091538162
 50
97.7821710453341382
 51
130.3872061052938136
  0
ARC
  5
7720
  8
0
 10
2964.6904157421449781
 20
136.440332827015709
 30
0.0
 40
0.0341261801722961
 50
76.1433543576285956
 51
99.8857500338676942
  0
ARC
  5
7721
  8
0
 10
2964.6956926230368481
 20
136.4608978410300892
 30
0.0
 40
0.0128973930754516
 50
44.5083427407975307
 51
77.0235532696252676
  0
ARC
  5
7722
  8
0
 10
2964.7377875785477954
 20
136.4678084701118905
 30
0.0
 40
0.0028250978856391
 50
322.7499637499648202
 51
37.2500362500352367
  0
ARC
  5
7723
  8
0
 10
2964.7135495056049876
 20
136.4678084701118905
 30
0.0
 40
0.0029273603858342
 50
136.0997391324164028
 51
223.9002608675561987
  0
ARC
  5
7724
  8
0
 10
2964.7218856777258225
 20
136.4780575699184908
 30
0.0
 40
0.0161208091538162
 50
229.6127938947061864
 51
262.2178289546658903
  0
ARC
  5
7725
  8
0
 10
2964.725561725127136
 20
136.4957047095948042
 30
0.0
 40
0.0341261801722961
 50
260.11424996613232
 51
283.8566456423714044
  0
ARC
  5
7726
  8
0
 10
2964.730838606019006
 20
136.4751396955805092
 30
0.0
 40
0.0128973930754516
 50
282.9764467303746756
 51
315.491657259202384
  0
ARC
  5
7727
  8
0
 10
2964.7218856777258225
 20
136.4575593703052903
 30
0.0
 40
0.0161208091538162
 50
97.7821710453341382
 51
130.3872061052938136
  0
ARC
  5
7728
  8
0
 10
2964.725561725127136
 20
136.4399122306290053
 30
0.0
 40
0.0341261801722961
 50
76.1433543576285956
 51
99.8857500338676942
  0
ARC
  5
7729
  8
0
 10
2964.730838606019006
 20
136.4604772446433003
 30
0.0
 40
0.0128973930754516
 50
44.5083427407975307
 51
77.0235532696252676
  0
ARC
  5
772A
  8
0
 10
2964.770140607985013
 20
136.467896686650306
 30
0.0
 40
0.0028250978856391
 50
322.7499637499648202
 51
37.2500362500352367
  0
ARC
  5
772B
  8
0
 10
2964.745902535040841
 20
136.467896686650306
 30
0.0
 40
0.0029273603858342
 50
136.0997391324164028
 51
223.9002608675561987
  0
ARC
  5
772C
  8
0
 10
2964.7542387071630401
 20
136.4781457864569063
 30
0.0
 40
0.0161208091538162
 50
229.6127938947061864
 51
262.2178289546658903
  0
ARC
  5
772D
  8
0
 10
2964.7579147545638989
 20
136.4957929261331913
 30
0.0
 40
0.0341261801722961
 50
260.11424996613232
 51
283.8566456423714044
  0
ARC
  5
772E
  8
0
 10
2964.7631916354548594
 20
136.4752279121188963
 30
0.0
 40
0.0128973930754516
 50
282.9764467303746756
 51
315.491657259202384
  0
ARC
  5
772F
  8
0
 10
2964.7542387071630401
 20
136.4576475868437058
 30
0.0
 40
0.0161208091538162
 50
97.7821710453341382
 51
130.3872061052938136
  0
ARC
  5
7730
  8
0
 10
2964.7579147545638989
 20
136.4400004471673924
 30
0.0
 40
0.0341261801722961
 50
76.1433543576285956
 51
99.8857500338676942
  0
ARC
  5
7731
  8
0
 10
2964.7631916354548594
 20
136.4605654611816874
 30
0.0
 40
0.0128973930754516
 50
44.5083427407975307
 51
77.0235532696252676
  0
ARC
  5
7732
  8
0
 10
2964.7122230828881584
 20
136.5083519131646881
 30
0.0
 40
0.0028250978856391
 50
322.7499637499648202
 51
37.2500362500352367
  0
ARC
  5
7733
  8
0
 10
2964.6879850099448959
 20
136.5083519131646881
 30
0.0
 40
0.0029273603858342
 50
136.0997391324164028
 51
223.9002608675561987
  0
ARC
  5
7734
  8
0
 10
2964.6963211820661854
 20
136.5186010129712884
 30
0.0
 40
0.0161208091538162
 50
229.6127938947061864
 51
262.2178289546658903
  0
ARC
  5
7735
  8
0
 10
2964.6999972294661347
 20
136.536248152647687
 30
0.0
 40
0.0341261801722961
 50
260.11424996613232
 51
283.8566456423714044
  0
ARC
  5
7736
  8
0
 10
2964.7052741103589142
 20
136.5156831386333067
 30
0.0
 40
0.0128973930754516
 50
282.9764467303746756
 51
315.491657259202384
  0
ARC
  5
7737
  8
0
 10
2964.6963211820661854
 20
136.4981028133580878
 30
0.0
 40
0.0161208091538162
 50
97.7821710453341382
 51
130.3872061052938136
  0
ARC
  5
7738
  8
0
 10
2964.6999972294661347
 20
136.4804556736818029
 30
0.0
 40
0.0341261801722961
 50
76.1433543576285956
 51
99.8857500338676942
  0
ARC
  5
7739
  8
0
 10
2964.7052741103589142
 20
136.5010206876962116
 30
0.0
 40
0.0128973930754516
 50
44.5083427407975307
 51
77.0235532696252676
  0
ARC
  5
773A
  8
0
 10
2964.6848661613430522
 20
136.541779082759291
 30
0.0
 40
0.0028250978856391
 50
322.7499637499648202
 51
332.3850195570753954
  0
ARC
  5
773B
  8
0
 10
2964.6606280883997897
 20
136.541779082759291
 30
0.0
 40
0.0029273603858342
 50
136.0997391324164028
 51
223.9002608675561987
  0
ARC
  5
773C
  8
0
 10
2964.6689642605210793
 20
136.5520281825658913
 30
0.0
 40
0.0161208091538162
 50
229.6127938947061864
 51
262.2178289546658903
  0
ARC
  5
773D
  8
0
 10
2964.6726403079219381
 20
136.5696753222422899
 30
0.0
 40
0.0341261801722961
 50
260.11424996613232
 51
283.8566456423714044
  0
ARC
  5
773E
  8
0
 10
2964.677917188813808
 20
136.5491103082279096
 30
0.0
 40
0.0128973930754516
 50
282.9764467303746756
 51
315.491657259202384
  0
ARC
  5
773F
  8
0
 10
2964.6689642605210793
 20
136.5315299829526907
 30
0.0
 40
0.0161208091538162
 50
103.317903153144897
 51
130.3872061052938136
  0
ARC
  5
7740
  8
0
 10
2964.5940130254339238
 20
136.5594844764816003
 30
0.0
 40
0.0028250978856391
 50
322.7499637499648202
 51
10.0124375459853603
  0
ARC
  5
7741
  8
0
 10
2964.5697749524902065
 20
136.5594844764816003
 30
0.0
 40
0.0029273603858342
 50
136.0997391324164028
 51
223.9002608675561987
  0
ARC
  5
7742
  8
0
 10
2964.5781111246119508
 20
136.5697335762882005
 30
0.0
 40
0.0161208091538162
 50
229.6127938947061864
 51
262.2178289546658903
  0
ARC
  5
7743
  8
0
 10
2964.5817871720119001
 20
136.5873807159645139
 30
0.0
 40
0.0341261801722961
 50
260.11424996613232
 51
283.8566456423714044
  0
ARC
  5
7744
  8
0
 10
2964.5870640529051343
 20
136.5668157019501905
 30
0.0
 40
0.0128973930754516
 50
282.9764467303746756
 51
315.491657259202384
  0
ARC
  5
7745
  8
0
 10
2964.5781111246119508
 20
136.549235376675
 30
0.0
 40
0.0161208091538162
 50
125.0003216230741998
 51
130.3872061052938136
  0
ARC
  5
7746
  8
0
 10
2964.7120292328008873
 20
136.427606395796488
 30
0.0
 40
0.0028250978856391
 50
322.7499637499648202
 51
37.2500362500352367
  0
ARC
  5
7747
  8
0
 10
2964.6877911598580795
 20
136.427606395796488
 30
0.0
 40
0.0029273603858342
 50
136.0997391324164028
 51
223.9002608675561987
  0
ARC
  5
7748
  8
0
 10
2964.6961273319789143
 20
136.4378554956030882
 30
0.0
 40
0.0161208091538162
 50
229.6127938947061864
 51
262.2178289546658903
  0
ARC
  5
7749
  8
0
 10
2964.6998033793797731
 20
136.4555026352794016
 30
0.0
 40
0.0341261801722961
 50
260.11424996613232
 51
283.8566456423714044
  0
ARC
  5
774A
  8
0
 10
2964.7050802602720978
 20
136.4349376212651066
 30
0.0
 40
0.0128973930754516
 50
282.9764467303746756
 51
315.491657259202384
  0
ARC
  5
774B
  8
0
 10
2964.6961273319789143
 20
136.4173572959898877
 30
0.0
 40
0.0161208091538162
 50
97.7821710453341382
 51
130.3872061052938136
  0
ARC
  5
774C
  8
0
 10
2964.6998033793797731
 20
136.3997101563134891
 30
0.0
 40
0.0341261801722961
 50
76.1433543576285956
 51
99.8857500338676942
  0
ARC
  5
774D
  8
0
 10
2964.7050802602720978
 20
136.4202751703278977
 30
0.0
 40
0.0128973930754516
 50
44.5083427407975307
 51
77.0235532696252676
  0
ARC
  5
774E
  8
0
 10
2964.7481441225081653
 20
136.4272232182732125
 30
0.0
 40
0.0028250978856391
 50
322.7499637499648202
 51
37.2500362500352367
  0
ARC
  5
774F
  8
0
 10
2964.7239060495649028
 20
136.4272232182732125
 30
0.0
 40
0.0029273603858342
 50
136.0997391324164028
 51
223.9002608675561987
  0
ARC
  5
7750
  8
0
 10
2964.7322422216861924
 20
136.4374723180798128
 30
0.0
 40
0.0161208091538162
 50
229.6127938947061864
 51
262.2178289546658903
  0
ARC
  5
7751
  8
0
 10
2964.7359182690870512
 20
136.4551194577560977
 30
0.0
 40
0.0341261801722961
 50
260.11424996613232
 51
283.8566456423714044
  0
ARC
  5
7752
  8
0
 10
2964.7411951499789211
 20
136.4345544437416891
 30
0.0
 40
0.0128973930754516
 50
282.9764467303746756
 51
315.491657259202384
  0
ARC
  5
7753
  8
0
 10
2964.7322422216861924
 20
136.4169741184666123
 30
0.0
 40
0.0161208091538162
 50
97.7821710453341382
 51
130.3872061052938136
  0
ARC
  5
7754
  8
0
 10
2964.7359182690870512
 20
136.3993269787902136
 30
0.0
 40
0.0341261801722961
 50
76.1433543576285956
 51
99.8857500338676942
  0
ARC
  5
7755
  8
0
 10
2964.7411951499789211
 20
136.4198919928045939
 30
0.0
 40
0.0128973930754516
 50
44.5083427407975307
 51
77.0235532696252676
  0
ARC
  5
7756
  8
0
 10
2964.6854858629480987
 20
136.3945730649656127
 30
0.0
 40
0.0028250978856391
 50
322.7499637499648202
 51
37.2500362500352367
  0
ARC
  5
7757
  8
0
 10
2964.6612477900048361
 20
136.3945730649656127
 30
0.0
 40
0.0029273603858342
 50
136.0997391324164028
 51
223.9002608675561987
  0
ARC
  5
7758
  8
0
 10
2964.6695839621261257
 20
136.404822164772213
 30
0.0
 40
0.0161208091538162
 50
229.6127938947061864
 51
262.2178289546658903
  0
ARC
  5
7759
  8
0
 10
2964.6732600095269845
 20
136.422469304448498
 30
0.0
 40
0.0341261801722961
 50
260.11424996613232
 51
283.8566456423714044
  0
ARC
  5
775A
  8
0
 10
2964.6785368904188545
 20
136.4019042904342029
 30
0.0
 40
0.0128973930754516
 50
282.9764467303746756
 51
315.491657259202384
  0
ARC
  5
775B
  8
0
 10
2964.6695839621261257
 20
136.3843239651590125
 30
0.0
 40
0.0161208091538162
 50
97.7821710453341382
 51
130.3872061052938136
  0
ARC
  5
775C
  8
0
 10
2964.6732600095269845
 20
136.3666768254826991
 30
0.0
 40
0.0341261801722961
 50
76.1433543576285956
 51
99.8857500338676942
  0
ARC
  5
775D
  8
0
 10
2964.6785368904188545
 20
136.3872418394969941
 30
0.0
 40
0.0128973930754516
 50
44.5083427407975307
 51
77.0235532696252676
  0
ARC
  5
775E
  8
0
 10
2964.723646895371985
 20
136.5089568862975966
 30
0.0
 40
0.0029273603858342
 50
136.0997391324164028
 51
223.9002608675561987
  0
ARC
  5
775F
  8
0
 10
2964.7319830674928198
 20
136.5192059861041969
 30
0.0
 40
0.0161208091538162
 50
229.6127938947061864
 51
262.2178289546658903
  0
ARC
  5
7760
  8
0
 10
2964.7356591148941334
 20
136.5368531257805103
 30
0.0
 40
0.0341261801722961
 50
260.11424996613232
 51
283.8566456423714044
  0
ARC
  5
7761
  8
0
 10
2964.7409359957860033
 20
136.5162881117661868
 30
0.0
 40
0.0128973930754516
 50
282.9764467303746756
 51
312.442101478241284
  0
ARC
  5
7762
  8
0
 10
2964.7319830674928198
 20
136.4987077864909963
 30
0.0
 40
0.0161208091538162
 50
97.7821710453341382
 51
130.3872061052938136
  0
ARC
  5
7763
  8
0
 10
2964.7356591148941334
 20
136.4810606468147114
 30
0.0
 40
0.0341261801722961
 50
84.1142134963500041
 51
99.8857500338676942
  0
ARC
  5
7764
  8
0
 10
2964.735615344226062
 20
136.5435336577311034
 30
0.0
 40
0.0327547006840461
 50
249.6183628639521999
 51
284.0655276602357731
  0
ARC
  5
7765
  8
0
 10
2964.6726092749290729
 20
136.5747049071252093
 30
0.0
 40
0.0313704412809171
 50
248.3117350986998986
 51
279.0871632036142955
  0
ARC
  5
7766
  8
0
 10
2964.7581531354207982
 20
136.5028176065787022
 30
0.0
 40
0.0330183452174071
 50
249.6058369414884908
 51
290.1087675721847177
  0
ARC
  5
7767
  8
0
 10
2964.735858899151026
 20
136.4622486942247122
 30
0.0
 40
0.0331503137399474
 50
249.9437508852296901
 51
290.4268642320466824
  0
ARC
  5
7768
  8
0
 10
2964.6733769506417957
 20
136.4294206161600016
 30
0.0
 40
0.0329718927340773
 50
249.6603528046254894
 51
290.3216275241605899
  0
ARC
  5
7769
  8
0
 10
2964.5828173914242143
 20
136.4119691798333918
 30
0.0
 40
0.0336555601366515
 50
249.9364970266028934
 51
289.8423956982185814
  0
ARC
  5
776A
  8
0
 10
2964.5204120946068542
 20
136.5482760964817999
 30
0.0
 40
0.0028250978856391
 50
142.7499637499647065
 51
217.2500362500352082
  0
ARC
  5
776B
  8
0
 10
2964.5446501675501167
 20
136.5482760964817999
 30
0.0
 40
0.0029273603858342
 50
316.099739132443915
 51
43.9002608675835972
  0
ARC
  5
776C
  8
0
 10
2964.5363139954288272
 20
136.5585251962884001
 30
0.0
 40
0.0161208091538162
 50
277.7821710453341097
 51
310.3872061052938989
  0
ARC
  5
776D
  8
0
 10
2964.5326379480279684
 20
136.5761723359647988
 30
0.0
 40
0.0341261801722961
 50
256.1433543576285956
 51
279.8857500338676232
  0
ARC
  5
776E
  8
0
 10
2964.5273610671360984
 20
136.5556073219503901
 30
0.0
 40
0.0128973930754516
 50
224.5083427407975023
 51
257.0235532696253244
  0
ARC
  5
776F
  8
0
 10
2964.5363139954288272
 20
136.5380269966751996
 30
0.0
 40
0.0161208091538162
 50
49.6127938947061509
 51
82.217828954665876
  0
ARC
  5
7770
  8
0
 10
2964.5326379480279684
 20
136.5203798569988862
 30
0.0
 40
0.0341261801722961
 50
80.11424996613232
 51
103.8566456423714044
  0
ARC
  5
7771
  8
0
 10
2964.5273610671360984
 20
136.5409448710132096
 30
0.0
 40
0.0128973930754516
 50
102.976446730374704
 51
135.4916572592024124
  0
ARC
  5
7772
  8
0
 10
2964.5204120946068542
 20
136.5176156232980986
 30
0.0
 40
0.0028250978856391
 50
142.7499637499647065
 51
217.2500362500352082
  0
ARC
  5
7773
  8
0
 10
2964.5446501675501167
 20
136.5176156232980986
 30
0.0
 40
0.0029273603858342
 50
316.099739132443915
 51
43.9002608675835972
  0
ARC
  5
7774
  8
0
 10
2964.5363139954288272
 20
136.5278647231046989
 30
0.0
 40
0.0161208091538162
 50
277.7821710453341097
 51
310.3872061052938989
  0
ARC
  5
7775
  8
0
 10
2964.5326379480279684
 20
136.5455118627810975
 30
0.0
 40
0.0341261801722961
 50
256.1433543576285956
 51
279.8857500338676232
  0
ARC
  5
7776
  8
0
 10
2964.5273610671360984
 20
136.5249468487666888
 30
0.0
 40
0.0128973930754516
 50
224.5083427407975023
 51
257.0235532696253244
  0
ARC
  5
7777
  8
0
 10
2964.5363139954288272
 20
136.5073665234914984
 30
0.0
 40
0.0161208091538162
 50
49.6127938947061509
 51
82.217828954665876
  0
ARC
  5
7778
  8
0
 10
2964.5326379480279684
 20
136.4897193838152134
 30
0.0
 40
0.0341261801722961
 50
80.11424996613232
 51
103.8566456423714044
  0
ARC
  5
7779
  8
0
 10
2964.5273610671360984
 20
136.5102843978295084
 30
0.0
 40
0.0128973930754516
 50
102.976446730374704
 51
135.4916572592024124
  0
ARC
  5
777A
  8
0
 10
2964.5204120946068542
 20
136.4831396803078007
 30
0.0
 40
0.0028250978856391
 50
142.7499637499647065
 51
217.2500362500352082
  0
ARC
  5
777B
  8
0
 10
2964.5446501675501167
 20
136.4831396803078007
 30
0.0
 40
0.0029273603858342
 50
316.099739132443915
 51
43.9002608675835972
  0
ARC
  5
777C
  8
0
 10
2964.5363139954288272
 20
136.4933887801142873
 30
0.0
 40
0.0161208091538162
 50
277.7821710453341097
 51
310.3872061052938989
  0
ARC
  5
777D
  8
0
 10
2964.5326379480279684
 20
136.511035919790686
 30
0.0
 40
0.0341261801722961
 50
256.1433543576285956
 51
279.8857500338676232
  0
ARC
  5
777E
  8
0
 10
2964.5273610671360984
 20
136.4904709057763057
 30
0.0
 40
0.0128973930754516
 50
224.5083427407975023
 51
257.0235532696253244
  0
ARC
  5
777F
  8
0
 10
2964.5363139954288272
 20
136.4728905805012005
 30
0.0
 40
0.0161208091538162
 50
49.6127938947061509
 51
82.217828954665876
  0
ARC
  5
7780
  8
0
 10
2964.5326379480279684
 20
136.4552434408248018
 30
0.0
 40
0.0341261801722961
 50
80.11424996613232
 51
103.8566456423714044
  0
ARC
  5
7781
  8
0
 10
2964.5273610671360984
 20
136.4758084548390968
 30
0.0
 40
0.0128973930754516
 50
102.976446730374704
 51
135.4916572592024124
  0
ARC
  5
7782
  8
0
 10
2964.5204120946068542
 20
136.452501783868513
 30
0.0
 40
0.0028250978856391
 50
142.7499637499647065
 51
217.2500362500352082
  0
ARC
  5
7783
  8
0
 10
2964.5446501675501167
 20
136.452501783868513
 30
0.0
 40
0.0029273603858342
 50
316.099739132443915
 51
43.9002608675835972
  0
ARC
  5
7784
  8
0
 10
2964.5363139954288272
 20
136.4627508836749996
 30
0.0
 40
0.0161208091538162
 50
277.7821710453341097
 51
310.3872061052938989
  0
ARC
  5
7785
  8
0
 10
2964.5326379480279684
 20
136.4803980233513983
 30
0.0
 40
0.0341261801722961
 50
256.1433543576285956
 51
279.8857500338676232
  0
ARC
  5
7786
  8
0
 10
2964.5273610671360984
 20
136.4598330093371032
 30
0.0
 40
0.0128973930754516
 50
224.5083427407975023
 51
257.0235532696253244
  0
ARC
  5
7787
  8
0
 10
2964.5363139954288272
 20
136.4422526840619128
 30
0.0
 40
0.0161208091538162
 50
49.6127938947061509
 51
82.217828954665876
  0
ARC
  5
7788
  8
0
 10
2964.5326379480279684
 20
136.4246055443855141
 30
0.0
 40
0.0341261801722961
 50
80.11424996613232
 51
103.8566456423714044
  0
ARC
  5
7789
  8
0
 10
2964.5273610671360984
 20
136.4451705583998944
 30
0.0
 40
0.0128973930754516
 50
102.976446730374704
 51
135.4916572592024124
  0
ARC
  5
778A
  8
0
 10
2964.5204120946068542
 20
136.4680120072837894
 30
0.0
 40
0.0028250978856391
 50
142.7499637499647065
 51
217.2500362500352082
  0
ARC
  5
778B
  8
0
 10
2964.5446501675501167
 20
136.4680120072837894
 30
0.0
 40
0.0029273603858342
 50
316.099739132443915
 51
43.9002608675835972
  0
ARC
  5
778C
  8
0
 10
2964.5363139954288272
 20
136.4782611070903897
 30
0.0
 40
0.0161208091538162
 50
277.7821710453341097
 51
310.3872061052938989
  0
ARC
  5
778D
  8
0
 10
2964.5326379480279684
 20
136.4959082467667884
 30
0.0
 40
0.0341261801722961
 50
256.1433543576285956
 51
279.8857500338676232
  0
ARC
  5
778E
  8
0
 10
2964.5273610671360984
 20
136.4753432327524081
 30
0.0
 40
0.0128973930754516
 50
224.5083427407975023
 51
257.0235532696253244
  0
ARC
  5
778F
  8
0
 10
2964.5363139954288272
 20
136.4577629074773029
 30
0.0
 40
0.0161208091538162
 50
49.6127938947061509
 51
82.217828954665876
  0
ARC
  5
7790
  8
0
 10
2964.5326379480279684
 20
136.4401157678009042
 30
0.0
 40
0.0341261801722961
 50
80.11424996613232
 51
103.8566456423714044
  0
ARC
  5
7791
  8
0
 10
2964.5273610671360984
 20
136.4606807818153129
 30
0.0
 40
0.0128973930754516
 50
102.976446730374704
 51
135.4916572592024124
  0
ARC
  5
7792
  8
0
 10
2964.5204120946068542
 20
136.3874575560674032
 30
0.0
 40
0.0028250978856391
 50
142.7499637499647065
 51
217.2500362500352082
  0
ARC
  5
7793
  8
0
 10
2964.5446501675501167
 20
136.3874575560674032
 30
0.0
 40
0.0029273603858342
 50
316.099739132443915
 51
43.9002608675835972
  0
ARC
  5
7794
  8
0
 10
2964.5363139954288272
 20
136.3977066558740034
 30
0.0
 40
0.0161208091538162
 50
277.7821710453341097
 51
310.3872061052938989
  0
ARC
  5
7795
  8
0
 10
2964.5326379480279684
 20
136.4153537955504021
 30
0.0
 40
0.0341261801722961
 50
256.1433543576285956
 51
279.8857500338676232
  0
ARC
  5
7796
  8
0
 10
2964.5273610671360984
 20
136.3947887815359934
 30
0.0
 40
0.0128973930754516
 50
224.5083427407975023
 51
257.0235532696253244
  0
ARC
  5
7797
  8
0
 10
2964.5363139954288272
 20
136.3772084562608029
 30
0.0
 40
0.0161208091538162
 50
49.6127938947061509
 51
82.217828954665876
  0
ARC
  5
7798
  8
0
 10
2964.5326379480279684
 20
136.3595613165844895
 30
0.0
 40
0.0341261801722961
 50
80.11424996613232
 51
103.8566456423714044
  0
ARC
  5
7799
  8
0
 10
2964.5273610671360984
 20
136.380126330598813
 30
0.0
 40
0.0128973930754516
 50
102.976446730374704
 51
135.4916572592024124
  0
ARC
  5
779A
  8
0
 10
2964.5204120946068542
 20
136.4182808744724014
 30
0.0
 40
0.0028250978856391
 50
142.7499637499647065
 51
217.2500362500352082
  0
ARC
  5
779B
  8
0
 10
2964.5446501675501167
 20
136.4182808744724014
 30
0.0
 40
0.0029273603858342
 50
316.099739132443915
 51
43.9002608675835972
  0
ARC
  5
779C
  8
0
 10
2964.5363139954288272
 20
136.4285299742790016
 30
0.0
 40
0.0161208091538162
 50
277.7821710453341097
 51
310.3872061052938989
  0
ARC
  5
779D
  8
0
 10
2964.5326379480279684
 20
136.4461771139552866
 30
0.0
 40
0.0341261801722961
 50
256.1433543576285956
 51
279.8857500338676232
  0
ARC
  5
779E
  8
0
 10
2964.5273610671360984
 20
136.4256120999409916
 30
0.0
 40
0.0128973930754516
 50
224.5083427407975023
 51
257.0235532696253244
  0
ARC
  5
779F
  8
0
 10
2964.5363139954288272
 20
136.4080317746658011
 30
0.0
 40
0.0161208091538162
 50
49.6127938947061509
 51
82.217828954665876
  0
ARC
  5
77A0
  8
0
 10
2964.5326379480279684
 20
136.3903846349894877
 30
0.0
 40
0.0341261801722961
 50
80.11424996613232
 51
103.8566456423714044
  0
ARC
  5
77A1
  8
0
 10
2964.5273610671360984
 20
136.4109496490038111
 30
0.0
 40
0.0128973930754516
 50
102.976446730374704
 51
135.4916572592024124
  0
ARC
  5
77A2
  8
0
 10
2956.2507787238942001
 20
141.9743742591095952
 30
0.0
 40
9.3928423076122165
 50
321.7244637611037206
 51
326.5586498459721838
  0
ARC
  5
77A3
  8
0
 10
2956.2507787238942001
 20
132.1534702984129979
 30
0.0
 40
9.3928423076122165
 50
32.8783348222437226
 51
38.2755362388962581
  0
ARC
  5
77A4
  8
0
 10
2972.8140837303808439
 20
141.9743742591095952
 30
0.0
 40
9.3928423076122165
 50
213.4413501540277878
 51
218.2755362388963079
  0
ARC
  5
77A5
  8
0
 10
2972.8140837303808439
 20
132.1534702984129979
 30
0.0
 40
9.3928423076122165
 50
141.7244637611036921
 51
147.1216651777563129
  0
ARC
  5
77A6
  8
0
 10
2960.5954221871152185
 20
136.1052856342051882
 30
0.0
 40
0.2040276771594475
 50
76.9945879531193498
 51
103.0054120468805934
  0
ARC
  5
77A7
  8
0
 10
2960.6205406717399455
 20
136.2140388761179111
 30
0.0
 40
0.0924113436935514
 50
58.2485753481177184
 51
76.9945879531193498
  0
ARC
  5
77A8
  8
0
 10
2960.6554107515758005
 20
136.2703851661206897
 30
0.0
 40
0.0261480290705862
 50
36.0359733120249714
 51
58.2485753481177184
  0
ARC
  5
77A9
  8
0
 10
2960.6644093396180324
 20
136.2758796314267897
 30
0.0
 40
0.0156621061720689
 50
308.4335349448068087
 51
39.1496449574986016
  0
ARC
  5
77AA
  8
0
 10
2960.618101187791126
 20
136.3333380919249009
 30
0.0
 40
0.089458211038295
 50
278.525358434401312
 51
308.7909282893252225
  0
ARC
  5
77AB
  8
0
 10
2960.595660906753892
 20
136.4333935538975027
 30
0.0
 40
0.1918759884266882
 50
256.3393495343659083
 51
280.7234729790810093
  0
ARC
  5
77AC
  8
0
 10
2960.5686857430318923
 20
136.327803228573913
 30
0.0
 40
0.0829117024057638
 50
233.4355454566428136
 51
257.2202748282477955
  0
ARC
  5
77AD
  8
0
 10
2960.5381306135850537
 20
136.2831583810354914
 30
0.0
 40
0.0289240938017115
 50
202.1491407384177137
 51
229.3620779048607972
  0
ARC
  5
77AE
  8
0
 10
2960.5259582526559825
 20
136.2761745387736028
 30
0.0
 40
0.0151340767036065
 50
138.2786907239994036
 51
195.0160583772527048
  0
ARC
  5
77AF
  8
0
 10
2960.5609446020971518
 20
136.2387734296542021
 30
0.0
 40
0.0663003133983626
 50
99.9337589174765242
 51
134.2723932549500887
  0
LINE
  5
77B0
  8
0
 10
2960.6413372061151676
 20
136.3040797590612954
 30
0.0
 11
2960.5495071681148147
 21
136.3040797590612954
 31
0.0
  0
ARC
  5
77B1
  8
0
 10
2968.4694402671598255
 20
136.1052856342051882
 30
0.0
 40
0.2040276771594475
 50
76.9945879531193498
 51
103.0054120468805934
  0
ARC
  5
77B2
  8
0
 10
2968.4443217825350985
 20
136.2140388761179111
 30
0.0
 40
0.0924113436935514
 50
103.0054120468805934
 51
121.7514246518823029
  0
ARC
  5
77B3
  8
0
 10
2968.4094517026987887
 20
136.2703851661206897
 30
0.0
 40
0.0261480290705862
 50
121.7514246518823029
 51
143.9640266879750072
  0
ARC
  5
77B4
  8
0
 10
2968.4004531146570116
 20
136.2758796314267897
 30
0.0
 40
0.0156621061720689
 50
140.8503550425014055
 51
231.5664650551921966
  0
ARC
  5
77B5
  8
0
 10
2968.4467612664848275
 20
136.3333380919249009
 30
0.0
 40
0.089458211038295
 50
231.2090717106748059
 51
261.4746415655988017
  0
ARC
  5
77B6
  8
0
 10
2968.469201547521152
 20
136.4333935538975027
 30
0.0
 40
0.1918759884266882
 50
259.2765270209189907
 51
283.6606504656340917
  0
ARC
  5
77B7
  8
0
 10
2968.4961767112431517
 20
136.327803228573913
 30
0.0
 40
0.0829117024057638
 50
282.7797251717520908
 51
306.5644545433572148
  0
ARC
  5
77B8
  8
0
 10
2968.5267318406899903
 20
136.2831583810354914
 30
0.0
 40
0.0289240938017115
 50
310.6379220951391744
 51
337.8508592615824
  0
ARC
  5
77B9
  8
0
 10
2968.538904201619971
 20
136.2761745387736028
 30
0.0
 40
0.0151340767036065
 50
344.9839416227471816
 51
41.7213092760005821
  0
ARC
  5
77BA
  8
0
 10
2968.5039178521778922
 20
136.2387734296542021
 30
0.0
 40
0.0663003133983626
 50
45.7276067450498829
 51
80.0662410825235042
  0
LINE
  5
77BB
  8
0
 10
2968.4235252481598764
 20
136.3040797590612954
 30
0.0
 11
2968.5153552861597746
 21
136.3040797590612954
 31
0.0
  0
ENDSEC
  0
EOF
