  0
SECTION
  2
HEADER
  9
$ACADVER
  1
AC1009
  9
$INSBASE
 10
4456.4250048978183258
 20
266.1603104538900766
 30
0.0
  9
$EXTMIN
 10
4451.2001362841328955
 20
266.139230463679894
 30
-0.0015258207003583
  9
$EXTMAX
 10
4461.7531614594836356
 20
305.8305071827018082
 30
0.0000000349246037
  9
$LIMMIN
 10
0.0
 20
0.0
  9
$LIMMAX
 10
11.6929133858000007
 20
8.2677165353999982
  9
$ORTHOMODE
 70
     0
  9
$REGENMODE
 70
     1
  9
$FILLMODE
 70
     1
  9
$QTEXTMODE
 70
     0
  9
$MIRRTEXT
 70
     0
  9
$DRAGMODE
 70
     2
  9
$LTSCALE
 40
0.6431102362
  9
$OSMODE
 70
  4095
  9
$ATTMODE
 70
     1
  9
$TEXTSIZE
 40
0.2
  9
$TRACEWID
 40
0.05
  9
$TEXTSTYLE
  7
STANDARD
  9
$CLAYER
  8
0
  9
$CELTYPE
  6
BYLAYER
  9
$CECOLOR
 62
   256
  9
$DIMSCALE
 40
1.0
  9
$DIMASZ
 40
0.1875
  9
$DIMEXO
 40
0.0625
  9
$DIMDLI
 40
0.4443307087
  9
$DIMRND
 40
0.0
  9
$DIMDLE
 40
0.0
  9
$DIMEXE
 40
0.125
  9
$DIMTP
 40
0.01
  9
$DIMTM
 40
0.01
  9
$DIMTXT
 40
2.0
  9
$DIMCEN
 40
0.1052362205
  9
$DIMTSZ
 40
0.0
  9
$DIMTOL
 70
     1
  9
$DIMLIM
 70
     0
  9
$DIMTIH
 70
     1
  9
$DIMTOH
 70
     1
  9
$DIMSE1
 70
     0
  9
$DIMSE2
 70
     0
  9
$DIMTAD
 70
     0
  9
$DIMZIN
 70
     0
  9
$DIMBLK
  1

  9
$DIMASO
 70
     1
  9
$DIMSHO
 70
     1
  9
$DIMPOST
  1
\X
  9
$DIMAPOST
  1

  9
$DIMALT
 70
     1
  9
$DIMALTD
 70
     2
  9
$DIMALTF
 40
25.3999999999999986
  9
$DIMLFAC
 40
1.0
  9
$DIMTOFL
 70
     0
  9
$DIMTVP
 40
0.0
  9
$DIMTIX
 70
     0
  9
$DIMSOXD
 70
     0
  9
$DIMSAH
 70
     0
  9
$DIMBLK1
  1

  9
$DIMBLK2
  1

  9
$DIMSTYLE
  2
STANDARD
  9
$DIMCLRD
 70
     0
  9
$DIMCLRE
 70
     0
  9
$DIMCLRT
 70
     0
  9
$DIMTFAC
 40
1.0
  9
$DIMGAP
 40
0.09
  9
$LUNITS
 70
     2
  9
$LUPREC
 70
     4
  9
$SKETCHINC
 40
0.1
  9
$FILLETRAD
 40
0.0
  9
$AUNITS
 70
     0
  9
$AUPREC
 70
     0
  9
$MENU
  1
.
  9
$ELEVATION
 40
0.0
  9
$PELEVATION
 40
0.0
  9
$THICKNESS
 40
0.0
  9
$LIMCHECK
 70
     0
  9
$BLIPMODE
 70
     0
  9
$CHAMFERA
 40
0.0
  9
$CHAMFERB
 40
0.0
  9
$SKPOLY
 70
     0
  9
$TDCREATE
 40
2458060.468368056230247
  9
$TDUPDATE
 40
2459999.4326041671447456
  9
$TDINDWG
 40
0.6278195602
  9
$TDUSRTIMER
 40
0.6278195602
  9
$USRTIMER
 70
     1
  9
$ANGBASE
 50
0.0
  9
$ANGDIR
 70
     0
  9
$PDMODE
 70
     0
  9
$PDSIZE
 40
0.3125
  9
$PLINEWID
 40
0.0
  9
$COORDS
 70
     1
  9
$SPLFRAME
 70
     0
  9
$SPLINETYPE
 70
     6
  9
$SPLINESEGS
 70
     8
  9
$ATTDIA
 70
     1
  9
$ATTREQ
 70
     1
  9
$HANDLING
 70
     1
  9
$HANDSEED
  5
C8CF
  9
$SURFTAB1
 70
     6
  9
$SURFTAB2
 70
     6
  9
$SURFTYPE
 70
     6
  9
$SURFU
 70
     6
  9
$SURFV
 70
     6
  9
$UCSNAME
  2

  9
$UCSORG
 10
0.0
 20
0.0
 30
0.0
  9
$UCSXDIR
 10
1.0
 20
0.0
 30
0.0
  9
$UCSYDIR
 10
0.0
 20
1.0
 30
0.0
  9
$PUCSNAME
  2

  9
$PUCSORG
 10
0.0
 20
0.0
 30
0.0
  9
$PUCSXDIR
 10
1.0
 20
0.0
 30
0.0
  9
$PUCSYDIR
 10
0.0
 20
1.0
 30
0.0
  9
$USERI1
 70
     0
  9
$USERI2
 70
     0
  9
$USERI3
 70
     0
  9
$USERI4
 70
     0
  9
$USERI5
 70
     0
  9
$USERR1
 40
0.0
  9
$USERR2
 40
0.0
  9
$USERR3
 40
0.0
  9
$USERR4
 40
0.0
  9
$USERR5
 40
0.0
  9
$WORLDVIEW
 70
     1
  9
$SHADEDGE
 70
     3
  9
$SHADEDIF
 70
    70
  9
$TILEMODE
 70
     1
  9
$MAXACTVP
 70
    64
  9
$PLIMCHECK
 70
     0
  9
$PEXTMIN
 10
1.0000000000000000E+20
 20
1.0000000000000000E+20
 30
1.0000000000000000E+20
  9
$PEXTMAX
 10
-1.0000000000000000E+20
 20
-1.0000000000000000E+20
 30
-1.0000000000000000E+20
  9
$PLIMMIN
 10
0.0
 20
0.0
  9
$PLIMMAX
 10
12.0
 20
9.0
  9
$UNITMODE
 70
     0
  9
$VISRETAIN
 70
     1
  9
$PLINEGEN
 70
     0
  9
$PSLTSCALE
 70
     1
  0
ENDSEC
  0
SECTION
  2
TABLES
  0
TABLE
  2
VPORT
 70
     1
  0
VPORT
  2
*ACTIVE
 70
     0
 10
0.0
 20
0.0
 11
1.0
 21
1.0
 12
172.4078012155586919
 22
60.7365091430150912
 13
0.0
 23
0.0
 14
1.0
 24
1.0
 15
0.0
 25
0.0
 16
0.0
 26
0.0
 36
27.5337298366232197
 17
4284.0688476562490905
 27
225.2483596801758097
 37
0.0
 40
39.920418963057422
 41
1.943097014925373
 42
50.0
 43
0.0
 44
0.0
 50
0.0
 51
0.0
 71
     0
 72
   100
 73
     1
 74
     1
 75
     0
 76
     0
 77
     0
 78
     0
  0
ENDTAB
  0
TABLE
  2
LTYPE
 70
     3
  0
LTYPE
  2
CONTINUOUS
 70
     0
  3
Solid line
 72
    65
 73
     0
 40
0.0
  0
LTYPE
  2
PHANTOM2
 70
     0
  3
___ _ _ ___ _ _ ___ _ _ ___ _ _
 72
    65
 73
     6
 40
1.25
 49
0.625
 49
-0.125
 49
0.125
 49
-0.125
 49
0.125
 49
-0.125
  0
ENDTAB
  0
TABLE
  2
LAYER
 70
     2
  0
LAYER
  2
0
 70
     0
 62
   255
  6
CONTINUOUS
  0
LAYER
  2
DEFPOINTS
 70
     0
 62
     7
  6
CONTINUOUS
  0
ENDTAB
  0
TABLE
  2
STYLE
 70
     1
  0
STYLE
  2
STANDARD
 70
     0
 40
0.0
 41
0.8
 50
0.0
 71
     0
 42
0.2
  3
txt
  4

  0
ENDTAB
  0
TABLE
  2
VIEW
 70
     0
  0
ENDTAB
  0
TABLE
  2
UCS
 70
     0
  0
ENDTAB
  0
TABLE
  2
APPID
 70
     9
  0
APPID
  2
ACAD
 70
     0
  0
APPID
  2
ACAD_MLEADERVER
 70
     0
  0
APPID
  2
ACAD_EXEMPT_FROM_CAD_STANDARDS
 70
     0
  0
APPID
  2
ACAD_NAV_VCDISPLAY
 70
     0
  0
APPID
  2
ACAECLAYERSTANDARD
 70
     0
  0
APPID
  2
ACCMTRANSPARENCY
 70
     0
  0
APPID
  2
ACAD_DSTYLE_DIMJAG
 70
     0
  0
APPID
  2
ACAD_DSTYLE_DIMTALN
 70
     0
  0
APPID
  2
ACDBATTR
 70
     0
  0
ENDTAB
  0
TABLE
  2
DIMSTYLE
 70
     2
  0
DIMSTYLE
  2
STANDARD
 70
     0
  3

  4

  5

  6

  7

 40
1.0
 41
0.1875
 42
0.0625
 43
0.38
 44
0.125
 45
0.0
 46
0.0
 47
0.01
 48
0.01
140
0.15625
141
0.09
142
0.0
143
25.3999999999999986
144
1.0
145
0.0
146
1.0
147
0.09
 71
     1
 72
     0
 73
     1
 74
     1
 75
     0
 76
     0
 77
     0
 78
     4
170
     0
171
     2
172
     0
173
     0
174
     0
175
     0
176
     0
177
     0
178
     0
  0
ENDTAB
  0
ENDSEC
  0
SECTION
  2
BLOCKS
  0
BLOCK
  8
0
  2
$MODEL_SPACE
 70
     0
 10
0.0
 20
0.0
 30
0.0
  3
$MODEL_SPACE
  1

  0
ENDBLK
  5
21
  8
0
  0
BLOCK
 67
     1
  8
0
  2
$PAPER_SPACE
 70
     0
 10
0.0
 20
0.0
 30
0.0
  3
$PAPER_SPACE
  1

  0
ENDBLK
  5
1D
 67
     1
  8
0
  0
ENDSEC
  0
SECTION
  2
ENTITIES
  0
ATTDEF
  5
3930
  8
DEFPOINTS
 10
4456.4222964028531351
 20
266.164821199799178
 30
0.0
 40
0.001
  1
K-22559T-3S
  3

  2
MODELNUMBER
 70
     0
1001
ACDBATTR
1070
     0
1070
     1
  0
ATTDEF
  5
3931
  8
DEFPOINTS
 10
4456.4222964028531351
 20
266.1631545331325128
 30
0.0
 40
0.001
  1
MEMOIRS
  3

  2
TRADENAME
 70
     0
1001
ACDBATTR
1070
     0
1070
     1
  0
ATTDEF
  5
3932
  8
DEFPOINTS
 10
4456.4222964028531351
 20
266.1614878664657908
 30
0.0
 40
0.001
  1
BATH FILLER
  3

  2
PRODUCT
 70
     0
1001
ACDBATTR
1070
     0
1070
     1
  0
LINE
  5
C166
  8
0
 10
4454.2675505671168139
 20
266.1603104538900766
 30
0.0
 11
4458.5824592285180188
 21
266.1603104538900766
 31
0.0
  0
LINE
  5
C167
  8
0
 10
4454.2596505671181149
 20
266.3876316131037925
 30
0.0
 11
4454.2596505671181149
 21
266.168210453890083
 31
0.0
  0
LINE
  5
C168
  8
0
 10
4455.4300929702048961
 20
267.3414128160900987
 30
0.0
 11
4457.4199168254308461
 21
267.3414128160900987
 31
0.0
  0
ARC
  5
C169
  8
0
 10
4452.5856741199249882
 20
269.7805356364582963
 30
0.0
 40
3.740157478387915
 50
297.3195730460068944
 51
319.1586291292721853
  0
ARC
  5
C16A
  8
0
 10
4455.4300929702048961
 20
267.3217128160902121
 30
0.0
 40
0.0197
 50
90.0
 51
139.1586291292746012
  0
ARC
  5
C16B
  8
0
 10
4454.338350567118141
 20
266.3876316131037925
 30
0.0
 40
0.0787
 50
117.3195730460068944
 51
180.0
  0
ARC
  5
C16C
  8
0
 10
4454.2675505671168139
 20
266.168210453890083
 30
0.0
 40
0.0079
 50
180.0000000000129887
 51
270.0
  0
LINE
  5
C16D
  8
0
 10
4455.5785482049168422
 20
267.3414128160900987
 30
0.0
 11
4455.5785482049168422
 21
292.5303632097902096
 31
0.0
  0
LINE
  5
C16E
  8
0
 10
4455.5785482049168422
 20
292.5461632097901088
 30
0.0
 11
4455.5785482049168422
 21
294.7823679341901197
 31
0.0
  0
ARC
  5
C16F
  8
0
 10
4455.5864482049173603
 20
292.5461632097901088
 30
0.0
 40
0.0079
 50
180.0
 51
270.0
  0
LINE
  5
C170
  8
0
 10
4454.3580074962219442
 20
294.9004679341900896
 30
0.0
 11
4455.460448204918066
 21
294.9004679341900896
 31
0.0
  0
LINE
  5
C171
  8
0
 10
4454.2596505671181149
 20
294.9449949720064978
 30
0.0
 11
4454.2596505671181149
 21
296.5488543815736193
 31
0.0
  0
ARC
  5
C172
  8
0
 10
4454.3557805435921182
 20
295.0372116059890004
 30
0.0
 40
0.1367618042256336
 50
227.5578059349136879
 51
270.93301362081462
  0
ARC
  5
C173
  8
0
 10
4454.2714505671192455
 20
294.9449949720066115
 30
0.0
 40
0.0118
 50
180.0000000004656897
 51
227.5578059335500996
  0
ARC
  5
C174
  8
0
 10
4455.460448204918066
 20
294.7823679341901197
 30
0.0
 40
0.1181
 50
0.0
 51
90.0
  0
LINE
  5
C175
  8
0
 10
4454.2596505671181149
 20
294.9904390401060255
 30
0.0
 11
4454.188773732302252
 21
294.9904390400430998
 31
0.0
  0
LINE
  5
C176
  8
0
 10
4452.487986330739659
 20
295.3563445518901176
 30
0.0
 11
4452.487986330739659
 21
296.1375048016901133
 31
0.0
  0
LINE
  5
C177
  8
0
 10
4452.4643863307410356
 20
295.3723445518900803
 30
0.0
 11
4452.4643863307410356
 21
296.1215048016900937
 31
0.0
  0
LINE
  5
C178
  8
0
 10
4452.3143863307395804
 20
295.3997193361402083
 30
0.0
 11
4452.3143863307395804
 21
296.0941300174400794
 31
0.0
  0
LINE
  5
C179
  8
0
 10
4452.1638863307398424
 20
295.4138928270305087
 30
0.0
 11
4452.1638863307398424
 21
296.0799565265497222
 31
0.0
  0
LINE
  5
C17A
  8
0
 10
4451.8008541943409
 20
294.2882580531373264
 30
0.0
 11
4451.8008541943409
 21
297.2055913004430749
 31
0.0
  0
LINE
  5
C17B
  8
0
 10
4451.2180750045408786
 20
294.330743183833988
 30
0.0
 11
4451.2180750045408786
 21
297.1631061697462997
 31
0.0
  0
ARC
  5
C17C
  8
0
 10
4452.0263878532141462
 20
289.0750420975729185
 30
0.0
 40
6.2982405223258198
 50
69.9200077892755729
 51
85.7970199969620353
  0
LINE
  5
C17D
  8
0
 10
4452.4643863307410356
 20
295.3723445518900803
 30
0.0
 11
4452.487986330739659
 21
295.3723445518900803
 31
0.0
  0
ARC
  5
C17E
  8
0
 10
4452.4343863307403808
 20
295.4013445518900767
 30
0.0
 40
0.029999999999994
 50
270.0
 51
359.9999993484987044
  0
LINE
  5
C17F
  8
0
 10
4452.4343863307403808
 20
295.371344551890104
 30
0.0
 11
4452.3443863307402353
 21
295.3713445518902176
 31
0.0
  0
ARC
  5
C180
  8
0
 10
4452.3443863307402353
 20
295.4013910954375888
 30
0.0
 40
0.0300465435474524
 50
183.1895263100898035
 51
270.0
  0
ARC
  5
C181
  8
0
 10
4452.2843863307407446
 20
295.4663445518900744
 30
0.0
 40
0.029999999999994
 50
0.0000013038951083
 51
90.0
  0
LINE
  5
C182
  8
0
 10
4452.2843863307407446
 20
295.496344551890104
 30
0.0
 11
4452.1938863307395877
 21
295.496344551890104
 31
0.0
  0
ARC
  5
C183
  8
0
 10
4452.1938863307395877
 20
295.5263445518900767
 30
0.0
 40
0.029999999999994
 50
179.9999980528467063
 51
270.0
  0
ARC
  5
C184
  8
0
 10
4452.1188863308861983
 20
295.4138928270305087
 30
0.0
 40
0.0449999998542481
 50
270.9999998310607907
 51
0.0000000759148022
  0
LINE
  5
C185
  8
0
 10
4452.119671689039933
 20
295.3688996808919001
 30
0.0
 11
4451.8450688360353524
 21
295.364106471073228
 31
0.0
  0
ARC
  5
C186
  8
0
 10
4451.8458541941881776
 20
295.3191133249399059
 30
0.0
 40
0.0449999998489482
 50
90.9999998310608191
 51
179.9997544203046118
  0
ARC
  5
C187
  8
0
 10
4451.7756917303568116
 20
294.2899451557636894
 30
0.0
 40
0.0252189593161546
 50
263.2755176383333264
 51
356.1641515208600026
  0
ARC
  5
C188
  8
0
 10
4451.2455277953267796
 20
287.8863678458279196
 30
0.0
 40
6.4002827888204612
 50
85.2750172267641062
 51
89.8478153355706581
  0
ARC
  5
C189
  8
0
 10
4451.2632829383255739
 20
294.3318430623929771
 30
0.0
 40
0.0452213114590845
 50
181.3936927583364991
 51
269.0430833266718764
  0
ARC
  5
C18A
  8
0
 10
4451.7758876257466909
 20
295.6534074494308015
 30
0.0
 40
0.0249666621555614
 50
263.7497423069360138
 51
359.8431414868684897
  0
ARC
  5
C18B
  8
0
 10
4451.1237980644809795
 20
289.6994676139613034
 30
0.0
 40
5.9645759214065306
 50
83.7497423069360565
 51
88.6904858442953241
  0
ARC
  5
C18C
  8
0
 10
4451.2631463869520303
 20
295.7075442933028171
 30
0.0
 40
0.0451608245517629
 50
183.6066125831063118
 51
266.1429916877431765
  0
LINE
  5
C18D
  8
0
 10
4454.2596505671181149
 20
296.5034103134742054
 30
0.0
 11
4454.188773732302252
 21
296.5034103135370742
 31
0.0
  0
LINE
  5
C18E
  8
0
 10
4454.188773732302252
 20
296.5034103135370742
 30
0.0
 11
4454.1887737317847495
 21
294.9904390402319905
 31
0.0
  0
ARC
  5
C18F
  8
0
 10
4452.0263878532141462
 20
302.4188072560074261
 30
0.0
 40
6.2982405223258198
 50
274.2029800030380216
 51
290.0799922107244129
  0
LINE
  5
C190
  8
0
 10
4452.4643863307410356
 20
296.1215048016900937
 30
0.0
 11
4452.487986330739659
 21
296.1215048016900937
 31
0.0
  0
ARC
  5
C191
  8
0
 10
4452.4343863307403808
 20
296.0925048016900973
 30
0.0
 40
0.029999999999994
 50
0.0000006515013605
 51
90.0
  0
LINE
  5
C192
  8
0
 10
4452.4343863307403808
 20
296.1225048016901269
 30
0.0
 11
4452.3443863307402353
 21
296.1225048016901269
 31
0.0
  0
ARC
  5
C193
  8
0
 10
4452.3443863307402353
 20
296.0924582581425852
 30
0.0
 40
0.0300465435474524
 50
90.0
 51
176.8104736899101113
  0
ARC
  5
C194
  8
0
 10
4452.2843863307407446
 20
296.0275048016900996
 30
0.0
 40
0.029999999999994
 50
270.0
 51
359.9999986961049103
  0
LINE
  5
C195
  8
0
 10
4452.2843863307407446
 20
295.9975048016901269
 30
0.0
 11
4452.1938863307395877
 21
295.9975048016901269
 31
0.0
  0
ARC
  5
C196
  8
0
 10
4452.1938863307395877
 20
295.9675048016900973
 30
0.0
 40
0.029999999999994
 50
90.0
 51
180.0000019471532937
  0
ARC
  5
C197
  8
0
 10
4452.1188863308861983
 20
296.0799565265497222
 30
0.0
 40
0.0449999998542481
 50
359.9999999240852162
 51
89.0000001689391951
  0
LINE
  5
C198
  8
0
 10
4452.119671689039933
 20
296.1249496726883876
 30
0.0
 11
4451.8450688360353524
 21
296.1297428825070028
 31
0.0
  0
ARC
  5
C199
  8
0
 10
4451.8458541941881776
 20
296.1747360286403818
 30
0.0
 40
0.0449999998489482
 50
180.0002455796920913
 51
269.0000001689392093
  0
ARC
  5
C19A
  8
0
 10
4451.7756917303568116
 20
297.2039041978164846
 30
0.0
 40
0.0252189593161546
 50
3.8358484791399681
 51
96.7244823616666736
  0
ARC
  5
C19B
  8
0
 10
4451.2455277953267796
 20
303.6074815077524249
 30
0.0
 40
6.4002827888204612
 50
270.152184664429285
 51
274.7249827732359222
  0
ARC
  5
C19C
  8
0
 10
4451.2632829383255739
 20
297.1620062911871969
 30
0.0
 40
0.0452213114590845
 50
90.9569166733281236
 51
178.6063072416633872
  0
ARC
  5
C19D
  8
0
 10
4451.7758876257466909
 20
295.8404419041493725
 30
0.0
 40
0.0249666621555614
 50
0.1568585131314379
 51
96.2502576930639435
  0
ARC
  5
C19E
  8
0
 10
4451.1237980644809795
 20
301.7943817396189843
 30
0.0
 40
5.9645759214065306
 50
271.3095141557046759
 51
276.2502576930638725
  0
ARC
  5
C19F
  8
0
 10
4451.2631463869520303
 20
295.7863050602774138
 30
0.0
 40
0.0451608245517629
 50
93.8570083122567809
 51
176.3933874168936882
  0
ARC
  5
C1A0
  8
0
 10
4451.4740403147170582
 20
294.6826245553219792
 30
0.0
 40
1.505577120950133
 50
25.13164472230795
 51
44.9836591328242932
  0
ARC
  5
C1A1
  8
0
 10
4451.4740403147170582
 20
296.8112247982583085
 30
0.0
 40
1.505577120950133
 50
315.0163408671756997
 51
334.8683552776919896
  0
LINE
  5
C1A2
  8
0
 10
4454.3580074962219442
 20
296.5933814193900844
 30
0.0
 11
4458.492002299413798
 21
296.5933814193900844
 31
0.0
  0
ARC
  5
C1A3
  8
0
 10
4454.3557805435921182
 20
296.4566377475911736
 30
0.0
 40
0.1367618042256336
 50
89.0669863791854084
 51
132.4421940650863121
  0
ARC
  5
C1A4
  8
0
 10
4454.2714505671192455
 20
296.5488543815736193
 30
0.0
 40
0.0118
 50
132.4421940664499004
 51
179.9999999995341966
  0
LINE
  5
C1A5
  8
0
 10
4455.8738262166179993
 20
303.0100810007110113
 30
0.0
 11
4455.8738262166179993
 21
305.8256647845901171
 31
0.0
  0
LINE
  5
C1A6
  8
0
 10
4455.8738262166179993
 20
305.8256647845901171
 30
0.0
 11
4456.9761835790177429
 21
305.8256647845901171
 31
0.0
  0
LINE
  5
C1A7
  8
0
 10
4456.9761835790177429
 20
303.0100810007110113
 30
0.0
 11
4456.9761835790177429
 21
305.8256647845901171
 31
0.0
  0
ARC
  5
C1A8
  8
0
 10
4456.2557135592178383
 20
305.1110978554900726
 30
0.0
 40
0.0314960629999845
 50
359.9999999999772058
 51
89.9999998180832677
  0
LINE
  5
C1A9
  8
0
 10
4456.2557135593169733
 20
305.1425939184900926
 30
0.0
 11
4456.2005954490177828
 21
305.1425939186651135
 31
0.0
  0
ARC
  5
C1AA
  8
0
 10
4456.2005954488531643
 20
305.0559797453003057
 30
0.0
 40
0.0866141733648345
 50
89.9999998909854639
 51
359.9999999271336151
  0
LINE
  5
C1AB
  8
0
 10
4456.2872096222172331
 20
305.0559797452900739
 30
0.0
 11
4456.2872096222172331
 21
305.1110978554900726
 31
0.0
  0
CIRCLE
  5
C1AC
  8
0
 10
4456.2005954103178738
 20
305.0559797390901053
 30
0.0
 40
0.0393695467000015
  0
ARC
  5
C1AD
  8
0
 10
4456.2557135532169923
 20
305.4496805590900976
 30
0.0
 40
0.0314960629999845
 50
270.0000001819166755
 51
0.0000000000227982
  0
LINE
  5
C1AE
  8
0
 10
4456.2557135533179462
 20
305.4181844960900776
 30
0.0
 11
4456.2005954430169368
 21
305.4181844959152272
 31
0.0
  0
ARC
  5
C1AF
  8
0
 10
4456.2005954428541372
 20
305.5047986692799782
 30
0.0
 40
0.0866141733648345
 50
0.0000000728630982
 51
270.0000001090144792
  0
LINE
  5
C1B0
  8
0
 10
4456.2872096162182061
 20
305.50479866929021
 30
0.0
 11
4456.2872096162182061
 21
305.4496805590900976
 31
0.0
  0
CIRCLE
  5
C1B1
  8
0
 10
4456.2005954043170277
 20
305.5047986754901217
 30
0.0
 40
0.0393695467000015
  0
ARC
  5
C1B2
  8
0
 10
4456.2990206458171087
 20
303.0284206901558832
 30
0.0
 40
0.0649606298999999
 50
40.2890103947807674
 51
145.8657470518539014
  0
ARC
  5
C1B3
  8
0
 10
4456.3018468204172677
 20
303.0279615069474062
 30
0.0
 40
0.0553037722562513
 50
49.5340964463089009
 51
136.4966233608494974
  0
CIRCLE
  5
C1B4
  8
0
 10
4456.1730363939159361
 20
303.154404942055919
 30
0.0
 40
0.0649606298999999
  0
CIRCLE
  5
C1B5
  8
0
 10
4456.1758625685170045
 20
303.1539457588473852
 30
0.0
 40
0.0553037722562513
  0
CIRCLE
  5
C1B6
  8
0
 10
4456.1634116172417635
 20
303.1462188199682828
 30
0.0
 40
0.0401712225419377
  0
CIRCLE
  5
C1B7
  8
0
 10
4456.1633921462416765
 20
303.1463688319212224
 30
0.0
 40
0.0215590857944487
  0
CIRCLE
  5
C1B8
  8
0
 10
4456.2990206458161992
 20
303.2803891940895937
 30
0.0
 40
0.0649606298999999
  0
CIRCLE
  5
C1B9
  8
0
 10
4456.3018468204172677
 20
303.279930010881003
 30
0.0
 40
0.0553037722562513
  0
CIRCLE
  5
C1BA
  8
0
 10
4456.2951151135139298
 20
303.2722030720020143
 30
0.0
 40
0.0411502671676912
  0
CIRCLE
  5
C1BB
  8
0
 10
4456.2950956425129334
 20
303.2723530839548971
 30
0.0
 40
0.0215590857944487
  0
CIRCLE
  5
C1BC
  8
0
 10
4456.1730363939159361
 20
303.4063734459895727
 30
0.0
 40
0.0649606298999999
  0
CIRCLE
  5
C1BD
  8
0
 10
4456.1758625685170045
 20
303.405914262780982
 30
0.0
 40
0.0553037722562513
  0
CIRCLE
  5
C1BE
  8
0
 10
4456.1631938596756299
 20
303.4063734459900843
 30
0.0
 40
0.0401712225419377
  0
CIRCLE
  5
C1BF
  8
0
 10
4456.1633791539452432
 20
303.4063734459900843
 30
0.0
 40
0.0215590857944487
  0
CIRCLE
  5
C1C0
  8
0
 10
4456.2990206458171087
 20
304.7922002175901071
 30
0.0
 40
0.0649606298999999
  0
CIRCLE
  5
C1C1
  8
0
 10
4456.3018468204181772
 20
304.7926594007986978
 30
0.0
 40
0.0553037722562513
  0
CIRCLE
  5
C1C2
  8
0
 10
4456.2951151135148393
 20
304.8003863396778002
 30
0.0
 40
0.0411502671676912
  0
CIRCLE
  5
C1C3
  8
0
 10
4456.2950956425147524
 20
304.8002363277249174
 30
0.0
 40
0.0215590857944487
  0
CIRCLE
  5
C1C4
  8
0
 10
4456.1730363939168456
 20
304.6662159656901281
 30
0.0
 40
0.0649606298999999
  0
CIRCLE
  5
C1C5
  8
0
 10
4456.1758625685170045
 20
304.6666751488987188
 30
0.0
 40
0.0553037722562513
  0
CIRCLE
  5
C1C6
  8
0
 10
4456.1634116172426729
 20
304.6744020877777075
 30
0.0
 40
0.0401712225419377
  0
CIRCLE
  5
C1C7
  8
0
 10
4456.163392146242586
 20
304.6742520758248816
 30
0.0
 40
0.0215590857944487
  0
CIRCLE
  5
C1C8
  8
0
 10
4456.2993688281294453
 20
304.5441574286455761
 30
0.0
 40
0.0649606298999999
  0
CIRCLE
  5
C1C9
  8
0
 10
4456.3021950027296043
 20
304.54461661185411
 30
0.0
 40
0.0553037722562513
  0
CIRCLE
  5
C1CA
  8
0
 10
4456.2954632958262664
 20
304.5523435507332124
 30
0.0
 40
0.0411502671676912
  0
CIRCLE
  5
C1CB
  8
0
 10
4456.2954438248261795
 20
304.5521935387803865
 30
0.0
 40
0.0215590857944487
  0
CIRCLE
  5
C1CC
  8
0
 10
4456.1733845762291821
 20
304.4181731767454835
 30
0.0
 40
0.0649606298999999
  0
CIRCLE
  5
C1CD
  8
0
 10
4456.1762107508293411
 20
304.4186323599540742
 30
0.0
 40
0.0553037722562513
  0
CIRCLE
  5
C1CE
  8
0
 10
4456.1637597995541
 20
304.4263592988331766
 30
0.0
 40
0.0401712225419377
  0
CIRCLE
  5
C1CF
  8
0
 10
4456.1637403285549226
 20
304.4262092868802938
 30
0.0
 40
0.0215590857944487
  0
CIRCLE
  5
C1D0
  8
0
 10
4456.2990206458161992
 20
304.2882632096901148
 30
0.0
 40
0.0649606298999999
  0
CIRCLE
  5
C1D1
  8
0
 10
4456.3018468204163582
 20
304.2887223928985918
 30
0.0
 40
0.0553037722562513
  0
CIRCLE
  5
C1D2
  8
0
 10
4456.2951151135130203
 20
304.2964493317776942
 30
0.0
 40
0.0411502671676912
  0
CIRCLE
  5
C1D3
  8
0
 10
4456.2950956425129334
 20
304.2962993198249251
 30
0.0
 40
0.0215590857944487
  0
CIRCLE
  5
C1D4
  8
0
 10
4456.1730363939159361
 20
304.1622789577900789
 30
0.0
 40
0.0649606298999999
  0
CIRCLE
  5
C1D5
  8
0
 10
4456.1758625685170045
 20
304.1627381409987265
 30
0.0
 40
0.0553037722562513
  0
CIRCLE
  5
C1D6
  8
0
 10
4456.1634116172417635
 20
304.1704650798777152
 30
0.0
 40
0.0401712225419377
  0
CIRCLE
  5
C1D7
  8
0
 10
4456.163392146240767
 20
304.1703150679248893
 30
0.0
 40
0.0215590857944487
  0
CIRCLE
  5
C1D8
  8
0
 10
4456.2990206458171087
 20
304.0362947057899987
 30
0.0
 40
0.0649606298999999
  0
CIRCLE
  5
C1D9
  8
0
 10
4456.3018468204181772
 20
304.0367538889987031
 30
0.0
 40
0.0553037722562513
  0
CIRCLE
  5
C1DA
  8
0
 10
4456.2951151135148393
 20
304.0444808278776918
 30
0.0
 40
0.0411502671676912
  0
CIRCLE
  5
C1DB
  8
0
 10
4456.2950956425147524
 20
304.044330815924809
 30
0.0
 40
0.0215590857944487
  0
CIRCLE
  5
C1DC
  8
0
 10
4456.1730363939168456
 20
303.9103104538900197
 30
0.0
 40
0.0649606298999999
  0
CIRCLE
  5
C1DD
  8
0
 10
4456.1758625685170045
 20
303.9107696370986105
 30
0.0
 40
0.0553037722562513
  0
CIRCLE
  5
C1DE
  8
0
 10
4456.1634116172426729
 20
303.9184965759777128
 30
0.0
 40
0.0401712225419377
  0
CIRCLE
  5
C1DF
  8
0
 10
4456.163392146242586
 20
303.9183465640247732
 30
0.0
 40
0.0215590857944487
  0
CIRCLE
  5
C1E0
  8
0
 10
4456.2990206458171087
 20
303.784326201824399
 30
0.0
 40
0.0649606298999999
  0
CIRCLE
  5
C1E1
  8
0
 10
4456.3018468204172677
 20
303.7847853850328761
 30
0.0
 40
0.0553037722562513
  0
CIRCLE
  5
C1E2
  8
0
 10
4456.2951151135139298
 20
303.7925123239119216
 30
0.0
 40
0.0411502671676912
  0
CIRCLE
  5
C1E3
  8
0
 10
4456.2950956425138429
 20
303.7923623119590957
 30
0.0
 40
0.0215590857944487
  0
CIRCLE
  5
C1E4
  8
0
 10
4456.1730363939159361
 20
303.6583419499243064
 30
0.0
 40
0.0649606298999999
  0
CIRCLE
  5
C1E5
  8
0
 10
4456.1758625685170045
 20
303.6588011331328971
 30
0.0
 40
0.0553037722562513
  0
CIRCLE
  5
C1E6
  8
0
 10
4456.1634116172417635
 20
303.6665280720118858
 30
0.0
 40
0.0401712225419377
  0
CIRCLE
  5
C1E7
  8
0
 10
4456.1633921462416765
 20
303.6663780600591167
 30
0.0
 40
0.0215590857944487
  0
CIRCLE
  5
C1E8
  8
0
 10
4456.2990206458161992
 20
303.5323576978906885
 30
0.0
 40
0.0649606298999999
  0
CIRCLE
  5
C1E9
  8
0
 10
4456.3018468204172677
 20
303.5328168810992793
 30
0.0
 40
0.0553037722562513
  0
CIRCLE
  5
C1EA
  8
0
 10
4456.2951151135139298
 20
303.5405438199783248
 30
0.0
 40
0.0411502671676912
  0
CIRCLE
  5
C1EB
  8
0
 10
4456.2950956425129334
 20
303.5403938080253852
 30
0.0
 40
0.0215590857944487
  0
CIRCLE
  5
C1EC
  8
0
 10
4456.4250048979183703
 20
303.1544049420900819
 30
0.0
 40
0.0649606298999999
  0
CIRCLE
  5
C1ED
  8
0
 10
4456.4249644653482392
 20
303.1539344333492068
 30
0.0
 40
0.0553037722562513
  0
CIRCLE
  5
C1EE
  8
0
 10
4456.4251915198638017
 20
303.1461842677184109
 30
0.0
 40
0.0411502671676912
  0
CIRCLE
  5
C1EF
  8
0
 10
4456.4250978972122539
 20
303.1463315462435162
 30
0.0
 40
0.0215590857944487
  0
CIRCLE
  5
C1F0
  8
0
 10
4456.4250048979183703
 20
303.4063734459900843
 30
0.0
 40
0.0649606298999999
  0
CIRCLE
  5
C1F1
  8
0
 10
4456.4249644653482392
 20
303.4059029372492091
 30
0.0
 40
0.0553037722562513
  0
CIRCLE
  5
C1F2
  8
0
 10
4456.425239172412148
 20
303.4065610976750236
 30
0.0
 40
0.0411502671676912
  0
CIRCLE
  5
C1F3
  8
0
 10
4456.4251455497596908
 20
303.4067083762000721
 30
0.0
 40
0.0215590857944487
  0
CIRCLE
  5
C1F4
  8
0
 10
4456.4250048978183258
 20
304.6662159656901281
 30
0.0
 40
0.0649606298999999
  0
CIRCLE
  5
C1F5
  8
0
 10
4456.4249644652491043
 20
304.6666864744310033
 30
0.0
 40
0.0553037722562513
  0
CIRCLE
  5
C1F6
  8
0
 10
4456.4251915197628477
 20
304.6744366400619128
 30
0.0
 40
0.0411502671676912
  0
CIRCLE
  5
C1F7
  8
0
 10
4456.4250978971122095
 20
304.6742893615368075
 30
0.0
 40
0.0215590857944487
  0
CIRCLE
  5
C1F8
  8
0
 10
4456.4250048978183258
 20
304.4142474616900813
 30
0.0
 40
0.0649606298999999
  0
CIRCLE
  5
C1F9
  8
0
 10
4456.4249644652491043
 20
304.414717970431127
 30
0.0
 40
0.0553037722562513
  0
CIRCLE
  5
C1FA
  8
0
 10
4456.4251915197628477
 20
304.4224681360619229
 30
0.0
 40
0.0411502671676912
  0
CIRCLE
  5
C1FB
  8
0
 10
4456.4250978971122095
 20
304.4223208575368176
 30
0.0
 40
0.0215590857944487
  0
CIRCLE
  5
C1FC
  8
0
 10
4456.4250048979183703
 20
304.1622789577900789
 30
0.0
 40
0.0649606298999999
  0
CIRCLE
  5
C1FD
  8
0
 10
4456.4249644653482392
 20
304.1627494665311247
 30
0.0
 40
0.0553037722562513
  0
CIRCLE
  5
C1FE
  8
0
 10
4456.4251915198638017
 20
304.1704996321619205
 30
0.0
 40
0.0411502671676912
  0
CIRCLE
  5
C1FF
  8
0
 10
4456.4250978972122539
 20
304.1703523536368152
 30
0.0
 40
0.0215590857944487
  0
CIRCLE
  5
C200
  8
0
 10
4456.4250048978183258
 20
303.9103104538900766
 30
0.0
 40
0.0649606298999999
  0
CIRCLE
  5
C201
  8
0
 10
4456.4249644652491043
 20
303.9107809626311223
 30
0.0
 40
0.0553037722562513
  0
CIRCLE
  5
C202
  8
0
 10
4456.4251915197628477
 20
303.9185311282619182
 30
0.0
 40
0.0411502671676912
  0
CIRCLE
  5
C203
  8
0
 10
4456.4250978971122095
 20
303.9183838497368129
 30
0.0
 40
0.0215590857944487
  0
CIRCLE
  5
C204
  8
0
 10
4456.4250048979183703
 20
303.6583419498902003
 30
0.0
 40
0.0649606298999999
  0
CIRCLE
  5
C205
  8
0
 10
4456.4249644653482392
 20
303.6588124586310187
 30
0.0
 40
0.0553037722562513
  0
CIRCLE
  5
C206
  8
0
 10
4456.4251915198638017
 20
303.6665626242619282
 30
0.0
 40
0.0411502671676912
  0
CIRCLE
  5
C207
  8
0
 10
4456.4250978972122539
 20
303.6664153457368229
 30
0.0
 40
0.0215590857944487
  0
ARC
  5
C208
  8
0
 10
4456.5942962364179039
 20
305.1110978554900726
 30
0.0
 40
0.0314960629999845
 50
90.0000001819167323
 51
180.0000000000227942
  0
LINE
  5
C209
  8
0
 10
4456.5942962363178594
 20
305.1425939184900926
 30
0.0
 11
4456.6494143466170499
 21
305.1425939186651135
 31
0.0
  0
ARC
  5
C20A
  8
0
 10
4456.6494143467825779
 20
305.0559797453003057
 30
0.0
 40
0.0866141733648345
 50
180.000000072863088
 51
90.0000001090145503
  0
LINE
  5
C20B
  8
0
 10
4456.5628001734175996
 20
305.0559797452900739
 30
0.0
 11
4456.5628001734175996
 21
305.1110978554900726
 31
0.0
  0
CIRCLE
  5
C20C
  8
0
 10
4456.6494143853169589
 20
305.0559797390901053
 30
0.0
 40
0.0393695467000015
  0
ARC
  5
C20D
  8
0
 10
4456.5942962424178404
 20
305.4496805590900976
 30
0.0
 40
0.0314960629999845
 50
179.9999999999772058
 51
269.9999998180833245
  0
LINE
  5
C20E
  8
0
 10
4456.5942962423168865
 20
305.4181844960900776
 30
0.0
 11
4456.6494143526169864
 21
305.4181844959152272
 31
0.0
  0
ARC
  5
C20F
  8
0
 10
4456.649414352781605
 20
305.5047986692799782
 30
0.0
 40
0.0866141733648345
 50
269.9999998909855208
 51
179.9999999271335867
  0
LINE
  5
C210
  8
0
 10
4456.5628001794166266
 20
305.50479866929021
 30
0.0
 11
4456.5628001794166266
 21
305.4496805590900976
 31
0.0
  0
CIRCLE
  5
C211
  8
0
 10
4456.649414391317805
 20
305.5047986754901217
 30
0.0
 40
0.0393695467000015
  0
CIRCLE
  5
C212
  8
0
 10
4456.6769734017188966
 20
303.154404942055919
 30
0.0
 40
0.0649606298999999
  0
CIRCLE
  5
C213
  8
0
 10
4456.6741472271178282
 20
303.1539457588473852
 30
0.0
 40
0.0553037722562513
  0
CIRCLE
  5
C214
  8
0
 10
4456.6865981783930692
 20
303.1462188199682828
 30
0.0
 40
0.0401712225419377
  0
CIRCLE
  5
C215
  8
0
 10
4456.6866176493931562
 20
303.1463688319212224
 30
0.0
 40
0.0215590857944487
  0
CIRCLE
  5
C216
  8
0
 10
4456.5509891498186335
 20
303.2803891940895937
 30
0.0
 40
0.0649606298999999
  0
CIRCLE
  5
C217
  8
0
 10
4456.548162975219384
 20
303.279930010881003
 30
0.0
 40
0.0553037722562513
  0
CIRCLE
  5
C218
  8
0
 10
4456.5548946821209029
 20
303.2722030720020143
 30
0.0
 40
0.0411502671676912
  0
CIRCLE
  5
C219
  8
0
 10
4456.5549141531218993
 20
303.2723530839548971
 30
0.0
 40
0.0215590857944487
  0
CIRCLE
  5
C21A
  8
0
 10
4456.6769734017188966
 20
303.4063734459895727
 30
0.0
 40
0.0649606298999999
  0
CIRCLE
  5
C21B
  8
0
 10
4456.6741472271178282
 20
303.405914262780982
 30
0.0
 40
0.0553037722562513
  0
CIRCLE
  5
C21C
  8
0
 10
4456.6868159359592028
 20
303.4063734459900843
 30
0.0
 40
0.0401712225419377
  0
CIRCLE
  5
C21D
  8
0
 10
4456.6866306416895895
 20
303.4063734459900843
 30
0.0
 40
0.0215590857944487
  0
CIRCLE
  5
C21E
  8
0
 10
4456.550989149817724
 20
304.7922002175901071
 30
0.0
 40
0.0649606298999999
  0
CIRCLE
  5
C21F
  8
0
 10
4456.5481629752166555
 20
304.7926594007986978
 30
0.0
 40
0.0553037722562513
  0
CIRCLE
  5
C220
  8
0
 10
4456.5548946821199934
 20
304.8003863396778002
 30
0.0
 40
0.0411502671676912
  0
CIRCLE
  5
C221
  8
0
 10
4456.5549141531209898
 20
304.8002363277249174
 30
0.0
 40
0.0215590857944487
  0
CIRCLE
  5
C222
  8
0
 10
4456.6769734017179871
 20
304.6662159656901281
 30
0.0
 40
0.0649606298999999
  0
CIRCLE
  5
C223
  8
0
 10
4456.6741472271178282
 20
304.6666751488987188
 30
0.0
 40
0.0553037722562513
  0
CIRCLE
  5
C224
  8
0
 10
4456.6865981783921598
 20
304.6744020877777075
 30
0.0
 40
0.0401712225419377
  0
CIRCLE
  5
C225
  8
0
 10
4456.6866176493922467
 20
304.6742520758248816
 30
0.0
 40
0.0215590857944487
  0
CIRCLE
  5
C226
  8
0
 10
4456.5506409675072064
 20
304.5441574286455761
 30
0.0
 40
0.0649606298999999
  0
CIRCLE
  5
C227
  8
0
 10
4456.5478147929061379
 20
304.54461661185411
 30
0.0
 40
0.0553037722562513
  0
CIRCLE
  5
C228
  8
0
 10
4456.5545464998085663
 20
304.5523435507332124
 30
0.0
 40
0.0411502671676912
  0
CIRCLE
  5
C229
  8
0
 10
4456.5545659708113817
 20
304.5521935387803865
 30
0.0
 40
0.0215590857944487
  0
CIRCLE
  5
C22A
  8
0
 10
4456.6766252194056506
 20
304.4181731767454835
 30
0.0
 40
0.0649606298999999
  0
CIRCLE
  5
C22B
  8
0
 10
4456.6737990448064011
 20
304.4186323599540742
 30
0.0
 40
0.0553037722562513
  0
CIRCLE
  5
C22C
  8
0
 10
4456.6862499960807327
 20
304.4263592988331766
 30
0.0
 40
0.0401712225419377
  0
CIRCLE
  5
C22D
  8
0
 10
4456.6862694670808196
 20
304.4262092868802938
 30
0.0
 40
0.0215590857944487
  0
CIRCLE
  5
C22E
  8
0
 10
4456.5509891498186335
 20
304.2882632096901148
 30
0.0
 40
0.0649606298999999
  0
CIRCLE
  5
C22F
  8
0
 10
4456.548162975219384
 20
304.2887223928985918
 30
0.0
 40
0.0553037722562513
  0
CIRCLE
  5
C230
  8
0
 10
4456.5548946821227219
 20
304.2964493317776942
 30
0.0
 40
0.0411502671676912
  0
CIRCLE
  5
C231
  8
0
 10
4456.5549141531218993
 20
304.2962993198249251
 30
0.0
 40
0.0215590857944487
  0
CIRCLE
  5
C232
  8
0
 10
4456.6769734017188966
 20
304.1622789577900789
 30
0.0
 40
0.0649606298999999
  0
CIRCLE
  5
C233
  8
0
 10
4456.6741472271187376
 20
304.1627381409987265
 30
0.0
 40
0.0553037722562513
  0
CIRCLE
  5
C234
  8
0
 10
4456.6865981783939787
 20
304.1704650798777152
 30
0.0
 40
0.0401712225419377
  0
CIRCLE
  5
C235
  8
0
 10
4456.6866176493940657
 20
304.1703150679248893
 30
0.0
 40
0.0215590857944487
  0
CIRCLE
  5
C236
  8
0
 10
4456.550989149817724
 20
304.0362947057899987
 30
0.0
 40
0.0649606298999999
  0
CIRCLE
  5
C237
  8
0
 10
4456.5481629752166555
 20
304.0367538889987031
 30
0.0
 40
0.0553037722562513
  0
CIRCLE
  5
C238
  8
0
 10
4456.5548946821199934
 20
304.0444808278776918
 30
0.0
 40
0.0411502671676912
  0
CIRCLE
  5
C239
  8
0
 10
4456.5549141531209898
 20
304.044330815924809
 30
0.0
 40
0.0215590857944487
  0
CIRCLE
  5
C23A
  8
0
 10
4456.6769734017179871
 20
303.9103104538900197
 30
0.0
 40
0.0649606298999999
  0
CIRCLE
  5
C23B
  8
0
 10
4456.6741472271178282
 20
303.9107696370986105
 30
0.0
 40
0.0553037722562513
  0
CIRCLE
  5
C23C
  8
0
 10
4456.6865981783921598
 20
303.9184965759777128
 30
0.0
 40
0.0401712225419377
  0
CIRCLE
  5
C23D
  8
0
 10
4456.6866176493922467
 20
303.9183465640247732
 30
0.0
 40
0.0215590857944487
  0
CIRCLE
  5
C23E
  8
0
 10
4456.550989149817724
 20
303.784326201824399
 30
0.0
 40
0.0649606298999999
  0
CIRCLE
  5
C23F
  8
0
 10
4456.548162975217565
 20
303.7847853850328761
 30
0.0
 40
0.0553037722562513
  0
CIRCLE
  5
C240
  8
0
 10
4456.5548946821209029
 20
303.7925123239119216
 30
0.0
 40
0.0411502671676912
  0
CIRCLE
  5
C241
  8
0
 10
4456.5549141531218993
 20
303.7923623119590957
 30
0.0
 40
0.0215590857944487
  0
CIRCLE
  5
C242
  8
0
 10
4456.6769734017188966
 20
303.6583419499243064
 30
0.0
 40
0.0649606298999999
  0
CIRCLE
  5
C243
  8
0
 10
4456.6741472271178282
 20
303.6588011331328971
 30
0.0
 40
0.0553037722562513
  0
CIRCLE
  5
C244
  8
0
 10
4456.6865981783930692
 20
303.6665280720118858
 30
0.0
 40
0.0401712225419377
  0
CIRCLE
  5
C245
  8
0
 10
4456.6866176493931562
 20
303.6663780600591167
 30
0.0
 40
0.0215590857944487
  0
CIRCLE
  5
C246
  8
0
 10
4456.5509891498186335
 20
303.5323576978906885
 30
0.0
 40
0.0649606298999999
  0
CIRCLE
  5
C247
  8
0
 10
4456.548162975219384
 20
303.5328168810992793
 30
0.0
 40
0.0553037722562513
  0
CIRCLE
  5
C248
  8
0
 10
4456.5548946821209029
 20
303.5405438199783248
 30
0.0
 40
0.0411502671676912
  0
CIRCLE
  5
C249
  8
0
 10
4456.5549141531218993
 20
303.5403938080253852
 30
0.0
 40
0.0215590857944487
  0
LINE
  5
C24A
  8
0
 10
4456.4406567816176903
 20
301.5237647798700209
 30
0.0
 11
4456.4552530236269376
 21
301.5126832279129871
 31
0.0
  0
ARC
  5
C24B
  8
0
 10
4456.4620691034897391
 20
301.5258019214675755
 30
0.0
 40
0.014783743276246
 50
242.5449641725791992
 51
269.5061402900640815
  0
LINE
  5
C24C
  8
0
 10
4456.4903545838169521
 20
301.5180973255701247
 30
0.0
 11
4456.4619416769182862
 21
301.5180973255701247
 31
0.0
  0
LINE
  5
C24D
  8
0
 10
4456.4489636011876428
 20
301.527951333117926
 30
0.0
 11
4456.4619416769182862
 21
301.5180973255701247
 31
0.0
  0
LINE
  5
C24E
  8
0
 10
4456.4619416769182862
 20
301.5294905238699812
 30
0.0
 11
4456.4619416769182862
 21
301.5180973255701247
 31
0.0
  0
LINE
  5
C24F
  8
0
 10
4456.4250048978183258
 20
301.5239627572701124
 30
0.0
 11
4456.4406567816176903
 21
301.5237647798700209
 31
0.0
  0
ARC
  5
C250
  8
0
 10
4456.4381116021259004
 20
301.5391115727576903
 30
0.0
 40
0.0155564131655119
 50
279.4164763962659777
 51
300.5568933503141125
  0
LINE
  5
C251
  8
0
 10
4456.4460203844182615
 20
301.5257155601699992
 30
0.0
 11
4456.4516615108177575
 21
301.5300007619699727
 31
0.0
  0
LINE
  5
C252
  8
0
 10
4456.4250048978692575
 20
301.5051532956700271
 30
0.0
 11
4456.439211351317681
 21
301.5051532956700271
 31
0.0
  0
LINE
  5
C253
  8
0
 10
4456.439211351317681
 20
301.5051532956700271
 30
0.0
 11
4456.439211351317681
 21
301.5237830628151983
 31
0.0
  0
LINE
  5
C254
  8
0
 10
4456.4521906288937316
 20
301.515008215833177
 30
0.0
 11
4456.439211351317681
 21
301.5051532956700271
 31
0.0
  0
LINE
  5
C255
  8
0
 10
4456.4236796709237751
 20
301.4980746974699741
 30
0.0
 11
4456.4408071021180149
 21
301.4980746974699741
 31
0.0
  0
ARC
  5
C256
  8
0
 10
4456.4408071021180149
 20
301.5067039136658877
 30
0.0
 40
0.0086292161958852
 50
270.0
 51
307.1672124877347869
  0
LINE
  5
C257
  8
0
 10
4456.4460203844182615
 20
301.4998275003699746
 30
0.0
 11
4456.4608477496503838
 21
301.5110687154331117
 31
0.0
  0
LINE
  5
C258
  8
0
 10
4456.4619416769182862
 20
301.5110187273700149
 30
0.0
 11
4456.4919503346181955
 21
301.5110187273700149
 31
0.0
  0
LINE
  5
C259
  8
0
 10
4456.4406567816176903
 20
301.4980746974699741
 30
0.0
 11
4456.4552530236269376
 21
301.4869931455131109
 31
0.0
  0
ARC
  5
C25A
  8
0
 10
4456.4620691034897391
 20
301.5001118390676993
 30
0.0
 40
0.014783743276246
 50
242.5449641725791992
 51
269.5061402900640815
  0
LINE
  5
C25B
  8
0
 10
4456.4903545838169521
 20
301.4924072431700779
 30
0.0
 11
4456.4619416769182862
 21
301.4924072431700779
 31
0.0
  0
LINE
  5
C25C
  8
0
 10
4456.4490969726930416
 20
301.502159984255286
 30
0.0
 11
4456.4619416769182862
 21
301.4924072431700779
 31
0.0
  0
LINE
  5
C25D
  8
0
 10
4456.4619416769182862
 20
301.5110187273700149
 30
0.0
 11
4456.4619416769182862
 21
301.4924072431700779
 31
0.0
  0
LINE
  5
C25E
  8
0
 10
4456.4250048978692575
 20
301.479463213270094
 30
0.0
 11
4456.439211351317681
 21
301.479463213270094
 31
0.0
  0
LINE
  5
C25F
  8
0
 10
4456.439211351317681
 20
301.479463213270094
 30
0.0
 11
4456.439211351317681
 21
301.4980746974699741
 31
0.0
  0
LINE
  5
C260
  8
0
 10
4456.4521906288937316
 20
301.4893181334333008
 30
0.0
 11
4456.439211351317681
 21
301.479463213270094
 31
0.0
  0
LINE
  5
C261
  8
0
 10
4456.4236796709237751
 20
301.4723846150700979
 30
0.0
 11
4456.4408071021180149
 21
301.4723846150700979
 31
0.0
  0
ARC
  5
C262
  8
0
 10
4456.4408071021180149
 20
301.4810138312660115
 30
0.0
 40
0.0086292161958852
 50
270.0
 51
307.1672124877347869
  0
LINE
  5
C263
  8
0
 10
4456.4460203844182615
 20
301.4741374179699847
 30
0.0
 11
4456.4608477496503838
 21
301.4853786330331218
 31
0.0
  0
LINE
  5
C264
  8
0
 10
4456.4619416769182862
 20
301.4853286449700818
 30
0.0
 11
4456.4919503346181955
 21
301.4853286449700818
 31
0.0
  0
LINE
  5
C265
  8
0
 10
4456.5030731051820112
 20
301.5020641760689841
 30
0.0
 11
4456.4903545838169521
 21
301.4924072431700779
 31
0.0
  0
ARC
  5
C266
  8
0
 10
4456.4919503346181955
 20
301.4939578611658817
 30
0.0
 40
0.0086292161958852
 50
270.0
 51
307.1672124877347869
  0
LINE
  5
C267
  8
0
 10
4456.4971636169166231
 20
301.4870814478700822
 30
0.0
 11
4456.5115288891183809
 21
301.4979723318335232
 31
0.0
  0
LINE
  5
C268
  8
0
 10
4456.5014768255223316
 20
301.5265422334921936
 30
0.0
 11
4456.4903545838169521
 21
301.5180973255701247
 31
0.0
  0
ARC
  5
C269
  8
0
 10
4456.4919503346181955
 20
301.5196479435658716
 30
0.0
 40
0.0086292161958852
 50
270.0
 51
307.1672124877347869
  0
LINE
  5
C26A
  8
0
 10
4456.4971636169166231
 20
301.5127715302700153
 30
0.0
 11
4456.5115288891183809
 21
301.5236624142335131
 31
0.0
  0
LINE
  5
C26B
  8
0
 10
4456.4903545838169521
 20
301.4924072431700779
 30
0.0
 11
4456.4903545838169521
 21
301.5110187273700149
 31
0.0
  0
LINE
  5
C26C
  8
0
 10
4456.4903545838169521
 20
301.5180973255701247
 30
0.0
 11
4456.4903545838169521
 21
301.5276544226376814
 31
0.0
  0
LINE
  5
C26D
  8
0
 10
4456.4406567816176903
 20
301.4723846150700979
 30
0.0
 11
4456.4552530236269376
 21
301.461303063113121
 31
0.0
  0
ARC
  5
C26E
  8
0
 10
4456.4620691034897391
 20
301.4744217566675957
 30
0.0
 40
0.014783743276246
 50
242.5449641725791992
 51
269.5061402900640815
  0
LINE
  5
C26F
  8
0
 10
4456.4903545838169521
 20
301.4667171607699743
 30
0.0
 11
4456.4619416769182862
 21
301.4667171607699743
 31
0.0
  0
LINE
  5
C270
  8
0
 10
4456.4490969726930416
 20
301.476469901855296
 30
0.0
 11
4456.4619416769182862
 21
301.4667171607699743
 31
0.0
  0
LINE
  5
C271
  8
0
 10
4456.4619416769182862
 20
301.4853286449700818
 30
0.0
 11
4456.4619416769182862
 21
301.4667171607699743
 31
0.0
  0
LINE
  5
C272
  8
0
 10
4456.4250048978692575
 20
301.4537731308699904
 30
0.0
 11
4456.439211351317681
 21
301.4537731308699904
 31
0.0
  0
LINE
  5
C273
  8
0
 10
4456.439211351317681
 20
301.4537731308699904
 30
0.0
 11
4456.439211351317681
 21
301.4723846150700979
 31
0.0
  0
LINE
  5
C274
  8
0
 10
4456.4521906288937316
 20
301.4636280510333108
 30
0.0
 11
4456.439211351317681
 21
301.4537731308699904
 31
0.0
  0
LINE
  5
C275
  8
0
 10
4456.4236796709237751
 20
301.4466945326701079
 30
0.0
 11
4456.4408071021180149
 21
301.4466945326701079
 31
0.0
  0
ARC
  5
C276
  8
0
 10
4456.4408071021180149
 20
301.4553237488659079
 30
0.0
 40
0.0086292161958852
 50
270.0
 51
307.1672124877347869
  0
LINE
  5
C277
  8
0
 10
4456.4460203844182615
 20
301.4484473355701084
 30
0.0
 11
4456.4608477496503838
 21
301.459688550633075
 31
0.0
  0
LINE
  5
C278
  8
0
 10
4456.4619416769182862
 20
301.4596385625699781
 30
0.0
 11
4456.4919503346181955
 21
301.4596385625699781
 31
0.0
  0
LINE
  5
C279
  8
0
 10
4456.5030731051820112
 20
301.4763740936689942
 30
0.0
 11
4456.4903545838169521
 21
301.4667171607699743
 31
0.0
  0
ARC
  5
C27A
  8
0
 10
4456.4919503346181955
 20
301.4682677787658918
 30
0.0
 40
0.0086292161958852
 50
270.0
 51
307.1672124877347869
  0
LINE
  5
C27B
  8
0
 10
4456.4971636169166231
 20
301.4613913654699786
 30
0.0
 11
4456.5115288891183809
 21
301.4722822494334764
 31
0.0
  0
LINE
  5
C27C
  8
0
 10
4456.4903545838169521
 20
301.4667171607699743
 30
0.0
 11
4456.4903545838169521
 21
301.4853286449700818
 31
0.0
  0
LINE
  5
C27D
  8
0
 10
4456.4406567816176903
 20
301.4466945326701079
 30
0.0
 11
4456.4552530236269376
 21
301.4356129807130742
 31
0.0
  0
ARC
  5
C27E
  8
0
 10
4456.4620691034897391
 20
301.4487316742676057
 30
0.0
 40
0.014783743276246
 50
242.5449641725791992
 51
269.5061402900640815
  0
LINE
  5
C27F
  8
0
 10
4456.4903545838169521
 20
301.441027078370098
 30
0.0
 11
4456.4619416769182862
 21
301.441027078370098
 31
0.0
  0
LINE
  5
C280
  8
0
 10
4456.4490969726930416
 20
301.4507798194553061
 30
0.0
 11
4456.4619416769182862
 21
301.441027078370098
 31
0.0
  0
LINE
  5
C281
  8
0
 10
4456.4619416769182862
 20
301.4596385625699781
 30
0.0
 11
4456.4619416769182862
 21
301.441027078370098
 31
0.0
  0
LINE
  5
C282
  8
0
 10
4456.4250048978692575
 20
301.4280830484701141
 30
0.0
 11
4456.439211351317681
 21
301.4280830484701141
 31
0.0
  0
LINE
  5
C283
  8
0
 10
4456.439211351317681
 20
301.4280830484701141
 30
0.0
 11
4456.439211351317681
 21
301.4466945326701079
 31
0.0
  0
LINE
  5
C284
  8
0
 10
4456.4521906288937316
 20
301.4379379686332072
 30
0.0
 11
4456.439211351317681
 21
301.4280830484701141
 31
0.0
  0
LINE
  5
C285
  8
0
 10
4456.4236796709237751
 20
301.4210044502700043
 30
0.0
 11
4456.4408071021180149
 21
301.4210044502700043
 31
0.0
  0
ARC
  5
C286
  8
0
 10
4456.4408071021180149
 20
301.4296336664659179
 30
0.0
 40
0.0086292161958852
 50
270.0
 51
307.1672124877347869
  0
LINE
  5
C287
  8
0
 10
4456.4460203844182615
 20
301.4227572531701185
 30
0.0
 11
4456.4608477496503838
 21
301.4339984682330851
 31
0.0
  0
LINE
  5
C288
  8
0
 10
4456.4619416769182862
 20
301.4339484801701019
 30
0.0
 11
4456.4919503346181955
 21
301.4339484801701019
 31
0.0
  0
LINE
  5
C289
  8
0
 10
4456.5030731051820112
 20
301.4506840112688906
 30
0.0
 11
4456.4903545838169521
 21
301.441027078370098
 31
0.0
  0
ARC
  5
C28A
  8
0
 10
4456.4919503346181955
 20
301.4425776963659018
 30
0.0
 40
0.0086292161958852
 50
270.0
 51
307.1672124877347869
  0
LINE
  5
C28B
  8
0
 10
4456.4971636169166231
 20
301.4357012830699887
 30
0.0
 11
4456.5115288891183809
 21
301.4465921670334865
 31
0.0
  0
LINE
  5
C28C
  8
0
 10
4456.4903545838169521
 20
301.441027078370098
 30
0.0
 11
4456.4903545838169521
 21
301.4596385625699781
 31
0.0
  0
LINE
  5
C28D
  8
0
 10
4456.4406567816176903
 20
301.4210044502700043
 30
0.0
 11
4456.4552530236269376
 21
301.4099228983130843
 31
0.0
  0
ARC
  5
C28E
  8
0
 10
4456.4620691034897391
 20
301.4230415918676158
 30
0.0
 40
0.014783743276246
 50
242.5449641725791992
 51
269.5061402900640815
  0
LINE
  5
C28F
  8
0
 10
4456.4903545838169521
 20
301.4153369959699944
 30
0.0
 11
4456.4619416769182862
 21
301.4153369959699944
 31
0.0
  0
LINE
  5
C290
  8
0
 10
4456.4490969726930416
 20
301.4250897370553162
 30
0.0
 11
4456.4619416769182862
 21
301.4153369959699944
 31
0.0
  0
LINE
  5
C291
  8
0
 10
4456.4619416769182862
 20
301.4339484801701019
 30
0.0
 11
4456.4619416769182862
 21
301.4153369959699944
 31
0.0
  0
LINE
  5
C292
  8
0
 10
4456.4250048978692575
 20
301.4023929660701242
 30
0.0
 11
4456.439211351317681
 21
301.4023929660701242
 31
0.0
  0
LINE
  5
C293
  8
0
 10
4456.439211351317681
 20
301.4023929660701242
 30
0.0
 11
4456.439211351317681
 21
301.4210044502700043
 31
0.0
  0
LINE
  5
C294
  8
0
 10
4456.4521906288937316
 20
301.4122478862332173
 30
0.0
 11
4456.439211351317681
 21
301.4023929660701242
 31
0.0
  0
LINE
  5
C295
  8
0
 10
4456.4236796709237751
 20
301.3953143678701281
 30
0.0
 11
4456.4408071021180149
 21
301.3953143678701281
 31
0.0
  0
ARC
  5
C296
  8
0
 10
4456.4408071021180149
 20
301.403943584065928
 30
0.0
 40
0.0086292161958852
 50
270.0
 51
307.1672124877347869
  0
LINE
  5
C297
  8
0
 10
4456.4460203844182615
 20
301.3970671707700717
 30
0.0
 11
4456.4608477496503838
 21
301.4083083858329815
 31
0.0
  0
LINE
  5
C298
  8
0
 10
4456.4619416769182862
 20
301.408258397770112
 30
0.0
 11
4456.4919503346181955
 21
301.408258397770112
 31
0.0
  0
LINE
  5
C299
  8
0
 10
4456.5030731051820112
 20
301.4249939288689006
 30
0.0
 11
4456.4903545838169521
 21
301.4153369959699944
 31
0.0
  0
ARC
  5
C29A
  8
0
 10
4456.4919503346181955
 20
301.4168876139660256
 30
0.0
 40
0.0086292161958852
 50
270.0
 51
307.1672124877347869
  0
LINE
  5
C29B
  8
0
 10
4456.4971636169166231
 20
301.4100112006701124
 30
0.0
 11
4456.5115288891183809
 21
301.4209020846334965
 31
0.0
  0
LINE
  5
C29C
  8
0
 10
4456.4903545838169521
 20
301.4153369959699944
 30
0.0
 11
4456.4903545838169521
 21
301.4339484801701019
 31
0.0
  0
LINE
  5
C29D
  8
0
 10
4456.4406567816176903
 20
301.3953143678701281
 30
0.0
 11
4456.4552530236269376
 21
301.3842328159129806
 31
0.0
  0
ARC
  5
C29E
  8
0
 10
4456.4620691034897391
 20
301.3973515094676259
 30
0.0
 40
0.014783743276246
 50
242.5449641725791992
 51
269.5061402900640815
  0
LINE
  5
C29F
  8
0
 10
4456.4903545838169521
 20
301.3896469135701182
 30
0.0
 11
4456.4619416769182862
 21
301.3896469135701182
 31
0.0
  0
LINE
  5
C2A0
  8
0
 10
4456.4490969726930416
 20
301.3993996546553262
 30
0.0
 11
4456.4619416769182862
 21
301.3896469135701182
 31
0.0
  0
LINE
  5
C2A1
  8
0
 10
4456.4619416769182862
 20
301.408258397770112
 30
0.0
 11
4456.4619416769182862
 21
301.3896469135701182
 31
0.0
  0
LINE
  5
C2A2
  8
0
 10
4456.4250048978692575
 20
301.3767028836700774
 30
0.0
 11
4456.439211351317681
 21
301.3767028836700774
 31
0.0
  0
LINE
  5
C2A3
  8
0
 10
4456.439211351317681
 20
301.3767028836700774
 30
0.0
 11
4456.439211351317681
 21
301.3953143678701281
 31
0.0
  0
LINE
  5
C2A4
  8
0
 10
4456.4521906288937316
 20
301.3865578038332274
 30
0.0
 11
4456.439211351317681
 21
301.3767028836700774
 31
0.0
  0
LINE
  5
C2A5
  8
0
 10
4456.4236796709237751
 20
301.3696242854700813
 30
0.0
 11
4456.4408071021180149
 21
301.3696242854700813
 31
0.0
  0
ARC
  5
C2A6
  8
0
 10
4456.4408071021180149
 20
301.3782535016658812
 30
0.0
 40
0.0086292161958852
 50
270.0
 51
307.1672124877347869
  0
LINE
  5
C2A7
  8
0
 10
4456.4460203844182615
 20
301.3713770883700818
 30
0.0
 11
4456.4608477496503838
 21
301.3826183034331052
 31
0.0
  0
LINE
  5
C2A8
  8
0
 10
4456.4619416769182862
 20
301.382568315370122
 30
0.0
 11
4456.4919503346181955
 21
301.382568315370122
 31
0.0
  0
LINE
  5
C2A9
  8
0
 10
4456.5030731051820112
 20
301.3993038464690244
 30
0.0
 11
4456.4903545838169521
 21
301.3896469135701182
 31
0.0
  0
ARC
  5
C2AA
  8
0
 10
4456.4919503346181955
 20
301.391197531565922
 30
0.0
 40
0.0086292161958852
 50
270.0
 51
307.1672124877347869
  0
LINE
  5
C2AB
  8
0
 10
4456.4971636169166231
 20
301.3843211182701225
 30
0.0
 11
4456.5115288891183809
 21
301.3952120022335066
 31
0.0
  0
LINE
  5
C2AC
  8
0
 10
4456.4903545838169521
 20
301.3896469135701182
 30
0.0
 11
4456.4903545838169521
 21
301.408258397770112
 31
0.0
  0
LINE
  5
C2AD
  8
0
 10
4456.4406567816176903
 20
301.3696242854700813
 30
0.0
 11
4456.4552530236269376
 21
301.3585427335129907
 31
0.0
  0
ARC
  5
C2AE
  8
0
 10
4456.4620691034897391
 20
301.3716614270676928
 30
0.0
 40
0.014783743276246
 50
242.5449641725791992
 51
269.5061402900640815
  0
LINE
  5
C2AF
  8
0
 10
4456.4903545838169521
 20
301.3639568311701282
 30
0.0
 11
4456.4619416769182862
 21
301.3639568311701282
 31
0.0
  0
LINE
  5
C2B0
  8
0
 10
4456.4490969726930416
 20
301.3737095722552795
 30
0.0
 11
4456.4619416769182862
 21
301.3639568311701282
 31
0.0
  0
LINE
  5
C2B1
  8
0
 10
4456.4619416769182862
 20
301.382568315370122
 30
0.0
 11
4456.4619416769182862
 21
301.3639568311701282
 31
0.0
  0
LINE
  5
C2B2
  8
0
 10
4456.4250048978692575
 20
301.3510128012700875
 30
0.0
 11
4456.439211351317681
 21
301.3510128012700875
 31
0.0
  0
LINE
  5
C2B3
  8
0
 10
4456.439211351317681
 20
301.3510128012700875
 30
0.0
 11
4456.439211351317681
 21
301.3696242854700813
 31
0.0
  0
LINE
  5
C2B4
  8
0
 10
4456.4521906288937316
 20
301.3608677214331806
 30
0.0
 11
4456.439211351317681
 21
301.3510128012700875
 31
0.0
  0
LINE
  5
C2B5
  8
0
 10
4456.4236796709237751
 20
301.3439342030700914
 30
0.0
 11
4456.4408071021180149
 21
301.3439342030700914
 31
0.0
  0
ARC
  5
C2B6
  8
0
 10
4456.4408071021180149
 20
301.352563419266005
 30
0.0
 40
0.0086292161958852
 50
270.0
 51
307.1672124877347869
  0
LINE
  5
C2B7
  8
0
 10
4456.4460203844182615
 20
301.3456870059699781
 30
0.0
 11
4456.4608477496503838
 21
301.3569282210331153
 31
0.0
  0
LINE
  5
C2B8
  8
0
 10
4456.4619416769182862
 20
301.3568782329700753
 30
0.0
 11
4456.4919503346181955
 21
301.3568782329700753
 31
0.0
  0
LINE
  5
C2B9
  8
0
 10
4456.5030731051820112
 20
301.3736137640689776
 30
0.0
 11
4456.4903545838169521
 21
301.3639568311701282
 31
0.0
  0
ARC
  5
C2BA
  8
0
 10
4456.4919503346181955
 20
301.3655074491658752
 30
0.0
 40
0.0086292161958852
 50
270.0
 51
307.1672124877347869
  0
LINE
  5
C2BB
  8
0
 10
4456.4971636169166231
 20
301.3586310358700757
 30
0.0
 11
4456.5115288891183809
 21
301.3695219198335167
 31
0.0
  0
LINE
  5
C2BC
  8
0
 10
4456.4903545838169521
 20
301.3639568311701282
 30
0.0
 11
4456.4903545838169521
 21
301.382568315370122
 31
0.0
  0
LINE
  5
C2BD
  8
0
 10
4456.4406567816176903
 20
301.3439342030700914
 30
0.0
 11
4456.4552530236269376
 21
301.3328526511131145
 31
0.0
  0
ARC
  5
C2BE
  8
0
 10
4456.4620691034897391
 20
301.3459713446675892
 30
0.0
 40
0.014783743276246
 50
242.5449641725791992
 51
269.5061402900640815
  0
LINE
  5
C2BF
  8
0
 10
4456.4903545838169521
 20
301.3382667487700246
 30
0.0
 11
4456.4619416769182862
 21
301.3382667487700246
 31
0.0
  0
LINE
  5
C2C0
  8
0
 10
4456.4490969726930416
 20
301.3480194898552895
 30
0.0
 11
4456.4619416769182862
 21
301.3382667487700246
 31
0.0
  0
LINE
  5
C2C1
  8
0
 10
4456.4619416769182862
 20
301.3568782329700753
 30
0.0
 11
4456.4619416769182862
 21
301.3382667487700246
 31
0.0
  0
LINE
  5
C2C2
  8
0
 10
4456.4250048978692575
 20
301.3253227188699839
 30
0.0
 11
4456.439211351317681
 21
301.3253227188699839
 31
0.0
  0
LINE
  5
C2C3
  8
0
 10
4456.439211351317681
 20
301.3253227188699839
 30
0.0
 11
4456.439211351317681
 21
301.3439342030700914
 31
0.0
  0
LINE
  5
C2C4
  8
0
 10
4456.4521906288937316
 20
301.3351776390333043
 30
0.0
 11
4456.439211351317681
 21
301.3253227188699839
 31
0.0
  0
LINE
  5
C2C5
  8
0
 10
4456.4236796709237751
 20
301.3182441206699878
 30
0.0
 11
4456.4408071021180149
 21
301.3182441206699878
 31
0.0
  0
ARC
  5
C2C6
  8
0
 10
4456.4408071021180149
 20
301.3268733368660151
 30
0.0
 40
0.0086292161958852
 50
270.0
 51
307.1672124877347869
  0
LINE
  5
C2C7
  8
0
 10
4456.4460203844182615
 20
301.3199969235699882
 30
0.0
 11
4456.4608477496503838
 21
301.3312381386331253
 31
0.0
  0
LINE
  5
C2C8
  8
0
 10
4456.4619416769182862
 20
301.3311881505699716
 30
0.0
 11
4456.4919503346181955
 21
301.3311881505699716
 31
0.0
  0
LINE
  5
C2C9
  8
0
 10
4456.5030731051820112
 20
301.347923681668874
 30
0.0
 11
4456.4903545838169521
 21
301.3382667487700246
 31
0.0
  0
ARC
  5
C2CA
  8
0
 10
4456.4919503346181955
 20
301.3398173667658853
 30
0.0
 40
0.0086292161958852
 50
270.0
 51
307.1672124877347869
  0
LINE
  5
C2CB
  8
0
 10
4456.4971636169166231
 20
301.3329409534699721
 30
0.0
 11
4456.5115288891183809
 21
301.3438318374335267
 31
0.0
  0
LINE
  5
C2CC
  8
0
 10
4456.4903545838169521
 20
301.3382667487700246
 30
0.0
 11
4456.4903545838169521
 21
301.3568782329700753
 31
0.0
  0
LINE
  5
C2CD
  8
0
 10
4456.4406567816176903
 20
301.3182441206699878
 30
0.0
 11
4456.4552530236269376
 21
301.3071625687131245
 31
0.0
  0
ARC
  5
C2CE
  8
0
 10
4456.4620691034897391
 20
301.3202812622675992
 30
0.0
 40
0.014783743276246
 50
242.5449641725791992
 51
269.5061402900640815
  0
LINE
  5
C2CF
  8
0
 10
4456.4903545838169521
 20
301.3125766663700915
 30
0.0
 11
4456.4619416769182862
 21
301.3125766663700915
 31
0.0
  0
LINE
  5
C2D0
  8
0
 10
4456.4490969726930416
 20
301.3223294074552996
 30
0.0
 11
4456.4619416769182862
 21
301.3125766663700915
 31
0.0
  0
LINE
  5
C2D1
  8
0
 10
4456.4619416769182862
 20
301.3311881505699716
 30
0.0
 11
4456.4619416769182862
 21
301.3125766663700915
 31
0.0
  0
LINE
  5
C2D2
  8
0
 10
4456.4250048978692575
 20
301.2996326364699939
 30
0.0
 11
4456.439211351317681
 21
301.2996326364699939
 31
0.0
  0
LINE
  5
C2D3
  8
0
 10
4456.439211351317681
 20
301.2996326364699939
 30
0.0
 11
4456.439211351317681
 21
301.3182441206699878
 31
0.0
  0
LINE
  5
C2D4
  8
0
 10
4456.4521906288937316
 20
301.3094875566332007
 30
0.0
 11
4456.439211351317681
 21
301.2996326364699939
 31
0.0
  0
LINE
  5
C2D5
  8
0
 10
4456.4236796709237751
 20
301.2925540382699978
 30
0.0
 11
4456.4408071021180149
 21
301.2925540382699978
 31
0.0
  0
ARC
  5
C2D6
  8
0
 10
4456.4408071021180149
 20
301.3011832544659114
 30
0.0
 40
0.0086292161958852
 50
270.0
 51
307.1672124877347869
  0
LINE
  5
C2D7
  8
0
 10
4456.4460203844182615
 20
301.294306841170112
 30
0.0
 11
4456.4608477496503838
 21
301.3055480562330786
 31
0.0
  0
LINE
  5
C2D8
  8
0
 10
4456.4619416769182862
 20
301.3054980681700954
 30
0.0
 11
4456.4919503346181955
 21
301.3054980681700954
 31
0.0
  0
LINE
  5
C2D9
  8
0
 10
4456.5030731051820112
 20
301.3222335992688841
 30
0.0
 11
4456.4903545838169521
 21
301.3125766663700915
 31
0.0
  0
ARC
  5
C2DA
  8
0
 10
4456.4919503346181955
 20
301.314127284366009
 30
0.0
 40
0.0086292161958852
 50
270.0
 51
307.1672124877347869
  0
LINE
  5
C2DB
  8
0
 10
4456.4971636169166231
 20
301.3072508710699822
 30
0.0
 11
4456.5115288891183809
 21
301.31814175503348
 31
0.0
  0
LINE
  5
C2DC
  8
0
 10
4456.4903545838169521
 20
301.3125766663700915
 30
0.0
 11
4456.4903545838169521
 21
301.3311881505699716
 31
0.0
  0
LINE
  5
C2DD
  8
0
 10
4456.4406567816176903
 20
301.2925540382699978
 30
0.0
 11
4456.4552530236269376
 21
301.2814724863130778
 31
0.0
  0
ARC
  5
C2DE
  8
0
 10
4456.4620691034897391
 20
301.294591179867723
 30
0.0
 40
0.014783743276246
 50
242.5449641725791992
 51
269.5061402900640815
  0
LINE
  5
C2DF
  8
0
 10
4456.4903545838169521
 20
301.2868865839699879
 30
0.0
 11
4456.4619416769182862
 21
301.2868865839699879
 31
0.0
  0
LINE
  5
C2E0
  8
0
 10
4456.4490969726930416
 20
301.2966393250553097
 30
0.0
 11
4456.4619416769182862
 21
301.2868865839699879
 31
0.0
  0
LINE
  5
C2E1
  8
0
 10
4456.4619416769182862
 20
301.3054980681700954
 30
0.0
 11
4456.4619416769182862
 21
301.2868865839699879
 31
0.0
  0
LINE
  5
C2E2
  8
0
 10
4456.4250048978692575
 20
301.2739425540701177
 30
0.0
 11
4456.439211351317681
 21
301.2739425540701177
 31
0.0
  0
LINE
  5
C2E3
  8
0
 10
4456.439211351317681
 20
301.2739425540701177
 30
0.0
 11
4456.439211351317681
 21
301.2925540382699978
 31
0.0
  0
LINE
  5
C2E4
  8
0
 10
4456.4521906288937316
 20
301.2837974742333245
 30
0.0
 11
4456.439211351317681
 21
301.2739425540701177
 31
0.0
  0
ARC
  5
C2E6
  8
0
 10
4456.4408071021180149
 20
301.2754931720659215
 30
0.0
 40
0.0086292161958852
 50
269.7466781441012813
 51
307.1672124877347869
  0
LINE
  5
C2E7
  8
0
 10
4456.4460203844182615
 20
301.268616758770122
 30
0.0
 11
4456.4608477496503838
 21
301.2798579738330886
 31
0.0
  0
LINE
  5
C2E8
  8
0
 10
4456.4619416769182862
 20
301.2798079857699918
 30
0.0
 11
4456.4919503346181955
 21
301.2798079857699918
 31
0.0
  0
LINE
  5
C2E9
  8
0
 10
4456.5030731051820112
 20
301.2965435168688941
 30
0.0
 11
4456.4903545838169521
 21
301.2868865839699879
 31
0.0
  0
ARC
  5
C2EA
  8
0
 10
4456.4919503346181955
 20
301.2884372019660191
 30
0.0
 40
0.0086292161958852
 50
270.0
 51
307.1672124877347869
  0
LINE
  5
C2EB
  8
0
 10
4456.4971636169166231
 20
301.2815607886701059
 30
0.0
 11
4456.5115288891183809
 21
301.29245167263349
 31
0.0
  0
LINE
  5
C2EC
  8
0
 10
4456.4903545838169521
 20
301.2868865839699879
 30
0.0
 11
4456.4903545838169521
 21
301.3054980681700954
 31
0.0
  0
LINE
  5
C2ED
  8
0
 10
4456.5052267929777372
 20
301.5261191661489875
 30
0.0
 11
4456.5063962561280277
 21
301.5252313029130846
 31
0.0
  0
ARC
  5
C2EE
  8
0
 10
4456.5132123359899197
 20
301.5383499964676162
 30
0.0
 40
0.014783743276246
 50
242.5449641725791992
 51
269.5061402900640815
  0
LINE
  5
C2EF
  8
0
 10
4456.5130849094166479
 20
301.5235668023699986
 30
0.0
 11
4456.5244519493835469
 21
301.5235668023699986
 31
0.0
  0
LINE
  5
C2F0
  8
0
 10
4456.491278475838044
 20
301.5110187273700149
 30
0.0
 11
4456.5063962561280277
 21
301.499541220512981
 31
0.0
  0
ARC
  5
C2F1
  8
0
 10
4456.5132123359899197
 20
301.5126599140676262
 30
0.0
 40
0.014783743276246
 50
242.5449641725791992
 51
269.5061402900640815
  0
LINE
  5
C2F2
  8
0
 10
4456.5414978163180422
 20
301.5049553181701185
 30
0.0
 11
4456.5130849094166479
 21
301.5049553181701185
 31
0.0
  0
LINE
  5
C2F3
  8
0
 10
4456.4999792657836224
 20
301.5149061856154162
 30
0.0
 11
4456.5130849094166479
 21
301.5049553181701185
 31
0.0
  0
LINE
  5
C2F4
  8
0
 10
4456.5130849094166479
 20
301.5235668023699986
 30
0.0
 11
4456.5130849094166479
 21
301.5049553181701185
 31
0.0
  0
LINE
  5
C2F5
  8
0
 10
4456.5130849094166479
 20
301.4978767199701224
 30
0.0
 11
4456.5430935671192856
 21
301.4978767199701224
 31
0.0
  0
LINE
  5
C2F6
  8
0
 10
4456.5543467158213389
 20
301.5147112447260724
 30
0.0
 11
4456.5414978163180422
 21
301.5049553181701185
 31
0.0
  0
ARC
  5
C2F7
  8
0
 10
4456.5430935671192856
 20
301.5065059361659223
 30
0.0
 40
0.0086292161958852
 50
270.0
 51
307.1672124877347869
  0
LINE
  5
C2F8
  8
0
 10
4456.5483068494177132
 20
301.4996295228701229
 30
0.0
 11
4456.5629010303118775
 21
301.5106939516156217
 31
0.0
  0
LINE
  5
C2F9
  8
0
 10
4456.5414978163180422
 20
301.5049553181701185
 30
0.0
 11
4456.5414978163180422
 21
301.5207619700523765
 31
0.0
  0
LINE
  5
C2FA
  8
0
 10
4456.491278475838044
 20
301.4853286449700818
 30
0.0
 11
4456.5063962561280277
 21
301.4738511381131048
 31
0.0
  0
ARC
  5
C2FB
  8
0
 10
4456.5132123359899197
 20
301.4869698316675795
 30
0.0
 40
0.014783743276246
 50
242.5449641725791992
 51
269.5061402900640815
  0
LINE
  5
C2FC
  8
0
 10
4456.5414978163180422
 20
301.4792652357700717
 30
0.0
 11
4456.5130849094166479
 21
301.4792652357700717
 31
0.0
  0
LINE
  5
C2FD
  8
0
 10
4456.4999792657836224
 20
301.4892161032154263
 30
0.0
 11
4456.5130849094166479
 21
301.4792652357700717
 31
0.0
  0
LINE
  5
C2FE
  8
0
 10
4456.5130849094166479
 20
301.4978767199701224
 30
0.0
 11
4456.5130849094166479
 21
301.4792652357700717
 31
0.0
  0
LINE
  5
C2FF
  8
0
 10
4456.5130849094166479
 20
301.4721866375700756
 30
0.0
 11
4456.5430935671192856
 21
301.4721866375700756
 31
0.0
  0
LINE
  5
C300
  8
0
 10
4456.5543467158213389
 20
301.4890211623260825
 30
0.0
 11
4456.5414978163180422
 21
301.4792652357700717
 31
0.0
  0
ARC
  5
C301
  8
0
 10
4456.5430935671192856
 20
301.4808158537658755
 30
0.0
 40
0.0086292161958852
 50
270.0
 51
307.1672124877347869
  0
LINE
  5
C302
  8
0
 10
4456.5483068494177132
 20
301.4739394404700761
 30
0.0
 11
4456.5629010303118775
 21
301.4850038692155749
 31
0.0
  0
LINE
  5
C303
  8
0
 10
4456.5414978163180422
 20
301.4792652357700717
 30
0.0
 11
4456.5414978163180422
 21
301.4978767199701224
 31
0.0
  0
LINE
  5
C304
  8
0
 10
4456.491278475838044
 20
301.4596385625699781
 30
0.0
 11
4456.5063962561280277
 21
301.4481610557131148
 31
0.0
  0
ARC
  5
C305
  8
0
 10
4456.5132123359899197
 20
301.4612797492675895
 30
0.0
 40
0.014783743276246
 50
242.5449641725791992
 51
269.5061402900640815
  0
LINE
  5
C306
  8
0
 10
4456.5414978163180422
 20
301.453575153370025
 30
0.0
 11
4456.5130849094166479
 21
301.453575153370025
 31
0.0
  0
LINE
  5
C307
  8
0
 10
4456.4999792657836224
 20
301.4635260208153795
 30
0.0
 11
4456.5130849094166479
 21
301.453575153370025
 31
0.0
  0
LINE
  5
C308
  8
0
 10
4456.5130849094166479
 20
301.4721866375700756
 30
0.0
 11
4456.5130849094166479
 21
301.453575153370025
 31
0.0
  0
LINE
  5
C309
  8
0
 10
4456.5130849094166479
 20
301.446496555169972
 30
0.0
 11
4456.5430935671192856
 21
301.446496555169972
 31
0.0
  0
LINE
  5
C30A
  8
0
 10
4456.5543467158213389
 20
301.4633310799260926
 30
0.0
 11
4456.5414978163180422
 21
301.453575153370025
 31
0.0
  0
ARC
  5
C30B
  8
0
 10
4456.5430935671192856
 20
301.4551257713658856
 30
0.0
 40
0.0086292161958852
 50
270.0
 51
307.1672124877347869
  0
LINE
  5
C30C
  8
0
 10
4456.5483068494177132
 20
301.4482493580699725
 30
0.0
 11
4456.5629010303118775
 21
301.459313786815585
 31
0.0
  0
LINE
  5
C30D
  8
0
 10
4456.5414978163180422
 20
301.453575153370025
 30
0.0
 11
4456.5414978163180422
 21
301.4721866375700756
 31
0.0
  0
LINE
  5
C30E
  8
0
 10
4456.491278475838044
 20
301.4339484801701019
 30
0.0
 11
4456.5063962561280277
 21
301.4224709733131249
 31
0.0
  0
ARC
  5
C30F
  8
0
 10
4456.5132123359899197
 20
301.4355896668675996
 30
0.0
 40
0.014783743276246
 50
242.5449641725791992
 51
269.5061402900640815
  0
LINE
  5
C310
  8
0
 10
4456.5414978163180422
 20
301.4278850709699782
 30
0.0
 11
4456.5130849094166479
 21
301.4278850709699782
 31
0.0
  0
LINE
  5
C311
  8
0
 10
4456.4999792657836224
 20
301.4378359384153896
 30
0.0
 11
4456.5130849094166479
 21
301.4278850709699782
 31
0.0
  0
LINE
  5
C312
  8
0
 10
4456.5130849094166479
 20
301.446496555169972
 30
0.0
 11
4456.5130849094166479
 21
301.4278850709699782
 31
0.0
  0
LINE
  5
C313
  8
0
 10
4456.5130849094166479
 20
301.4208064727699821
 30
0.0
 11
4456.5430935671192856
 21
301.4208064727699821
 31
0.0
  0
LINE
  5
C314
  8
0
 10
4456.5543467158213389
 20
301.4376409975261026
 30
0.0
 11
4456.5414978163180422
 21
301.4278850709699782
 31
0.0
  0
ARC
  5
C315
  8
0
 10
4456.5430935671192856
 20
301.4294356889660094
 30
0.0
 40
0.0086292161958852
 50
270.0
 51
307.1672124877347869
  0
LINE
  5
C316
  8
0
 10
4456.5483068494177132
 20
301.4225592756699825
 30
0.0
 11
4456.5629010303118775
 21
301.4336237044155951
 31
0.0
  0
LINE
  5
C317
  8
0
 10
4456.5414978163180422
 20
301.4278850709699782
 30
0.0
 11
4456.5414978163180422
 21
301.446496555169972
 31
0.0
  0
LINE
  5
C318
  8
0
 10
4456.491278475838044
 20
301.408258397770112
 30
0.0
 11
4456.5063962561280277
 21
301.3967808909130781
 31
0.0
  0
ARC
  5
C319
  8
0
 10
4456.5132123359899197
 20
301.4098995844676097
 30
0.0
 40
0.014783743276246
 50
242.5449641725791992
 51
269.5061402900640815
  0
LINE
  5
C31A
  8
0
 10
4456.5414978163180422
 20
301.4021949885699883
 30
0.0
 11
4456.5130849094166479
 21
301.4021949885699883
 31
0.0
  0
LINE
  5
C31B
  8
0
 10
4456.4999792657836224
 20
301.4121458560153997
 30
0.0
 11
4456.5130849094166479
 21
301.4021949885699883
 31
0.0
  0
LINE
  5
C31C
  8
0
 10
4456.5130849094166479
 20
301.4208064727699821
 30
0.0
 11
4456.5130849094166479
 21
301.4021949885699883
 31
0.0
  0
LINE
  5
C31D
  8
0
 10
4456.5130849094166479
 20
301.3951163903699921
 30
0.0
 11
4456.5430935671192856
 21
301.3951163903699921
 31
0.0
  0
LINE
  5
C31E
  8
0
 10
4456.5543467158213389
 20
301.4119509151261127
 30
0.0
 11
4456.5414978163180422
 21
301.4021949885699883
 31
0.0
  0
ARC
  5
C31F
  8
0
 10
4456.5430935671192856
 20
301.4037456065659057
 30
0.0
 40
0.0086292161958852
 50
270.0
 51
307.1672124877347869
  0
LINE
  5
C320
  8
0
 10
4456.5483068494177132
 20
301.3968691932701063
 30
0.0
 11
4456.5629010303118775
 21
301.4079336220157188
 31
0.0
  0
LINE
  5
C321
  8
0
 10
4456.5414978163180422
 20
301.4021949885699883
 30
0.0
 11
4456.5414978163180422
 21
301.4208064727699821
 31
0.0
  0
LINE
  5
C322
  8
0
 10
4456.491278475838044
 20
301.382568315370122
 30
0.0
 11
4456.5063962561280277
 21
301.3710908085129745
 31
0.0
  0
ARC
  5
C323
  8
0
 10
4456.5132123359899197
 20
301.3842095020676197
 30
0.0
 40
0.014783743276246
 50
242.5449641725791992
 51
269.5061402900640815
  0
LINE
  5
C324
  8
0
 10
4456.5414978163180422
 20
301.376504906170112
 30
0.0
 11
4456.5130849094166479
 21
301.376504906170112
 31
0.0
  0
LINE
  5
C325
  8
0
 10
4456.4999792657836224
 20
301.3864557736154097
 30
0.0
 11
4456.5130849094166479
 21
301.376504906170112
 31
0.0
  0
LINE
  5
C326
  8
0
 10
4456.5130849094166479
 20
301.3951163903699921
 30
0.0
 11
4456.5130849094166479
 21
301.376504906170112
 31
0.0
  0
LINE
  5
C327
  8
0
 10
4456.5130849094166479
 20
301.3694263079701159
 30
0.0
 11
4456.5430935671192856
 21
301.3694263079701159
 31
0.0
  0
LINE
  5
C328
  8
0
 10
4456.5543467158213389
 20
301.3862608327261228
 30
0.0
 11
4456.5414978163180422
 21
301.376504906170112
 31
0.0
  0
ARC
  5
C329
  8
0
 10
4456.5430935671192856
 20
301.3780555241659158
 30
0.0
 40
0.0086292161958852
 50
270.0
 51
307.1672124877347869
  0
LINE
  5
C32A
  8
0
 10
4456.5483068494177132
 20
301.3711791108701163
 30
0.0
 11
4456.5629010303118775
 21
301.3822435396156152
 31
0.0
  0
LINE
  5
C32B
  8
0
 10
4456.5414978163180422
 20
301.376504906170112
 30
0.0
 11
4456.5414978163180422
 21
301.3951163903699921
 31
0.0
  0
LINE
  5
C32C
  8
0
 10
4456.491278475838044
 20
301.3568782329700753
 30
0.0
 11
4456.5063962561280277
 21
301.3454007261130982
 31
0.0
  0
ARC
  5
C32D
  8
0
 10
4456.5132123359899197
 20
301.3585194196675729
 30
0.0
 40
0.014783743276246
 50
242.5449641725791992
 51
269.5061402900640815
  0
LINE
  5
C32E
  8
0
 10
4456.5414978163180422
 20
301.3508148237701221
 30
0.0
 11
4456.5130849094166479
 21
301.3508148237701221
 31
0.0
  0
LINE
  5
C32F
  8
0
 10
4456.4999792657836224
 20
301.3607656912153061
 30
0.0
 11
4456.5130849094166479
 21
301.3508148237701221
 31
0.0
  0
LINE
  5
C330
  8
0
 10
4456.5130849094166479
 20
301.3694263079701159
 30
0.0
 11
4456.5130849094166479
 21
301.3508148237701221
 31
0.0
  0
LINE
  5
C331
  8
0
 10
4456.5130849094166479
 20
301.343736225570126
 30
0.0
 11
4456.5430935671192856
 21
301.343736225570126
 31
0.0
  0
LINE
  5
C332
  8
0
 10
4456.5543467158213389
 20
301.360570750326076
 30
0.0
 11
4456.5414978163180422
 21
301.3508148237701221
 31
0.0
  0
ARC
  5
C333
  8
0
 10
4456.5430935671192856
 20
301.3523654417659259
 30
0.0
 40
0.0086292161958852
 50
270.0
 51
307.1672124877347869
  0
LINE
  5
C334
  8
0
 10
4456.5483068494177132
 20
301.3454890284701264
 30
0.0
 11
4456.5629010303118775
 21
301.3565534572156821
 31
0.0
  0
LINE
  5
C335
  8
0
 10
4456.5414978163180422
 20
301.3508148237701221
 30
0.0
 11
4456.5414978163180422
 21
301.3694263079701159
 31
0.0
  0
LINE
  5
C336
  8
0
 10
4456.491278475838044
 20
301.3311881505699716
 30
0.0
 11
4456.5063962561280277
 21
301.3197106437131083
 31
0.0
  0
ARC
  5
C337
  8
0
 10
4456.5132123359899197
 20
301.332829337267583
 30
0.0
 40
0.014783743276246
 50
242.5449641725791992
 51
269.5061402900640815
  0
LINE
  5
C338
  8
0
 10
4456.5414978163180422
 20
301.3251247413700185
 30
0.0
 11
4456.5130849094166479
 21
301.3251247413700185
 31
0.0
  0
LINE
  5
C339
  8
0
 10
4456.4999792657836224
 20
301.335075608815373
 30
0.0
 11
4456.5130849094166479
 21
301.3251247413700185
 31
0.0
  0
LINE
  5
C33A
  8
0
 10
4456.5130849094166479
 20
301.343736225570126
 30
0.0
 11
4456.5130849094166479
 21
301.3251247413700185
 31
0.0
  0
LINE
  5
C33B
  8
0
 10
4456.5130849094166479
 20
301.3180461431700223
 30
0.0
 11
4456.5430935671192856
 21
301.3180461431700223
 31
0.0
  0
LINE
  5
C33C
  8
0
 10
4456.5543467158213389
 20
301.3348806679260861
 30
0.0
 11
4456.5414978163180422
 21
301.3251247413700185
 31
0.0
  0
ARC
  5
C33D
  8
0
 10
4456.5430935671192856
 20
301.3266753593658791
 30
0.0
 40
0.0086292161958852
 50
270.0
 51
307.1672124877347869
  0
LINE
  5
C33E
  8
0
 10
4456.5483068494177132
 20
301.3197989460700228
 30
0.0
 11
4456.5629010303118775
 21
301.3308633748155785
 31
0.0
  0
LINE
  5
C33F
  8
0
 10
4456.5414978163180422
 20
301.3251247413700185
 30
0.0
 11
4456.5414978163180422
 21
301.343736225570126
 31
0.0
  0
LINE
  5
C340
  8
0
 10
4456.491278475838044
 20
301.3054980681700954
 30
0.0
 11
4456.5063962561280277
 21
301.2940205613130047
 31
0.0
  0
ARC
  5
C341
  8
0
 10
4456.5132123359899197
 20
301.3071392548677068
 30
0.0
 40
0.014783743276246
 50
242.5449641725791992
 51
269.5061402900640815
  0
LINE
  5
C342
  8
0
 10
4456.5414978163180422
 20
301.2994346589700854
 30
0.0
 11
4456.5130849094166479
 21
301.2994346589700854
 31
0.0
  0
LINE
  5
C343
  8
0
 10
4456.4999792657836224
 20
301.3093855264153831
 30
0.0
 11
4456.5130849094166479
 21
301.2994346589700854
 31
0.0
  0
LINE
  5
C344
  8
0
 10
4456.5130849094166479
 20
301.3180461431700223
 30
0.0
 11
4456.5130849094166479
 21
301.2994346589700854
 31
0.0
  0
LINE
  5
C345
  8
0
 10
4456.5130849094166479
 20
301.2923560607699756
 30
0.0
 11
4456.5430935671192856
 21
301.2923560607699756
 31
0.0
  0
LINE
  5
C346
  8
0
 10
4456.5543467158213389
 20
301.3091905855260961
 30
0.0
 11
4456.5414978163180422
 21
301.2994346589700854
 31
0.0
  0
ARC
  5
C347
  8
0
 10
4456.5430935671192856
 20
301.3009852769660029
 30
0.0
 40
0.0086292161958852
 50
270.0
 51
307.1672124877347869
  0
LINE
  5
C348
  8
0
 10
4456.5483068494177132
 20
301.294108863669976
 30
0.0
 11
4456.5629010303118775
 21
301.3051732924155885
 31
0.0
  0
LINE
  5
C349
  8
0
 10
4456.5414978163180422
 20
301.2994346589700854
 30
0.0
 11
4456.5414978163180422
 21
301.3180461431700223
 31
0.0
  0
LINE
  5
C34A
  8
0
 10
4456.5479531662276713
 20
301.5195652648191071
 30
0.0
 11
4456.5575394886282083
 21
301.5122872730131007
 31
0.0
  0
ARC
  5
C34B
  8
0
 10
4456.5643555684901003
 20
301.5254059665675754
 30
0.0
 40
0.014783743276246
 50
242.5449641725791992
 51
269.5061402900640815
  0
LINE
  5
C34C
  8
0
 10
4456.5642281419168285
 20
301.5106227724700148
 30
0.0
 11
4456.5873613370904422
 21
301.5106227724700716
 31
0.0
  0
LINE
  5
C34D
  8
0
 10
4456.5426824775440764
 20
301.4978767199701224
 30
0.0
 11
4456.5575394886282083
 21
301.4865971906131108
 31
0.0
  0
ARC
  5
C34E
  8
0
 10
4456.5643555684901003
 20
301.4997158841675855
 30
0.0
 40
0.014783743276246
 50
242.5449641725791992
 51
269.5061402900640815
  0
LINE
  5
C34F
  8
0
 10
4456.5926410488182228
 20
301.4920112882700778
 30
0.0
 11
4456.5642281419168285
 21
301.4920112882700778
 31
0.0
  0
LINE
  5
C350
  8
0
 10
4456.55125296802089
 20
301.5018630925102912
 30
0.0
 11
4456.5642281419168285
 21
301.4920112882700778
 31
0.0
  0
LINE
  5
C351
  8
0
 10
4456.5642281419168285
 20
301.5106227724700148
 30
0.0
 11
4456.5642281419168285
 21
301.4920112882700778
 31
0.0
  0
LINE
  5
C352
  8
0
 10
4456.5642281419168285
 20
301.4849326900700817
 30
0.0
 11
4456.5942367996176472
 21
301.4849326900700817
 31
0.0
  0
LINE
  5
C353
  8
0
 10
4456.6054899483197005
 20
301.5017672148260885
 30
0.0
 11
4456.5926410488182228
 21
301.4920112882700778
 31
0.0
  0
ARC
  5
C354
  8
0
 10
4456.5942367996176472
 20
301.4935619062658816
 30
0.0
 40
0.0086292161958852
 50
270.0
 51
307.1672124877347869
  0
LINE
  5
C355
  8
0
 10
4456.5994500819178938
 20
301.4866854929700821
 30
0.0
 11
4456.6140442628120582
 21
301.497749921715581
 31
0.0
  0
LINE
  5
C356
  8
0
 10
4456.5926410488182228
 20
301.4920112882700778
 30
0.0
 11
4456.5926410488182228
 21
301.5092066658771728
 31
0.0
  0
LINE
  5
C357
  8
0
 10
4456.5426824775440764
 20
301.4721866375700756
 30
0.0
 11
4456.5575394886282083
 21
301.4609071082130072
 31
0.0
  0
ARC
  5
C358
  8
0
 10
4456.5643555684901003
 20
301.4740258017677093
 30
0.0
 40
0.014783743276246
 50
242.5449641725791992
 51
269.5061402900640815
  0
LINE
  5
C359
  8
0
 10
4456.5926410488182228
 20
301.4663212058699742
 30
0.0
 11
4456.5642281419168285
 21
301.4663212058699742
 31
0.0
  0
LINE
  5
C35A
  8
0
 10
4456.55125296802089
 20
301.4761730101103012
 30
0.0
 11
4456.5642281419168285
 21
301.4663212058699742
 31
0.0
  0
LINE
  5
C35B
  8
0
 10
4456.5642281419168285
 20
301.4849326900700817
 30
0.0
 11
4456.5642281419168285
 21
301.4663212058699742
 31
0.0
  0
LINE
  5
C35C
  8
0
 10
4456.5642281419168285
 20
301.459242607669978
 30
0.0
 11
4456.5942367996176472
 21
301.459242607669978
 31
0.0
  0
LINE
  5
C35D
  8
0
 10
4456.6054899483197005
 20
301.4760771324260986
 30
0.0
 11
4456.5926410488182228
 21
301.4663212058699742
 31
0.0
  0
ARC
  5
C35E
  8
0
 10
4456.5942367996176472
 20
301.4678718238660053
 30
0.0
 40
0.0086292161958852
 50
270.0
 51
307.1672124877347869
  0
LINE
  5
C35F
  8
0
 10
4456.5994500819178938
 20
301.4609954105699785
 30
0.0
 11
4456.6140442628120582
 21
301.472059839315591
 31
0.0
  0
LINE
  5
C360
  8
0
 10
4456.5926410488182228
 20
301.4663212058699742
 30
0.0
 11
4456.5926410488182228
 21
301.4849326900700817
 31
0.0
  0
LINE
  5
C361
  8
0
 10
4456.5426824775440764
 20
301.446496555169972
 30
0.0
 11
4456.5575394886282083
 21
301.4352170258130741
 31
0.0
  0
ARC
  5
C362
  8
0
 10
4456.5643555684901003
 20
301.4483357193676056
 30
0.0
 40
0.014783743276246
 50
242.5449641725791992
 51
269.5061402900640815
  0
LINE
  5
C363
  8
0
 10
4456.5926410488182228
 20
301.4406311234699842
 30
0.0
 11
4456.5642281419168285
 21
301.4406311234699842
 31
0.0
  0
LINE
  5
C364
  8
0
 10
4456.55125296802089
 20
301.4504829277103113
 30
0.0
 11
4456.5642281419168285
 21
301.4406311234699842
 31
0.0
  0
LINE
  5
C365
  8
0
 10
4456.5642281419168285
 20
301.459242607669978
 30
0.0
 11
4456.5642281419168285
 21
301.4406311234699842
 31
0.0
  0
LINE
  5
C366
  8
0
 10
4456.5642281419168285
 20
301.4335525252699881
 30
0.0
 11
4456.5942367996176472
 21
301.4335525252699881
 31
0.0
  0
LINE
  5
C367
  8
0
 10
4456.6054899483197005
 20
301.4503870500261087
 30
0.0
 11
4456.5926410488182228
 21
301.4406311234699842
 31
0.0
  0
ARC
  5
C368
  8
0
 10
4456.5942367996176472
 20
301.4421817414659017
 30
0.0
 40
0.0086292161958852
 50
270.0
 51
307.1672124877347869
  0
LINE
  5
C369
  8
0
 10
4456.5994500819178938
 20
301.4353053281701023
 30
0.0
 11
4456.6140442628120582
 21
301.4463697569157148
 31
0.0
  0
LINE
  5
C36A
  8
0
 10
4456.5926410488182228
 20
301.4406311234699842
 30
0.0
 11
4456.5926410488182228
 21
301.459242607669978
 31
0.0
  0
LINE
  5
C36B
  8
0
 10
4456.5426824775440764
 20
301.4208064727699821
 30
0.0
 11
4456.5575394886282083
 21
301.4095269434130842
 31
0.0
  0
ARC
  5
C36C
  8
0
 10
4456.5643555684901003
 20
301.4226456369676157
 30
0.0
 40
0.014783743276246
 50
242.5449641725791992
 51
269.5061402900640815
  0
LINE
  5
C36D
  8
0
 10
4456.5926410488182228
 20
301.414941041070108
 30
0.0
 11
4456.5642281419168285
 21
301.414941041070108
 31
0.0
  0
LINE
  5
C36E
  8
0
 10
4456.55125296802089
 20
301.4247928453103214
 30
0.0
 11
4456.5642281419168285
 21
301.414941041070108
 31
0.0
  0
LINE
  5
C36F
  8
0
 10
4456.5642281419168285
 20
301.4335525252699881
 30
0.0
 11
4456.5642281419168285
 21
301.414941041070108
 31
0.0
  0
LINE
  5
C370
  8
0
 10
4456.5642281419168285
 20
301.4078624428701119
 30
0.0
 11
4456.5942367996176472
 21
301.4078624428701119
 31
0.0
  0
LINE
  5
C371
  8
0
 10
4456.6054899483197005
 20
301.4246969676261187
 30
0.0
 11
4456.5926410488182228
 21
301.414941041070108
 31
0.0
  0
ARC
  5
C372
  8
0
 10
4456.5942367996176472
 20
301.4164916590660255
 30
0.0
 40
0.0086292161958852
 50
270.0
 51
307.1672124877347869
  0
LINE
  5
C373
  8
0
 10
4456.5994500819178938
 20
301.4096152457701123
 30
0.0
 11
4456.6140442628120582
 21
301.4206796745157249
 31
0.0
  0
LINE
  5
C374
  8
0
 10
4456.5926410488182228
 20
301.414941041070108
 30
0.0
 11
4456.5926410488182228
 21
301.4335525252699881
 31
0.0
  0
LINE
  5
C375
  8
0
 10
4456.5426824775440764
 20
301.3951163903699921
 30
0.0
 11
4456.5575394886282083
 21
301.3838368610130942
 31
0.0
  0
ARC
  5
C376
  8
0
 10
4456.5643555684901003
 20
301.3969555545676258
 30
0.0
 40
0.014783743276246
 50
242.5449641725791992
 51
269.5061402900640815
  0
LINE
  5
C377
  8
0
 10
4456.5926410488182228
 20
301.3892509586701181
 30
0.0
 11
4456.5642281419168285
 21
301.3892509586701181
 31
0.0
  0
LINE
  5
C378
  8
0
 10
4456.55125296802089
 20
301.3991027629102746
 30
0.0
 11
4456.5642281419168285
 21
301.3892509586701181
 31
0.0
  0
LINE
  5
C379
  8
0
 10
4456.5642281419168285
 20
301.4078624428701119
 30
0.0
 11
4456.5642281419168285
 21
301.3892509586701181
 31
0.0
  0
LINE
  5
C37A
  8
0
 10
4456.5642281419168285
 20
301.3821723604701219
 30
0.0
 11
4456.5942367996176472
 21
301.3821723604701219
 31
0.0
  0
LINE
  5
C37B
  8
0
 10
4456.6054899483197005
 20
301.399006885226072
 30
0.0
 11
4456.5926410488182228
 21
301.3892509586701181
 31
0.0
  0
ARC
  5
C37C
  8
0
 10
4456.5942367996176472
 20
301.3908015766659219
 30
0.0
 40
0.0086292161958852
 50
270.0
 51
307.1672124877347869
  0
LINE
  5
C37D
  8
0
 10
4456.5994500819178938
 20
301.3839251633701224
 30
0.0
 11
4456.6140442628120582
 21
301.3949895921156212
 31
0.0
  0
LINE
  5
C37E
  8
0
 10
4456.5926410488182228
 20
301.3892509586701181
 30
0.0
 11
4456.5926410488182228
 21
301.4078624428701119
 31
0.0
  0
LINE
  5
C37F
  8
0
 10
4456.5426824775440764
 20
301.3694263079701159
 30
0.0
 11
4456.5575394886282083
 21
301.3581467786131043
 31
0.0
  0
ARC
  5
C380
  8
0
 10
4456.5643555684901003
 20
301.371265472167579
 30
0.0
 40
0.014783743276246
 50
242.5449641725791992
 51
269.5061402900640815
  0
LINE
  5
C381
  8
0
 10
4456.5926410488182228
 20
301.3635608762701281
 30
0.0
 11
4456.5642281419168285
 21
301.3635608762701281
 31
0.0
  0
LINE
  5
C382
  8
0
 10
4456.55125296802089
 20
301.3734126805103983
 30
0.0
 11
4456.5642281419168285
 21
301.3635608762701281
 31
0.0
  0
LINE
  5
C383
  8
0
 10
4456.5642281419168285
 20
301.3821723604701219
 30
0.0
 11
4456.5642281419168285
 21
301.3635608762701281
 31
0.0
  0
LINE
  5
C384
  8
0
 10
4456.5642281419168285
 20
301.3564822780700752
 30
0.0
 11
4456.5942367996176472
 21
301.3564822780700752
 31
0.0
  0
LINE
  5
C385
  8
0
 10
4456.6054899483197005
 20
301.373316802826082
 30
0.0
 11
4456.5926410488182228
 21
301.3635608762701281
 31
0.0
  0
ARC
  5
C386
  8
0
 10
4456.5942367996176472
 20
301.3651114942658751
 30
0.0
 40
0.0086292161958852
 50
270.0
 51
307.1672124877347869
  0
LINE
  5
C387
  8
0
 10
4456.5994500819178938
 20
301.3582350809700756
 30
0.0
 11
4456.6140442628120582
 21
301.3692995097155745
 31
0.0
  0
LINE
  5
C388
  8
0
 10
4456.5926410488182228
 20
301.3635608762701281
 30
0.0
 11
4456.5926410488182228
 21
301.3821723604701219
 31
0.0
  0
LINE
  5
C389
  8
0
 10
4456.5426824775440764
 20
301.343736225570126
 30
0.0
 11
4456.5575394886282083
 21
301.3324566962130007
 31
0.0
  0
ARC
  5
C38A
  8
0
 10
4456.5643555684901003
 20
301.3455753897677027
 30
0.0
 40
0.014783743276246
 50
242.5449641725791992
 51
269.5061402900640815
  0
LINE
  5
C38B
  8
0
 10
4456.5926410488182228
 20
301.3378707938700245
 30
0.0
 11
4456.5642281419168285
 21
301.3378707938700245
 31
0.0
  0
LINE
  5
C38C
  8
0
 10
4456.55125296802089
 20
301.3477225981102947
 30
0.0
 11
4456.5642281419168285
 21
301.3378707938700245
 31
0.0
  0
LINE
  5
C38D
  8
0
 10
4456.5642281419168285
 20
301.3564822780700752
 30
0.0
 11
4456.5642281419168285
 21
301.3378707938700245
 31
0.0
  0
LINE
  5
C38E
  8
0
 10
4456.5642281419168285
 20
301.3307921956700284
 30
0.0
 11
4456.5942367996176472
 21
301.3307921956700284
 31
0.0
  0
LINE
  5
C38F
  8
0
 10
4456.6054899483197005
 20
301.3476267204260921
 30
0.0
 11
4456.5926410488182228
 21
301.3378707938700245
 31
0.0
  0
ARC
  5
C390
  8
0
 10
4456.5942367996176472
 20
301.3394214118659988
 30
0.0
 40
0.0086292161958852
 50
270.0
 51
307.1672124877347869
  0
LINE
  5
C391
  8
0
 10
4456.5994500819178938
 20
301.332544998569972
 30
0.0
 11
4456.6140442628120582
 21
301.3436094273155845
 31
0.0
  0
LINE
  5
C392
  8
0
 10
4456.5926410488182228
 20
301.3378707938700245
 30
0.0
 11
4456.5926410488182228
 21
301.3564822780700752
 31
0.0
  0
LINE
  5
C393
  8
0
 10
4456.5426824775440764
 20
301.3180461431700223
 30
0.0
 11
4456.5575394886282083
 21
301.3067666138131244
 31
0.0
  0
ARC
  5
C394
  8
0
 10
4456.5643555684901003
 20
301.3198853073675991
 30
0.0
 40
0.014783743276246
 50
242.5449641725791992
 51
269.5061402900640815
  0
LINE
  5
C395
  8
0
 10
4456.5926410488182228
 20
301.3121807114699777
 30
0.0
 11
4456.5642281419168285
 21
301.3121807114699777
 31
0.0
  0
LINE
  5
C396
  8
0
 10
4456.55125296802089
 20
301.3220325157103048
 30
0.0
 11
4456.5642281419168285
 21
301.3121807114699777
 31
0.0
  0
LINE
  5
C397
  8
0
 10
4456.5642281419168285
 20
301.3307921956700284
 30
0.0
 11
4456.5642281419168285
 21
301.3121807114699777
 31
0.0
  0
LINE
  5
C398
  8
0
 10
4456.5642281419168285
 20
301.3051021132699816
 30
0.0
 11
4456.5942367996176472
 21
301.3051021132699816
 31
0.0
  0
LINE
  5
C399
  8
0
 10
4456.6054899483197005
 20
301.3219366380261022
 30
0.0
 11
4456.5926410488182228
 21
301.3121807114699777
 31
0.0
  0
ARC
  5
C39A
  8
0
 10
4456.5942367996176472
 20
301.3137313294658952
 30
0.0
 40
0.0086292161958852
 50
270.0
 51
307.1672124877347869
  0
LINE
  5
C39B
  8
0
 10
4456.5994500819178938
 20
301.3068549161700957
 30
0.0
 11
4456.6140442628120582
 21
301.3179193449157083
 31
0.0
  0
LINE
  5
C39C
  8
0
 10
4456.5926410488182228
 20
301.3121807114699777
 30
0.0
 11
4456.5926410488182228
 21
301.3307921956700284
 31
0.0
  0
LINE
  5
C39D
  8
0
 10
4456.5426824775440764
 20
301.2923560607699756
 30
0.0
 11
4456.5575394886282083
 21
301.2810765314130776
 31
0.0
  0
ARC
  5
C39E
  8
0
 10
4456.5594663726988074
 20
301.2854775590333816
 30
0.0
 40
0.0048043653418091
 50
246.3549492298309929
 51
12.9032614420456504
  0
LINE
  5
C39F
  8
0
 10
4456.55125296802089
 20
301.2963424333103148
 30
0.0
 11
4456.5642281419168285
 21
301.2864906290701015
 31
0.0
  0
LINE
  5
C3A0
  8
0
 10
4456.5642281419168285
 20
301.3051021132699816
 30
0.0
 11
4456.5642281419168285
 21
301.2864906290701015
 31
0.0
  0
LINE
  5
C3A1
  8
0
 10
4456.597450390279846
 20
301.5078708941209129
 30
0.0
 11
4456.6086827211283889
 21
301.4993432431130032
 31
0.0
  0
ARC
  5
C3A2
  8
0
 10
4456.6154988009893714
 20
301.5124619366677052
 30
0.0
 40
0.014783743276246
 50
242.5449641725791992
 51
269.5061402900640815
  0
LINE
  5
C3A3
  8
0
 10
4456.6153713744170091
 20
301.497678742569974
 30
0.0
 11
4456.6296120121023705
 21
301.497678742569974
 31
0.0
  0
LINE
  5
C3A4
  8
0
 10
4456.593825710044257
 20
301.4849326900700817
 30
0.0
 11
4456.6086827211283889
 21
301.4736531607131269
 31
0.0
  0
ARC
  5
C3A5
  8
0
 10
4456.6154988009893714
 20
301.4867718542677153
 30
0.0
 40
0.014783743276246
 50
242.5449641725791992
 51
269.5061402900640815
  0
LINE
  5
C3A6
  8
0
 10
4456.6437842813184034
 20
301.4790672583699802
 30
0.0
 11
4456.6153713744170091
 21
301.4790672583699802
 31
0.0
  0
LINE
  5
C3A7
  8
0
 10
4456.6023962005219801
 20
301.4889190626103073
 30
0.0
 11
4456.6153713744170091
 21
301.4790672583699802
 31
0.0
  0
LINE
  5
C3A8
  8
0
 10
4456.6153713744170091
 20
301.497678742569974
 30
0.0
 11
4456.6153713744170091
 21
301.4790672583699802
 31
0.0
  0
LINE
  5
C3A9
  8
0
 10
4456.6153713744170091
 20
301.4719886601699841
 30
0.0
 11
4456.6453800321169183
 21
301.4719886601699841
 31
0.0
  0
LINE
  5
C3AA
  8
0
 10
4456.6543666534371368
 20
301.4871022535197085
 30
0.0
 11
4456.6437842813184034
 21
301.4790672583699802
 31
0.0
  0
ARC
  5
C3AB
  8
0
 10
4456.6453800321169183
 20
301.4806178763658977
 30
0.0
 40
0.0086292161958852
 50
270.0
 51
307.1672124877347869
  0
LINE
  5
C3AC
  8
0
 10
4456.6505933144171649
 20
301.4737414630700982
 30
0.0
 11
4456.662645255561074
 21
301.4828785187916083
 31
0.0
  0
LINE
  5
C3AD
  8
0
 10
4456.6437842813184034
 20
301.4790672583699802
 30
0.0
 11
4456.6437842813184034
 21
301.4919869460778159
 31
0.0
  0
LINE
  5
C3AE
  8
0
 10
4456.593825710044257
 20
301.459242607669978
 30
0.0
 11
4456.6086827211283889
 21
301.4479630783130801
 31
0.0
  0
ARC
  5
C3AF
  8
0
 10
4456.6154988009893714
 20
301.4610817718676117
 30
0.0
 40
0.014783743276246
 50
242.5449641725791992
 51
269.5061402900640815
  0
LINE
  5
C3B0
  8
0
 10
4456.6437842813184034
 20
301.453377175970104
 30
0.0
 11
4456.6153713744170091
 21
301.453377175970104
 31
0.0
  0
LINE
  5
C3B1
  8
0
 10
4456.6023962005219801
 20
301.4632289802103173
 30
0.0
 11
4456.6153713744170091
 21
301.453377175970104
 31
0.0
  0
LINE
  5
C3B2
  8
0
 10
4456.6153713744170091
 20
301.4719886601699841
 30
0.0
 11
4456.6153713744170091
 21
301.453377175970104
 31
0.0
  0
LINE
  5
C3B3
  8
0
 10
4456.6153713744170091
 20
301.4462985777701078
 30
0.0
 11
4456.6453800321169183
 21
301.4462985777701078
 31
0.0
  0
LINE
  5
C3B4
  8
0
 10
4456.6566331808207906
 20
301.4631331025261147
 30
0.0
 11
4456.6437842813184034
 21
301.453377175970104
 31
0.0
  0
ARC
  5
C3B5
  8
0
 10
4456.6453800321169183
 20
301.4549277939659078
 30
0.0
 40
0.0086292161958852
 50
270.0
 51
307.1672124877347869
  0
LINE
  5
C3B6
  8
0
 10
4456.6505933144171649
 20
301.4480513806701083
 30
0.0
 11
4456.6651874953122388
 21
301.4591158094157208
 31
0.0
  0
LINE
  5
C3B7
  8
0
 10
4456.6437842813184034
 20
301.453377175970104
 30
0.0
 11
4456.6437842813184034
 21
301.4719886601699841
 31
0.0
  0
LINE
  5
C3B8
  8
0
 10
4456.593825710044257
 20
301.4335525252699881
 30
0.0
 11
4456.6086827211283889
 21
301.4222729959130902
 31
0.0
  0
ARC
  5
C3B9
  8
0
 10
4456.6154988009893714
 20
301.4353916894676217
 30
0.0
 40
0.014783743276246
 50
242.5449641725791992
 51
269.5061402900640815
  0
LINE
  5
C3BA
  8
0
 10
4456.6437842813184034
 20
301.427687093570114
 30
0.0
 11
4456.6153713744170091
 21
301.427687093570114
 31
0.0
  0
LINE
  5
C3BB
  8
0
 10
4456.6023962005219801
 20
301.4375388978103274
 30
0.0
 11
4456.6153713744170091
 21
301.427687093570114
 31
0.0
  0
LINE
  5
C3BC
  8
0
 10
4456.6153713744170091
 20
301.4462985777701078
 30
0.0
 11
4456.6153713744170091
 21
301.427687093570114
 31
0.0
  0
LINE
  5
C3BD
  8
0
 10
4456.6153713744170091
 20
301.4206084953701179
 30
0.0
 11
4456.6453800321169183
 21
301.4206084953701179
 31
0.0
  0
LINE
  5
C3BE
  8
0
 10
4456.6566331808207906
 20
301.4374430201261248
 30
0.0
 11
4456.6437842813184034
 21
301.427687093570114
 31
0.0
  0
ARC
  5
C3BF
  8
0
 10
4456.6453800321169183
 20
301.4292377115659178
 30
0.0
 40
0.0086292161958852
 50
270.0
 51
307.1672124877347869
  0
LINE
  5
C3C0
  8
0
 10
4456.6505933144171649
 20
301.4223612982700047
 30
0.0
 11
4456.6651874953122388
 21
301.4334257270156741
 31
0.0
  0
LINE
  5
C3C1
  8
0
 10
4456.6437842813184034
 20
301.427687093570114
 30
0.0
 11
4456.6437842813184034
 21
301.4462985777701078
 31
0.0
  0
LINE
  5
C3C2
  8
0
 10
4456.593825710044257
 20
301.4078624428701119
 30
0.0
 11
4456.6086827211283889
 21
301.3965829135131003
 31
0.0
  0
ARC
  5
C3C3
  8
0
 10
4456.6154988009893714
 20
301.409701607067575
 30
0.0
 40
0.014783743276246
 50
242.5449641725791992
 51
269.5061402900640815
  0
LINE
  5
C3C4
  8
0
 10
4456.6437842813184034
 20
301.4019970111700104
 30
0.0
 11
4456.6153713744170091
 21
301.4019970111700104
 31
0.0
  0
LINE
  5
C3C5
  8
0
 10
4456.6023962005219801
 20
301.4118488154102806
 30
0.0
 11
4456.6153713744170091
 21
301.4019970111700104
 31
0.0
  0
LINE
  5
C3C6
  8
0
 10
4456.6153713744170091
 20
301.4206084953701179
 30
0.0
 11
4456.6153713744170091
 21
301.4019970111700104
 31
0.0
  0
LINE
  5
C3C7
  8
0
 10
4456.6153713744170091
 20
301.394918412970128
 30
0.0
 11
4456.6453800321169183
 21
301.394918412970128
 31
0.0
  0
LINE
  5
C3C8
  8
0
 10
4456.6566331808207906
 20
301.411752937726078
 30
0.0
 11
4456.6437842813184034
 21
301.4019970111700104
 31
0.0
  0
ARC
  5
C3C9
  8
0
 10
4456.6453800321169183
 20
301.4035476291659279
 30
0.0
 40
0.0086292161958852
 50
270.0
 51
307.1672124877347869
  0
LINE
  5
C3CA
  8
0
 10
4456.6505933144171649
 20
301.3966712158700716
 30
0.0
 11
4456.6651874953122388
 21
301.4077356446156273
 31
0.0
  0
LINE
  5
C3CB
  8
0
 10
4456.6437842813184034
 20
301.4019970111700104
 30
0.0
 11
4456.6437842813184034
 21
301.4206084953701179
 31
0.0
  0
LINE
  5
C3CC
  8
0
 10
4456.593825710044257
 20
301.3821723604701219
 30
0.0
 11
4456.6086827211283889
 21
301.3708928311129966
 31
0.0
  0
ARC
  5
C3CD
  8
0
 10
4456.6154988009893714
 20
301.384011524667585
 30
0.0
 40
0.014783743276246
 50
242.5449641725791992
 51
269.5061402900640815
  0
LINE
  5
C3CE
  8
0
 10
4456.6437842813184034
 20
301.3763069287700773
 30
0.0
 11
4456.6153713744170091
 21
301.3763069287700773
 31
0.0
  0
LINE
  5
C3CF
  8
0
 10
4456.6023962005219801
 20
301.3861587330102907
 30
0.0
 11
4456.6153713744170091
 21
301.3763069287700773
 31
0.0
  0
LINE
  5
C3D0
  8
0
 10
4456.6153713744170091
 20
301.394918412970128
 30
0.0
 11
4456.6153713744170091
 21
301.3763069287700773
 31
0.0
  0
LINE
  5
C3D1
  8
0
 10
4456.6153713744170091
 20
301.3692283305700812
 30
0.0
 11
4456.6453800321169183
 21
301.3692283305700812
 31
0.0
  0
LINE
  5
C3D2
  8
0
 10
4456.6566331808207906
 20
301.3860628553260881
 30
0.0
 11
4456.6437842813184034
 21
301.3763069287700773
 31
0.0
  0
ARC
  5
C3D3
  8
0
 10
4456.6453800321169183
 20
301.3778575467659948
 30
0.0
 40
0.0086292161958852
 50
270.0
 51
307.1672124877347869
  0
LINE
  5
C3D4
  8
0
 10
4456.6505933144171649
 20
301.3709811334700817
 30
0.0
 11
4456.6651874953122388
 21
301.3820455622155805
 31
0.0
  0
LINE
  5
C3D5
  8
0
 10
4456.6437842813184034
 20
301.3763069287700773
 30
0.0
 11
4456.6437842813184034
 21
301.394918412970128
 31
0.0
  0
LINE
  5
C3D6
  8
0
 10
4456.593825710044257
 20
301.3564822780700752
 30
0.0
 11
4456.6086827211283889
 21
301.3452027487131204
 31
0.0
  0
ARC
  5
C3D7
  8
0
 10
4456.6154988009893714
 20
301.3583214422677088
 30
0.0
 40
0.014783743276246
 50
242.5449641725791992
 51
269.5061402900640815
  0
LINE
  5
C3D8
  8
0
 10
4456.6437842813184034
 20
301.3506168463699737
 30
0.0
 11
4456.6153713744170091
 21
301.3506168463699737
 31
0.0
  0
LINE
  5
C3D9
  8
0
 10
4456.6023962005219801
 20
301.3604686506103008
 30
0.0
 11
4456.6153713744170091
 21
301.3506168463699737
 31
0.0
  0
LINE
  5
C3DA
  8
0
 10
4456.6153713744170091
 20
301.3692283305700812
 30
0.0
 11
4456.6153713744170091
 21
301.3506168463699737
 31
0.0
  0
LINE
  5
C3DB
  8
0
 10
4456.6153713744170091
 20
301.3435382481699776
 30
0.0
 11
4456.6453800321169183
 21
301.3435382481699776
 31
0.0
  0
LINE
  5
C3DC
  8
0
 10
4456.6566331808207906
 20
301.3603727729260982
 30
0.0
 11
4456.6437842813184034
 21
301.3506168463699737
 31
0.0
  0
ARC
  5
C3DD
  8
0
 10
4456.6453800321169183
 20
301.3521674643658912
 30
0.0
 40
0.0086292161958852
 50
270.0
 51
307.1672124877347869
  0
LINE
  5
C3DE
  8
0
 10
4456.6505933144171649
 20
301.3452910510700917
 30
0.0
 11
4456.6651874953122388
 21
301.3563554798157043
 31
0.0
  0
LINE
  5
C3DF
  8
0
 10
4456.6437842813184034
 20
301.3506168463699737
 30
0.0
 11
4456.6437842813184034
 21
301.3692283305700812
 31
0.0
  0
LINE
  5
C3E0
  8
0
 10
4456.593825710044257
 20
301.3307921956700284
 30
0.0
 11
4456.6086827211283889
 21
301.3195126663130736
 31
0.0
  0
ARC
  5
C3E1
  8
0
 10
4456.6154988009893714
 20
301.3326313598676052
 30
0.0
 40
0.014783743276246
 50
242.5449641725791992
 51
269.5061402900640815
  0
LINE
  5
C3E2
  8
0
 10
4456.6437842813184034
 20
301.3249267639700975
 30
0.0
 11
4456.6153713744170091
 21
301.3249267639700975
 31
0.0
  0
LINE
  5
C3E3
  8
0
 10
4456.6023962005219801
 20
301.3347785682103108
 30
0.0
 11
4456.6153713744170091
 21
301.3249267639700975
 31
0.0
  0
LINE
  5
C3E4
  8
0
 10
4456.6153713744170091
 20
301.3435382481699776
 30
0.0
 11
4456.6153713744170091
 21
301.3249267639700975
 31
0.0
  0
LINE
  5
C3E5
  8
0
 10
4456.6153713744170091
 20
301.3178481657699876
 30
0.0
 11
4456.6453800321169183
 21
301.3178481657699876
 31
0.0
  0
LINE
  5
C3E6
  8
0
 10
4456.6566331808207906
 20
301.3346826905261082
 30
0.0
 11
4456.6437842813184034
 21
301.3249267639700975
 31
0.0
  0
ARC
  5
C3E7
  8
0
 10
4456.6453800321169183
 20
301.3264773819660149
 30
0.0
 40
0.0086292161958852
 50
270.0
 51
307.1672124877347869
  0
LINE
  5
C3E8
  8
0
 10
4456.6505933144171649
 20
301.3196009686699881
 30
0.0
 11
4456.6651874953122388
 21
301.3306653974157143
 31
0.0
  0
LINE
  5
C3E9
  8
0
 10
4456.6437842813184034
 20
301.3249267639700975
 30
0.0
 11
4456.6437842813184034
 21
301.3435382481699776
 31
0.0
  0
LINE
  5
C3EA
  8
0
 10
4456.593825710044257
 20
301.3051021132699816
 30
0.0
 11
4456.6086827211283889
 21
301.2938225839130837
 31
0.0
  0
ARC
  5
C3EB
  8
0
 10
4456.6099165482119133
 20
301.2991369739315246
 30
0.0
 40
0.0054557373968039
 50
256.9293583372505054
 51
1.0471810722309809
  0
LINE
  5
C3EC
  8
0
 10
4456.6023962005219801
 20
301.3090884858103209
 30
0.0
 11
4456.6153713744170091
 21
301.2992366815701075
 31
0.0
  0
LINE
  5
C3ED
  8
0
 10
4456.6153713744170091
 20
301.3178481657699876
 30
0.0
 11
4456.6153713744170091
 21
301.2992366815701075
 31
0.0
  0
LINE
  5
C3EE
  8
0
 10
4456.6449689425426186
 20
301.4719886601699841
 30
0.0
 11
4456.6598259536276601
 21
301.4607091308129725
 31
0.0
  0
ARC
  5
C3EF
  8
0
 10
4456.6666420334886425
 20
301.4738278243676177
 30
0.0
 40
0.014783743276246
 50
242.5449641725791992
 51
269.5061402900640815
  0
LINE
  5
C3F0
  8
0
 10
4456.6900058849296329
 20
301.46612322847011
 30
0.0
 11
4456.6665146069180992
 21
301.46612322847011
 31
0.0
  0
LINE
  5
C3F1
  8
0
 10
4456.6535394330221607
 20
301.4759750327103234
 30
0.0
 11
4456.6665146069180992
 21
301.46612322847011
 31
0.0
  0
LINE
  5
C3F2
  8
0
 10
4456.6665146069180992
 20
301.4807773051363142
 30
0.0
 11
4456.6665146069180992
 21
301.46612322847011
 31
0.0
  0
LINE
  5
C3F3
  8
0
 10
4456.6665146069180992
 20
301.4590446302701139
 30
0.0
 11
4456.6965232646180084
 21
301.4590446302701139
 31
0.0
  0
ARC
  5
C3F4
  8
0
 10
4456.6965232646180084
 20
301.4676738464659138
 30
0.0
 40
0.0086292161958852
 50
270.0
 51
287.6450793122966161
  0
LINE
  5
C3F5
  8
0
 10
4456.6449689425426186
 20
301.4462985777701078
 30
0.0
 11
4456.6598259536276601
 21
301.4350190484129826
 31
0.0
  0
ARC
  5
C3F6
  8
0
 10
4456.6666420334886425
 20
301.4481377419676278
 30
0.0
 40
0.014783743276246
 50
242.5449641725791992
 51
269.5061402900640815
  0
LINE
  5
C3F7
  8
0
 10
4456.6949275138176745
 20
301.4404331460700064
 30
0.0
 11
4456.6665146069180992
 21
301.4404331460700064
 31
0.0
  0
LINE
  5
C3F8
  8
0
 10
4456.6535394330221607
 20
301.4502849503102766
 30
0.0
 11
4456.6665146069180992
 21
301.4404331460700064
 31
0.0
  0
LINE
  5
C3F9
  8
0
 10
4456.6665146069180992
 20
301.4590446302701139
 30
0.0
 11
4456.6665146069180992
 21
301.4404331460700064
 31
0.0
  0
LINE
  5
C3FA
  8
0
 10
4456.6665146069180992
 20
301.433354547870124
 30
0.0
 11
4456.6965232646180084
 21
301.433354547870124
 31
0.0
  0
LINE
  5
C3FB
  8
0
 10
4456.7077764132563971
 20
301.4501890725761086
 30
0.0
 11
4456.6949275138176745
 21
301.4404331460700064
 31
0.0
  0
ARC
  5
C3FC
  8
0
 10
4456.6965232646180084
 20
301.4419837640659239
 30
0.0
 40
0.0086292161958852
 50
270.0
 51
307.1672124877347869
  0
LINE
  5
C3FD
  8
0
 10
4456.701736546918255
 20
301.4351073507701244
 30
0.0
 11
4456.715709575706569
 21
301.4457008594105218
 31
0.0
  0
LINE
  5
C3FE
  8
0
 10
4456.6949275138176745
 20
301.4404331460700064
 30
0.0
 11
4456.6949275138176745
 21
301.4590446302701139
 31
0.0
  0
LINE
  5
C3FF
  8
0
 10
4456.6449689425426186
 20
301.4206084953701179
 30
0.0
 11
4456.6598259536276601
 21
301.4093289660129926
 31
0.0
  0
ARC
  5
C400
  8
0
 10
4456.6666420334886425
 20
301.422447659567581
 30
0.0
 40
0.014783743276246
 50
242.5449641725791992
 51
269.5061402900640815
  0
LINE
  5
C401
  8
0
 10
4456.6949275138176745
 20
301.4147430636700165
 30
0.0
 11
4456.6665146069180992
 21
301.4147430636700165
 31
0.0
  0
LINE
  5
C402
  8
0
 10
4456.653669902693764
 20
301.4244958047552814
 30
0.0
 11
4456.6665146069180992
 21
301.4147430636700165
 31
0.0
  0
LINE
  5
C403
  8
0
 10
4456.6665146069180992
 20
301.433354547870124
 30
0.0
 11
4456.6665146069180992
 21
301.4147430636700165
 31
0.0
  0
LINE
  5
C404
  8
0
 10
4456.6665146069180992
 20
301.4076644654700203
 30
0.0
 11
4456.6965232646180084
 21
301.4076644654700203
 31
0.0
  0
LINE
  5
C405
  8
0
 10
4456.7077764132563971
 20
301.4244989901761187
 30
0.0
 11
4456.6949275138176745
 21
301.4147430636700165
 31
0.0
  0
ARC
  5
C406
  8
0
 10
4456.6965232646180084
 20
301.4162936816659908
 30
0.0
 40
0.0086292161958852
 50
270.0
 51
307.1672124877347869
  0
LINE
  5
C407
  8
0
 10
4456.701736546918255
 20
301.4094172683700208
 30
0.0
 11
4456.7163307276950945
 21
301.420481697027185
 31
0.0
  0
LINE
  5
C408
  8
0
 10
4456.6949275138176745
 20
301.4147430636700165
 30
0.0
 11
4456.6949275138176745
 21
301.433354547870124
 31
0.0
  0
LINE
  5
C409
  8
0
 10
4456.6449689425426186
 20
301.394918412970128
 30
0.0
 11
4456.6598259536276601
 21
301.3836388836131164
 31
0.0
  0
ARC
  5
C40A
  8
0
 10
4456.6666420334886425
 20
301.3967575771677048
 30
0.0
 40
0.014783743276246
 50
242.5449641725791992
 51
269.5061402900640815
  0
LINE
  5
C40B
  8
0
 10
4456.6949275138176745
 20
301.3890529812700834
 30
0.0
 11
4456.6665146069180992
 21
301.3890529812700834
 31
0.0
  0
LINE
  5
C40C
  8
0
 10
4456.6535394330221607
 20
301.3989047855102967
 30
0.0
 11
4456.6665146069180992
 21
301.3890529812700834
 31
0.0
  0
LINE
  5
C40D
  8
0
 10
4456.6665146069180992
 20
301.4076644654700203
 30
0.0
 11
4456.6665146069180992
 21
301.3890529812700834
 31
0.0
  0
LINE
  5
C40E
  8
0
 10
4456.6665146069180992
 20
301.3819743830699736
 30
0.0
 11
4456.6965232646180084
 21
301.3819743830699736
 31
0.0
  0
LINE
  5
C40F
  8
0
 10
4456.7077764132563971
 20
301.3988089077760719
 30
0.0
 11
4456.6949275138176745
 21
301.3890529812700834
 31
0.0
  0
ARC
  5
C410
  8
0
 10
4456.6965232646180084
 20
301.3906035992658872
 30
0.0
 40
0.0086292161958852
 50
270.0
 51
307.1672124877347869
  0
LINE
  5
C411
  8
0
 10
4456.701736546918255
 20
301.383727185969974
 30
0.0
 11
4456.7163307276950945
 21
301.394791614627195
 31
0.0
  0
LINE
  5
C412
  8
0
 10
4456.6949275138176745
 20
301.3890529812700834
 30
0.0
 11
4456.6949275138176745
 21
301.4076644654700203
 31
0.0
  0
LINE
  5
C413
  8
0
 10
4456.6449689425426186
 20
301.3692283305700812
 30
0.0
 11
4456.6598259536276601
 21
301.3579488012131264
 31
0.0
  0
ARC
  5
C414
  8
0
 10
4456.6666420334886425
 20
301.3710674947676011
 30
0.0
 40
0.014783743276246
 50
242.5449641725791992
 51
269.5061402900640815
  0
LINE
  5
C415
  8
0
 10
4456.6949275138176745
 20
301.3633628988699797
 30
0.0
 11
4456.6665146069180992
 21
301.3633628988699797
 31
0.0
  0
LINE
  5
C416
  8
0
 10
4456.6535394330221607
 20
301.3732147031103068
 30
0.0
 11
4456.6665146069180992
 21
301.3633628988699797
 31
0.0
  0
LINE
  5
C417
  8
0
 10
4456.6665146069180992
 20
301.3819743830699736
 30
0.0
 11
4456.6665146069180992
 21
301.3633628988699797
 31
0.0
  0
LINE
  5
C418
  8
0
 10
4456.6665146069180992
 20
301.3562843006699836
 30
0.0
 11
4456.6965232646180084
 21
301.3562843006699836
 31
0.0
  0
LINE
  5
C419
  8
0
 10
4456.7077764132563971
 20
301.373118825376082
 30
0.0
 11
4456.6949275138176745
 21
301.3633628988699797
 31
0.0
  0
ARC
  5
C41A
  8
0
 10
4456.6965232646180084
 20
301.3649135168658972
 30
0.0
 40
0.0086292161958852
 50
270.0
 51
307.1672124877347869
  0
LINE
  5
C41B
  8
0
 10
4456.701736546918255
 20
301.3580371035699841
 30
0.0
 11
4456.7163307276950945
 21
301.3691015322272051
 31
0.0
  0
LINE
  5
C41C
  8
0
 10
4456.6949275138176745
 20
301.3633628988699797
 30
0.0
 11
4456.6949275138176745
 21
301.3819743830699736
 31
0.0
  0
LINE
  5
C41D
  8
0
 10
4456.6449689425426186
 20
301.3435382481699776
 30
0.0
 11
4456.6598259536276601
 21
301.3322587188130797
 31
0.0
  0
ARC
  5
C41E
  8
0
 10
4456.6666420334886425
 20
301.3453774123676112
 30
0.0
 40
0.014783743276246
 50
242.5449641725791992
 51
269.5061402900640815
  0
LINE
  5
C41F
  8
0
 10
4456.6949275138176745
 20
301.3376728164701035
 30
0.0
 11
4456.6665146069180992
 21
301.3376728164701035
 31
0.0
  0
LINE
  5
C420
  8
0
 10
4456.6535394330221607
 20
301.3475246207103169
 30
0.0
 11
4456.6665146069180992
 21
301.3376728164701035
 31
0.0
  0
LINE
  5
C421
  8
0
 10
4456.6665146069180992
 20
301.3562843006699836
 30
0.0
 11
4456.6665146069180992
 21
301.3376728164701035
 31
0.0
  0
LINE
  5
C422
  8
0
 10
4456.6665146069180992
 20
301.3305942182701074
 30
0.0
 11
4456.6965232646180084
 21
301.3305942182701074
 31
0.0
  0
LINE
  5
C423
  8
0
 10
4456.7077764132563971
 20
301.3474287429760921
 30
0.0
 11
4456.6949275138176745
 21
301.3376728164701035
 31
0.0
  0
ARC
  5
C424
  8
0
 10
4456.6965232646180084
 20
301.3392234344659073
 30
0.0
 40
0.0086292161958852
 50
270.0
 51
307.1672124877347869
  0
LINE
  5
C425
  8
0
 10
4456.701736546918255
 20
301.3323470211699942
 30
0.0
 11
4456.7101008551262566
 21
301.3386883357561032
 31
0.0
  0
LINE
  5
C426
  8
0
 10
4456.6949275138176745
 20
301.3376728164701035
 30
0.0
 11
4456.6949275138176745
 21
301.3562843006699836
 31
0.0
  0
LINE
  5
C427
  8
0
 10
4456.6449689425426186
 20
301.3178481657699876
 30
0.0
 11
4456.6601368967958479
 21
301.3063325665480079
 31
0.0
  0
ARC
  5
C428
  8
0
 10
4456.6666420334886425
 20
301.3196873299676213
 30
0.0
 40
0.014783743276246
 50
242.5449641725791992
 51
244.2429475405963046
  0
LINE
  5
C429
  8
0
 10
4456.6710644864833739
 20
301.3119827340699999
 30
0.0
 11
4456.6665146069180992
 21
301.3119827340699999
 31
0.0
  0
LINE
  5
C42A
  8
0
 10
4456.6535394330221607
 20
301.3218345383103269
 30
0.0
 11
4456.6665146069180992
 21
301.3119827340699999
 31
0.0
  0
LINE
  5
C42B
  8
0
 10
4456.6665146069180992
 20
301.3305942182701074
 30
0.0
 11
4456.6665146069180992
 21
301.3119827340699999
 31
0.0
  0
LINE
  5
C42C
  8
0
 10
4456.696112174911832
 20
301.4590446302701139
 30
0.0
 11
4456.7109691861269312
 21
301.4477651008131147
 31
0.0
  0
ARC
  5
C42D
  8
0
 10
4456.7177852659888231
 20
301.4608837943677031
 30
0.0
 40
0.014783743276246
 50
242.5449641725791992
 51
258.9867202286109773
  0
LINE
  5
C42E
  8
0
 10
4456.696112174911832
 20
301.433354547870124
 30
0.0
 11
4456.7109691861269312
 21
301.4220750184131248
 31
0.0
  0
ARC
  5
C42F
  8
0
 10
4456.7177852659888231
 20
301.4351937119675995
 30
0.0
 40
0.014783743276246
 50
242.5449641725791992
 51
269.5061402900640815
  0
LINE
  5
C430
  8
0
 10
4456.7312540778430048
 20
301.4274891160699781
 30
0.0
 11
4456.7176578394182798
 21
301.4274891160699781
 31
0.0
  0
LINE
  5
C431
  8
0
 10
4456.7046826654550387
 20
301.4373409203603273
 30
0.0
 11
4456.7176578394182798
 21
301.4274891160699781
 31
0.0
  0
LINE
  5
C432
  8
0
 10
4456.7176578394182798
 20
301.4439290487599123
 30
0.0
 11
4456.7176578394182798
 21
301.4274891160699781
 31
0.0
  0
LINE
  5
C433
  8
0
 10
4456.7176578394182798
 20
301.420410517869982
 30
0.0
 11
4456.7349246971843968
 21
301.420410517869982
 31
0.0
  0
LINE
  5
C434
  8
0
 10
4456.696112174911832
 20
301.4076644654700203
 30
0.0
 11
4456.7109691861269312
 21
301.396384936013078
 31
0.0
  0
ARC
  5
C435
  8
0
 10
4456.7177852659888231
 20
301.4095036295676096
 30
0.0
 40
0.014783743276246
 50
242.5449641725791992
 51
269.5061402900640815
  0
LINE
  5
C436
  8
0
 10
4456.7402659551089528
 20
301.4017990336701018
 30
0.0
 11
4456.7176578394182798
 21
301.4017990336701018
 31
0.0
  0
LINE
  5
C437
  8
0
 10
4456.7046826654550387
 20
301.4116508379602806
 30
0.0
 11
4456.7176578394182798
 21
301.4017990336701018
 31
0.0
  0
LINE
  5
C438
  8
0
 10
4456.7176578394182798
 20
301.420410517869982
 30
0.0
 11
4456.7176578394182798
 21
301.4017990336701018
 31
0.0
  0
LINE
  5
C439
  8
0
 10
4456.7176578394182798
 20
301.3947204354701057
 30
0.0
 11
4456.7408825322199846
 21
301.3947204354701057
 31
0.0
  0
LINE
  5
C43A
  8
0
 10
4456.696112174911832
 20
301.3819743830699736
 30
0.0
 11
4456.7109691861269312
 21
301.3706948536129744
 31
0.0
  0
ARC
  5
C43B
  8
0
 10
4456.7177852659888231
 20
301.3838135471676196
 30
0.0
 40
0.014783743276246
 50
242.5449641725791992
 51
269.5061402900640815
  0
LINE
  5
C43C
  8
0
 10
4456.7354725235827573
 20
301.3761089512699982
 30
0.0
 11
4456.7176578394182798
 21
301.3761089512699982
 31
0.0
  0
LINE
  5
C43D
  8
0
 10
4456.7046826654550387
 20
301.3859607555604043
 30
0.0
 11
4456.7176578394182798
 21
301.3761089512699982
 31
0.0
  0
LINE
  5
C43E
  8
0
 10
4456.7176578394182798
 20
301.3947204354701057
 30
0.0
 11
4456.7176578394182798
 21
301.3761089512699982
 31
0.0
  0
LINE
  5
C43F
  8
0
 10
4456.7176578394182798
 20
301.3690303530700021
 30
0.0
 11
4456.7321761180310205
 21
301.3690303530700021
 31
0.0
  0
LINE
  5
C440
  8
0
 10
4456.696112174911832
 20
301.3562843006699836
 30
0.0
 11
4456.7109691861269312
 21
301.3450047712129845
 31
0.0
  0
ARC
  5
C441
  8
0
 10
4456.7177852659888231
 20
301.3581234647675728
 30
0.0
 40
0.014783743276246
 50
242.5449641725791992
 51
258.3857885965837227
  0
LINE
  5
C442
  8
0
 10
4456.7204418978935792
 20
301.350418868870122
 30
0.0
 11
4456.7176578394182798
 21
301.350418868870122
 31
0.0
  0
LINE
  5
C443
  8
0
 10
4456.7046826654550387
 20
301.3602706731604144
 30
0.0
 11
4456.7176578394182798
 21
301.350418868870122
 31
0.0
  0
LINE
  5
C444
  8
0
 10
4456.7176578394182798
 20
301.3690303530700021
 30
0.0
 11
4456.7176578394182798
 21
301.350418868870122
 31
0.0
  0
ARC
  5
C445
  8
0
 10
4456.4372476341959555
 20
300.9403991476352758
 30
0.0
 40
0.5896516820262447
 50
71.9403544483019033
 51
86.9405200273817655
  0
ARC
  5
C446
  8
0
 10
4456.5374652902555681
 20
301.2477483326775882
 30
0.0
 40
0.2663761027873972
 50
46.9244137559626395
 51
71.9403544483019033
  0
ARC
  5
C447
  8
0
 10
4456.6720343175365997
 20
301.3922896048259759
 30
0.0
 40
0.0688911141045845
 50
316.9835570435326986
 51
46.5751997492792285
  0
ARC
  5
C448
  8
0
 10
4456.5512100879677746
 20
301.5109761305060943
 30
0.0
 40
0.2382413734399047
 50
285.7847265222010265
 51
315.9370309792229818
  0
ARC
  5
C449
  8
0
 10
4456.4474422476705513
 20
301.8020176476641154
 30
0.0
 40
0.5469264714416566
 50
277.1429406997858109
 51
287.9521542067066093
  0
ARC
  5
C44A
  8
0
 10
4456.6271272144476825
 20
301.4222570230144242
 30
0.0
 40
0.1177639611143516
 50
296.8673131436838162
 51
345.1327150525070238
  0
ARC
  5
C44B
  8
0
 10
4456.5159855316223911
 20
301.5985177574318072
 30
0.0
 40
0.3258094563594089
 50
287.8055813959807097
 51
300.2964138080607768
  0
ARC
  5
C44C
  8
0
 10
4456.4465182277272106
 20
301.8125456289336057
 30
0.0
 40
0.5508280163348787
 50
276.8283180171022764
 51
287.8776267324354876
  0
ARC
  5
C44D
  8
0
 10
4456.4624182808820478
 20
301.0002944397551801
 30
0.0
 40
0.5599094136139052
 50
62.6540170793124602
 51
86.4397593294681457
  0
ARC
  5
C44E
  8
0
 10
4456.6460939525468348
 20
301.3554598712437951
 30
0.0
 40
0.1600603970017351
 50
30.9431237672495598
 51
62.6540170793124602
  0
ARC
  5
C44F
  8
0
 10
4456.709399643339566
 20
301.3989278692835114
 30
0.0
 40
0.0835478468947835
 50
323.8095737472884252
 51
27.69722259329086
  0
ARC
  5
C450
  8
0
 10
4456.6166396928038012
 20
301.466549466673996
 30
0.0
 40
0.1983392770556064
 50
295.4372910854557972
 51
323.8666057987409204
  0
ARC
  5
C451
  8
0
 10
4456.4649783681516055
 20
301.7826388780715092
 30
0.0
 40
0.5489290100384002
 50
277.0062018173566116
 51
295.5616038532012908
  0
ARC
  5
C452
  8
0
 10
4456.4582392894326404
 20
301.0345114488633271
 30
0.0
 40
0.5018000367700808
 50
68.3897137910029471
 51
87.6416439215163763
  0
ARC
  5
C453
  8
0
 10
4456.5658657168623904
 20
301.2773685234644176
 30
0.0
 40
0.2366138133588799
 50
45.112848152901492
 51
70.9620101044438911
  0
ARC
  5
C454
  8
0
 10
4456.685320242763737
 20
301.3928048335806125
 30
0.0
 40
0.0705979641128513
 50
323.2522176004025027
 51
47.6851444663296391
  0
ARC
  5
C455
  8
0
 10
4456.5972345712498282
 20
301.4625448514560162
 30
0.0
 40
0.1829316311362632
 50
293.7600459424398878
 51
322.2561707180769872
  0
ARC
  5
C456
  8
0
 10
4456.4620501033023174
 20
301.7542353211464956
 30
0.0
 40
0.5044035882509306
 50
276.555322761606817
 51
294.4645747855473132
  0
ARC
  5
C457
  8
0
 10
4456.4646932302439382
 20
300.9456310807490809
 30
0.0
 40
0.621290316737373
 50
66.4430182336298003
 51
85.1565647925562246
  0
ARC
  5
C458
  8
0
 10
4456.6373145252600807
 20
301.3225528167911875
 30
0.0
 40
0.2069295188708813
 50
32.1062194820453399
 51
68.5463477052280155
  0
ARC
  5
C459
  8
0
 10
4456.7402854702741024
 20
301.3952898215155756
 30
0.0
 40
0.0813393862017029
 50
325.2137758075149918
 51
27.2507068497636098
  0
ARC
  5
C45A
  8
0
 10
4456.6184654997441612
 20
301.4934318840336118
 30
0.0
 40
0.2376395952566726
 50
289.8286445593358849
 51
322.5359511818531928
  0
ARC
  5
C45B
  8
0
 10
4456.4639757755912797
 20
301.857849782429696
 30
0.0
 40
0.6332283198953476
 50
277.1804615354366206
 51
291.7939979186596133
  0
ARC
  5
C45C
  8
0
 10
4456.5312211619702794
 20
301.0998249647341254
 30
0.0
 40
0.5166377027496577
 50
50.8943621944046001
 51
84.4130613559481731
  0
ARC
  5
C45D
  8
0
 10
4456.5109801730095569
 20
301.7703743907575245
 30
0.0
 40
0.553276027389372
 50
274.2880369196823267
 51
308.7247749232520277
  0
LINE
  5
C45E
  8
0
 10
4456.8570986229178743
 20
301.3387305779701251
 30
0.0
 11
4456.8570866722111532
 21
301.6109859161289819
 31
0.0
  0
ARC
  5
C45F
  8
0
 10
4456.6853147563851962
 20
301.5743690604645053
 30
0.0
 40
0.2120174921271388
 50
324.1165858090063239
 51
350.0774003983289049
  0
ARC
  5
C460
  8
0
 10
4456.8276525559585934
 20
301.55009782536888
 30
0.0
 40
0.0676293338426003
 50
349.5528531934543821
 51
64.2002569548579487
  0
LINE
  5
C461
  8
0
 10
4456.4093530140180519
 20
301.5237647798700209
 30
0.0
 11
4456.3947567720078951
 21
301.5126832279129871
 31
0.0
  0
ARC
  5
C462
  8
0
 10
4456.3879406921450936
 20
301.5258019214675755
 30
0.0
 40
0.014783743276246
 50
270.4938597099359185
 51
297.4550358274207724
  0
LINE
  5
C463
  8
0
 10
4456.3596552118178806
 20
301.5180973255701247
 30
0.0
 11
4456.3880681187192749
 21
301.5180973255701247
 31
0.0
  0
LINE
  5
C464
  8
0
 10
4456.4010461944480994
 20
301.527951333117926
 30
0.0
 11
4456.3880681187192749
 21
301.5180973255701247
 31
0.0
  0
LINE
  5
C465
  8
0
 10
4456.3880681187192749
 20
301.5294905238699812
 30
0.0
 11
4456.3880681187192749
 21
301.5180973255701247
 31
0.0
  0
LINE
  5
C466
  8
0
 10
4456.4250048978183258
 20
301.5239627572701124
 30
0.0
 11
4456.4093530140180519
 21
301.5237647798700209
 31
0.0
  0
ARC
  5
C467
  8
0
 10
4456.4118981935089323
 20
301.5391115727576903
 30
0.0
 40
0.0155564131655119
 50
239.4431066496858023
 51
260.5835236037340223
  0
LINE
  5
C468
  8
0
 10
4456.4039894112183902
 20
301.5257155601699992
 30
0.0
 11
4456.3983482848170752
 21
301.5300007619699727
 31
0.0
  0
LINE
  5
C469
  8
0
 10
4456.4250048977683036
 20
301.5051532956700271
 30
0.0
 11
4456.4107984443180612
 21
301.5051532956700271
 31
0.0
  0
LINE
  5
C46A
  8
0
 10
4456.4107984443180612
 20
301.5051532956700271
 30
0.0
 11
4456.4107984443180612
 21
301.5237830628151983
 31
0.0
  0
LINE
  5
C46B
  8
0
 10
4456.3978191667411011
 20
301.515008215833177
 30
0.0
 11
4456.4107984443180612
 21
301.5051532956700271
 31
0.0
  0
LINE
  5
C46C
  8
0
 10
4456.4263301247119671
 20
301.4980746974699741
 30
0.0
 11
4456.4092026935168178
 21
301.4980746974699741
 31
0.0
  0
ARC
  5
C46D
  8
0
 10
4456.4092026935168178
 20
301.5067039136658877
 30
0.0
 40
0.0086292161958852
 50
232.8327875122652131
 51
270.0
  0
LINE
  5
C46E
  8
0
 10
4456.4039894112183902
 20
301.4998275003699746
 30
0.0
 11
4456.3891620459862679
 21
301.5110687154331117
 31
0.0
  0
LINE
  5
C46F
  8
0
 10
4456.3880681187192749
 20
301.5110187273700149
 30
0.0
 11
4456.3580594610175467
 21
301.5110187273700149
 31
0.0
  0
LINE
  5
C470
  8
0
 10
4456.4093530140180519
 20
301.4980746974699741
 30
0.0
 11
4456.3947567720078951
 21
301.4869931455131109
 31
0.0
  0
ARC
  5
C471
  8
0
 10
4456.3879406921450936
 20
301.5001118390676993
 30
0.0
 40
0.014783743276246
 50
270.4938597099359185
 51
297.4550358274207724
  0
LINE
  5
C472
  8
0
 10
4456.3596552118178806
 20
301.4924072431700779
 30
0.0
 11
4456.3880681187192749
 21
301.4924072431700779
 31
0.0
  0
LINE
  5
C473
  8
0
 10
4456.4009128229417911
 20
301.502159984255286
 30
0.0
 11
4456.3880681187192749
 21
301.4924072431700779
 31
0.0
  0
LINE
  5
C474
  8
0
 10
4456.3880681187192749
 20
301.5110187273700149
 30
0.0
 11
4456.3880681187192749
 21
301.4924072431700779
 31
0.0
  0
LINE
  5
C475
  8
0
 10
4456.4250048977683036
 20
301.479463213270094
 30
0.0
 11
4456.4107984443180612
 21
301.479463213270094
 31
0.0
  0
LINE
  5
C476
  8
0
 10
4456.4107984443180612
 20
301.479463213270094
 30
0.0
 11
4456.4107984443180612
 21
301.4980746974699741
 31
0.0
  0
LINE
  5
C477
  8
0
 10
4456.3978191667411011
 20
301.4893181334333008
 30
0.0
 11
4456.4107984443180612
 21
301.479463213270094
 31
0.0
  0
LINE
  5
C478
  8
0
 10
4456.4263301247119671
 20
301.4723846150700979
 30
0.0
 11
4456.4092026935168178
 21
301.4723846150700979
 31
0.0
  0
ARC
  5
C479
  8
0
 10
4456.4092026935168178
 20
301.4810138312660115
 30
0.0
 40
0.0086292161958852
 50
232.8327875122652131
 51
270.0
  0
LINE
  5
C47A
  8
0
 10
4456.4039894112183902
 20
301.4741374179699847
 30
0.0
 11
4456.3891620459862679
 21
301.4853786330331218
 31
0.0
  0
LINE
  5
C47B
  8
0
 10
4456.3880681187192749
 20
301.4853286449700818
 30
0.0
 11
4456.3580594610175467
 21
301.4853286449700818
 31
0.0
  0
LINE
  5
C47C
  8
0
 10
4456.346936690453731
 20
301.5020641760689841
 30
0.0
 11
4456.3596552118178806
 21
301.4924072431700779
 31
0.0
  0
ARC
  5
C47D
  8
0
 10
4456.3580594610175467
 20
301.4939578611658817
 30
0.0
 40
0.0086292161958852
 50
232.8327875122652131
 51
270.0
  0
LINE
  5
C47E
  8
0
 10
4456.3528461787182096
 20
301.4870814478700822
 30
0.0
 11
4456.3384809065191803
 21
301.4979723318335232
 31
0.0
  0
LINE
  5
C47F
  8
0
 10
4456.3485329701134106
 20
301.5265422334921936
 30
0.0
 11
4456.3596552118178806
 21
301.5180973255701247
 31
0.0
  0
ARC
  5
C480
  8
0
 10
4456.3580594610175467
 20
301.5196479435658716
 30
0.0
 40
0.0086292161958852
 50
232.8327875122652131
 51
270.0
  0
LINE
  5
C481
  8
0
 10
4456.3528461787182096
 20
301.5127715302700153
 30
0.0
 11
4456.3384809065191803
 21
301.5236624142335131
 31
0.0
  0
LINE
  5
C482
  8
0
 10
4456.3596552118178806
 20
301.4924072431700779
 30
0.0
 11
4456.3596552118178806
 21
301.5110187273700149
 31
0.0
  0
LINE
  5
C483
  8
0
 10
4456.3596552118178806
 20
301.5180973255701247
 30
0.0
 11
4456.3596552118178806
 21
301.5276544226376814
 31
0.0
  0
LINE
  5
C484
  8
0
 10
4456.4093530140180519
 20
301.4723846150700979
 30
0.0
 11
4456.3947567720078951
 21
301.461303063113121
 31
0.0
  0
ARC
  5
C485
  8
0
 10
4456.3879406921450936
 20
301.4744217566675957
 30
0.0
 40
0.014783743276246
 50
270.4938597099359185
 51
297.4550358274207724
  0
LINE
  5
C486
  8
0
 10
4456.3596552118178806
 20
301.4667171607699743
 30
0.0
 11
4456.3880681187192749
 21
301.4667171607699743
 31
0.0
  0
LINE
  5
C487
  8
0
 10
4456.4009128229417911
 20
301.476469901855296
 30
0.0
 11
4456.3880681187192749
 21
301.4667171607699743
 31
0.0
  0
LINE
  5
C488
  8
0
 10
4456.3880681187192749
 20
301.4853286449700818
 30
0.0
 11
4456.3880681187192749
 21
301.4667171607699743
 31
0.0
  0
LINE
  5
C489
  8
0
 10
4456.4250048977683036
 20
301.4537731308699904
 30
0.0
 11
4456.4107984443180612
 21
301.4537731308699904
 31
0.0
  0
LINE
  5
C48A
  8
0
 10
4456.4107984443180612
 20
301.4537731308699904
 30
0.0
 11
4456.4107984443180612
 21
301.4723846150700979
 31
0.0
  0
LINE
  5
C48B
  8
0
 10
4456.3978191667411011
 20
301.4636280510333108
 30
0.0
 11
4456.4107984443180612
 21
301.4537731308699904
 31
0.0
  0
LINE
  5
C48C
  8
0
 10
4456.4263301247119671
 20
301.4466945326701079
 30
0.0
 11
4456.4092026935168178
 21
301.4466945326701079
 31
0.0
  0
ARC
  5
C48D
  8
0
 10
4456.4092026935168178
 20
301.4553237488659079
 30
0.0
 40
0.0086292161958852
 50
232.8327875122652131
 51
270.0
  0
LINE
  5
C48E
  8
0
 10
4456.4039894112183902
 20
301.4484473355701084
 30
0.0
 11
4456.3891620459862679
 21
301.459688550633075
 31
0.0
  0
LINE
  5
C48F
  8
0
 10
4456.3880681187192749
 20
301.4596385625699781
 30
0.0
 11
4456.3580594610175467
 21
301.4596385625699781
 31
0.0
  0
LINE
  5
C490
  8
0
 10
4456.346936690453731
 20
301.4763740936689942
 30
0.0
 11
4456.3596552118178806
 21
301.4667171607699743
 31
0.0
  0
ARC
  5
C491
  8
0
 10
4456.3580594610175467
 20
301.4682677787658918
 30
0.0
 40
0.0086292161958852
 50
232.8327875122652131
 51
270.0
  0
LINE
  5
C492
  8
0
 10
4456.3528461787182096
 20
301.4613913654699786
 30
0.0
 11
4456.3384809065191803
 21
301.4722822494334764
 31
0.0
  0
LINE
  5
C493
  8
0
 10
4456.3596552118178806
 20
301.4667171607699743
 30
0.0
 11
4456.3596552118178806
 21
301.4853286449700818
 31
0.0
  0
LINE
  5
C494
  8
0
 10
4456.4093530140180519
 20
301.4466945326701079
 30
0.0
 11
4456.3947567720078951
 21
301.4356129807130742
 31
0.0
  0
ARC
  5
C495
  8
0
 10
4456.3879406921450936
 20
301.4487316742676057
 30
0.0
 40
0.014783743276246
 50
270.4938597099359185
 51
297.4550358274207724
  0
LINE
  5
C496
  8
0
 10
4456.3596552118178806
 20
301.441027078370098
 30
0.0
 11
4456.3880681187192749
 21
301.441027078370098
 31
0.0
  0
LINE
  5
C497
  8
0
 10
4456.4009128229417911
 20
301.4507798194553061
 30
0.0
 11
4456.3880681187192749
 21
301.441027078370098
 31
0.0
  0
LINE
  5
C498
  8
0
 10
4456.3880681187192749
 20
301.4596385625699781
 30
0.0
 11
4456.3880681187192749
 21
301.441027078370098
 31
0.0
  0
LINE
  5
C499
  8
0
 10
4456.4250048977683036
 20
301.4280830484701141
 30
0.0
 11
4456.4107984443180612
 21
301.4280830484701141
 31
0.0
  0
LINE
  5
C49A
  8
0
 10
4456.4107984443180612
 20
301.4280830484701141
 30
0.0
 11
4456.4107984443180612
 21
301.4466945326701079
 31
0.0
  0
LINE
  5
C49B
  8
0
 10
4456.3978191667411011
 20
301.4379379686332072
 30
0.0
 11
4456.4107984443180612
 21
301.4280830484701141
 31
0.0
  0
LINE
  5
C49C
  8
0
 10
4456.4263301247119671
 20
301.4210044502700043
 30
0.0
 11
4456.4092026935168178
 21
301.4210044502700043
 31
0.0
  0
ARC
  5
C49D
  8
0
 10
4456.4092026935168178
 20
301.4296336664659179
 30
0.0
 40
0.0086292161958852
 50
232.8327875122652131
 51
270.0
  0
LINE
  5
C49E
  8
0
 10
4456.4039894112183902
 20
301.4227572531701185
 30
0.0
 11
4456.3891620459862679
 21
301.4339984682330851
 31
0.0
  0
LINE
  5
C49F
  8
0
 10
4456.3880681187192749
 20
301.4339484801701019
 30
0.0
 11
4456.3580594610175467
 21
301.4339484801701019
 31
0.0
  0
LINE
  5
C4A0
  8
0
 10
4456.346936690453731
 20
301.4506840112688906
 30
0.0
 11
4456.3596552118178806
 21
301.441027078370098
 31
0.0
  0
ARC
  5
C4A1
  8
0
 10
4456.3580594610175467
 20
301.4425776963659018
 30
0.0
 40
0.0086292161958852
 50
232.8327875122652131
 51
270.0
  0
LINE
  5
C4A2
  8
0
 10
4456.3528461787182096
 20
301.4357012830699887
 30
0.0
 11
4456.3384809065191803
 21
301.4465921670334865
 31
0.0
  0
LINE
  5
C4A3
  8
0
 10
4456.3596552118178806
 20
301.441027078370098
 30
0.0
 11
4456.3596552118178806
 21
301.4596385625699781
 31
0.0
  0
LINE
  5
C4A4
  8
0
 10
4456.4093530140180519
 20
301.4210044502700043
 30
0.0
 11
4456.3947567720078951
 21
301.4099228983130843
 31
0.0
  0
ARC
  5
C4A5
  8
0
 10
4456.3879406921450936
 20
301.4230415918676158
 30
0.0
 40
0.014783743276246
 50
270.4938597099359185
 51
297.4550358274207724
  0
LINE
  5
C4A6
  8
0
 10
4456.3596552118178806
 20
301.4153369959699944
 30
0.0
 11
4456.3880681187192749
 21
301.4153369959699944
 31
0.0
  0
LINE
  5
C4A7
  8
0
 10
4456.4009128229417911
 20
301.4250897370553162
 30
0.0
 11
4456.3880681187192749
 21
301.4153369959699944
 31
0.0
  0
LINE
  5
C4A8
  8
0
 10
4456.3880681187192749
 20
301.4339484801701019
 30
0.0
 11
4456.3880681187192749
 21
301.4153369959699944
 31
0.0
  0
LINE
  5
C4A9
  8
0
 10
4456.4250048977683036
 20
301.4023929660701242
 30
0.0
 11
4456.4107984443180612
 21
301.4023929660701242
 31
0.0
  0
LINE
  5
C4AA
  8
0
 10
4456.4107984443180612
 20
301.4023929660701242
 30
0.0
 11
4456.4107984443180612
 21
301.4210044502700043
 31
0.0
  0
LINE
  5
C4AB
  8
0
 10
4456.3978191667411011
 20
301.4122478862332173
 30
0.0
 11
4456.4107984443180612
 21
301.4023929660701242
 31
0.0
  0
LINE
  5
C4AC
  8
0
 10
4456.4263301247119671
 20
301.3953143678701281
 30
0.0
 11
4456.4092026935168178
 21
301.3953143678701281
 31
0.0
  0
ARC
  5
C4AD
  8
0
 10
4456.4092026935168178
 20
301.403943584065928
 30
0.0
 40
0.0086292161958852
 50
232.8327875122652131
 51
270.0
  0
LINE
  5
C4AE
  8
0
 10
4456.4039894112183902
 20
301.3970671707700717
 30
0.0
 11
4456.3891620459862679
 21
301.4083083858329815
 31
0.0
  0
LINE
  5
C4AF
  8
0
 10
4456.3880681187192749
 20
301.408258397770112
 30
0.0
 11
4456.3580594610175467
 21
301.408258397770112
 31
0.0
  0
LINE
  5
C4B0
  8
0
 10
4456.346936690453731
 20
301.4249939288689006
 30
0.0
 11
4456.3596552118178806
 21
301.4153369959699944
 31
0.0
  0
ARC
  5
C4B1
  8
0
 10
4456.3580594610175467
 20
301.4168876139660256
 30
0.0
 40
0.0086292161958852
 50
232.8327875122652131
 51
270.0
  0
LINE
  5
C4B2
  8
0
 10
4456.3528461787182096
 20
301.4100112006701124
 30
0.0
 11
4456.3384809065191803
 21
301.4209020846334965
 31
0.0
  0
LINE
  5
C4B3
  8
0
 10
4456.3596552118178806
 20
301.4153369959699944
 30
0.0
 11
4456.3596552118178806
 21
301.4339484801701019
 31
0.0
  0
LINE
  5
C4B4
  8
0
 10
4456.4093530140180519
 20
301.3953143678701281
 30
0.0
 11
4456.3947567720078951
 21
301.3842328159129806
 31
0.0
  0
ARC
  5
C4B5
  8
0
 10
4456.3879406921450936
 20
301.3973515094676259
 30
0.0
 40
0.014783743276246
 50
270.4938597099359185
 51
297.4550358274207724
  0
LINE
  5
C4B6
  8
0
 10
4456.3596552118178806
 20
301.3896469135701182
 30
0.0
 11
4456.3880681187192749
 21
301.3896469135701182
 31
0.0
  0
LINE
  5
C4B7
  8
0
 10
4456.4009128229417911
 20
301.3993996546553262
 30
0.0
 11
4456.3880681187192749
 21
301.3896469135701182
 31
0.0
  0
LINE
  5
C4B8
  8
0
 10
4456.3880681187192749
 20
301.408258397770112
 30
0.0
 11
4456.3880681187192749
 21
301.3896469135701182
 31
0.0
  0
LINE
  5
C4B9
  8
0
 10
4456.4250048977683036
 20
301.3767028836700774
 30
0.0
 11
4456.4107984443180612
 21
301.3767028836700774
 31
0.0
  0
LINE
  5
C4BA
  8
0
 10
4456.4107984443180612
 20
301.3767028836700774
 30
0.0
 11
4456.4107984443180612
 21
301.3953143678701281
 31
0.0
  0
LINE
  5
C4BB
  8
0
 10
4456.3978191667411011
 20
301.3865578038332274
 30
0.0
 11
4456.4107984443180612
 21
301.3767028836700774
 31
0.0
  0
LINE
  5
C4BC
  8
0
 10
4456.4263301247119671
 20
301.3696242854700813
 30
0.0
 11
4456.4092026935168178
 21
301.3696242854700813
 31
0.0
  0
ARC
  5
C4BD
  8
0
 10
4456.4092026935168178
 20
301.3782535016658812
 30
0.0
 40
0.0086292161958852
 50
232.8327875122652131
 51
270.0
  0
LINE
  5
C4BE
  8
0
 10
4456.4039894112183902
 20
301.3713770883700818
 30
0.0
 11
4456.3891620459862679
 21
301.3826183034331052
 31
0.0
  0
LINE
  5
C4BF
  8
0
 10
4456.3880681187192749
 20
301.382568315370122
 30
0.0
 11
4456.3580594610175467
 21
301.382568315370122
 31
0.0
  0
LINE
  5
C4C0
  8
0
 10
4456.346936690453731
 20
301.3993038464690244
 30
0.0
 11
4456.3596552118178806
 21
301.3896469135701182
 31
0.0
  0
ARC
  5
C4C1
  8
0
 10
4456.3580594610175467
 20
301.391197531565922
 30
0.0
 40
0.0086292161958852
 50
232.8327875122652131
 51
270.0
  0
LINE
  5
C4C2
  8
0
 10
4456.3528461787182096
 20
301.3843211182701225
 30
0.0
 11
4456.3384809065191803
 21
301.3952120022335066
 31
0.0
  0
LINE
  5
C4C3
  8
0
 10
4456.3596552118178806
 20
301.3896469135701182
 30
0.0
 11
4456.3596552118178806
 21
301.408258397770112
 31
0.0
  0
LINE
  5
C4C4
  8
0
 10
4456.4093530140180519
 20
301.3696242854700813
 30
0.0
 11
4456.3947567720078951
 21
301.3585427335129907
 31
0.0
  0
ARC
  5
C4C5
  8
0
 10
4456.3879406921450936
 20
301.3716614270676928
 30
0.0
 40
0.014783743276246
 50
270.4938597099359185
 51
297.4550358274207724
  0
LINE
  5
C4C6
  8
0
 10
4456.3596552118178806
 20
301.3639568311701282
 30
0.0
 11
4456.3880681187192749
 21
301.3639568311701282
 31
0.0
  0
LINE
  5
C4C7
  8
0
 10
4456.4009128229417911
 20
301.3737095722552795
 30
0.0
 11
4456.3880681187192749
 21
301.3639568311701282
 31
0.0
  0
LINE
  5
C4C8
  8
0
 10
4456.3880681187192749
 20
301.382568315370122
 30
0.0
 11
4456.3880681187192749
 21
301.3639568311701282
 31
0.0
  0
LINE
  5
C4C9
  8
0
 10
4456.4250048977683036
 20
301.3510128012700875
 30
0.0
 11
4456.4107984443180612
 21
301.3510128012700875
 31
0.0
  0
LINE
  5
C4CA
  8
0
 10
4456.4107984443180612
 20
301.3510128012700875
 30
0.0
 11
4456.4107984443180612
 21
301.3696242854700813
 31
0.0
  0
LINE
  5
C4CB
  8
0
 10
4456.3978191667411011
 20
301.3608677214331806
 30
0.0
 11
4456.4107984443180612
 21
301.3510128012700875
 31
0.0
  0
LINE
  5
C4CC
  8
0
 10
4456.4263301247119671
 20
301.3439342030700914
 30
0.0
 11
4456.4092026935168178
 21
301.3439342030700914
 31
0.0
  0
ARC
  5
C4CD
  8
0
 10
4456.4092026935168178
 20
301.352563419266005
 30
0.0
 40
0.0086292161958852
 50
232.8327875122652131
 51
270.0
  0
LINE
  5
C4CE
  8
0
 10
4456.4039894112183902
 20
301.3456870059699781
 30
0.0
 11
4456.3891620459862679
 21
301.3569282210331153
 31
0.0
  0
LINE
  5
C4CF
  8
0
 10
4456.3880681187192749
 20
301.3568782329700753
 30
0.0
 11
4456.3580594610175467
 21
301.3568782329700753
 31
0.0
  0
LINE
  5
C4D0
  8
0
 10
4456.346936690453731
 20
301.3736137640689776
 30
0.0
 11
4456.3596552118178806
 21
301.3639568311701282
 31
0.0
  0
ARC
  5
C4D1
  8
0
 10
4456.3580594610175467
 20
301.3655074491658752
 30
0.0
 40
0.0086292161958852
 50
232.8327875122652131
 51
270.0
  0
LINE
  5
C4D2
  8
0
 10
4456.3528461787182096
 20
301.3586310358700757
 30
0.0
 11
4456.3384809065191803
 21
301.3695219198335167
 31
0.0
  0
LINE
  5
C4D3
  8
0
 10
4456.3596552118178806
 20
301.3639568311701282
 30
0.0
 11
4456.3596552118178806
 21
301.382568315370122
 31
0.0
  0
LINE
  5
C4D4
  8
0
 10
4456.4093530140180519
 20
301.3439342030700914
 30
0.0
 11
4456.3947567720078951
 21
301.3328526511131145
 31
0.0
  0
ARC
  5
C4D5
  8
0
 10
4456.3879406921450936
 20
301.3459713446675892
 30
0.0
 40
0.014783743276246
 50
270.4938597099359185
 51
297.4550358274207724
  0
LINE
  5
C4D6
  8
0
 10
4456.3596552118178806
 20
301.3382667487700246
 30
0.0
 11
4456.3880681187192749
 21
301.3382667487700246
 31
0.0
  0
LINE
  5
C4D7
  8
0
 10
4456.4009128229417911
 20
301.3480194898552895
 30
0.0
 11
4456.3880681187192749
 21
301.3382667487700246
 31
0.0
  0
LINE
  5
C4D8
  8
0
 10
4456.3880681187192749
 20
301.3568782329700753
 30
0.0
 11
4456.3880681187192749
 21
301.3382667487700246
 31
0.0
  0
LINE
  5
C4D9
  8
0
 10
4456.4250048977683036
 20
301.3253227188699839
 30
0.0
 11
4456.4107984443180612
 21
301.3253227188699839
 31
0.0
  0
LINE
  5
C4DA
  8
0
 10
4456.4107984443180612
 20
301.3253227188699839
 30
0.0
 11
4456.4107984443180612
 21
301.3439342030700914
 31
0.0
  0
LINE
  5
C4DB
  8
0
 10
4456.3978191667411011
 20
301.3351776390333043
 30
0.0
 11
4456.4107984443180612
 21
301.3253227188699839
 31
0.0
  0
LINE
  5
C4DC
  8
0
 10
4456.4263301247119671
 20
301.3182441206699878
 30
0.0
 11
4456.4092026935168178
 21
301.3182441206699878
 31
0.0
  0
ARC
  5
C4DD
  8
0
 10
4456.4092026935168178
 20
301.3268733368660151
 30
0.0
 40
0.0086292161958852
 50
232.8327875122652131
 51
270.0
  0
LINE
  5
C4DE
  8
0
 10
4456.4039894112183902
 20
301.3199969235699882
 30
0.0
 11
4456.3891620459862679
 21
301.3312381386331253
 31
0.0
  0
LINE
  5
C4DF
  8
0
 10
4456.3880681187192749
 20
301.3311881505699716
 30
0.0
 11
4456.3580594610175467
 21
301.3311881505699716
 31
0.0
  0
LINE
  5
C4E0
  8
0
 10
4456.346936690453731
 20
301.347923681668874
 30
0.0
 11
4456.3596552118178806
 21
301.3382667487700246
 31
0.0
  0
ARC
  5
C4E1
  8
0
 10
4456.3580594610175467
 20
301.3398173667658853
 30
0.0
 40
0.0086292161958852
 50
232.8327875122652131
 51
270.0
  0
LINE
  5
C4E2
  8
0
 10
4456.3528461787182096
 20
301.3329409534699721
 30
0.0
 11
4456.3384809065191803
 21
301.3438318374335267
 31
0.0
  0
LINE
  5
C4E3
  8
0
 10
4456.3596552118178806
 20
301.3382667487700246
 30
0.0
 11
4456.3596552118178806
 21
301.3568782329700753
 31
0.0
  0
LINE
  5
C4E4
  8
0
 10
4456.4093530140180519
 20
301.3182441206699878
 30
0.0
 11
4456.3947567720078951
 21
301.3071625687131245
 31
0.0
  0
ARC
  5
C4E5
  8
0
 10
4456.3879406921450936
 20
301.3202812622675992
 30
0.0
 40
0.014783743276246
 50
270.4938597099359185
 51
297.4550358274207724
  0
LINE
  5
C4E6
  8
0
 10
4456.3596552118178806
 20
301.3125766663700915
 30
0.0
 11
4456.3880681187192749
 21
301.3125766663700915
 31
0.0
  0
LINE
  5
C4E7
  8
0
 10
4456.4009128229417911
 20
301.3223294074552996
 30
0.0
 11
4456.3880681187192749
 21
301.3125766663700915
 31
0.0
  0
LINE
  5
C4E8
  8
0
 10
4456.3880681187192749
 20
301.3311881505699716
 30
0.0
 11
4456.3880681187192749
 21
301.3125766663700915
 31
0.0
  0
LINE
  5
C4E9
  8
0
 10
4456.4250048977683036
 20
301.2996326364699939
 30
0.0
 11
4456.4107984443180612
 21
301.2996326364699939
 31
0.0
  0
LINE
  5
C4EA
  8
0
 10
4456.4107984443180612
 20
301.2996326364699939
 30
0.0
 11
4456.4107984443180612
 21
301.3182441206699878
 31
0.0
  0
LINE
  5
C4EB
  8
0
 10
4456.3978191667411011
 20
301.3094875566332007
 30
0.0
 11
4456.4107984443180612
 21
301.2996326364699939
 31
0.0
  0
LINE
  5
C4EC
  8
0
 10
4456.4263301247119671
 20
301.2925540382699978
 30
0.0
 11
4456.4092026935168178
 21
301.2925540382699978
 31
0.0
  0
ARC
  5
C4ED
  8
0
 10
4456.4092026935168178
 20
301.3011832544659114
 30
0.0
 40
0.0086292161958852
 50
232.8327875122652131
 51
270.0
  0
LINE
  5
C4EE
  8
0
 10
4456.4039894112183902
 20
301.294306841170112
 30
0.0
 11
4456.3891620459862679
 21
301.3055480562330786
 31
0.0
  0
LINE
  5
C4EF
  8
0
 10
4456.3880681187192749
 20
301.3054980681700954
 30
0.0
 11
4456.3580594610175467
 21
301.3054980681700954
 31
0.0
  0
LINE
  5
C4F0
  8
0
 10
4456.346936690453731
 20
301.3222335992688841
 30
0.0
 11
4456.3596552118178806
 21
301.3125766663700915
 31
0.0
  0
ARC
  5
C4F1
  8
0
 10
4456.3580594610175467
 20
301.314127284366009
 30
0.0
 40
0.0086292161958852
 50
232.8327875122652131
 51
270.0
  0
LINE
  5
C4F2
  8
0
 10
4456.3528461787182096
 20
301.3072508710699822
 30
0.0
 11
4456.3384809065191803
 21
301.31814175503348
 31
0.0
  0
LINE
  5
C4F3
  8
0
 10
4456.3596552118178806
 20
301.3125766663700915
 30
0.0
 11
4456.3596552118178806
 21
301.3311881505699716
 31
0.0
  0
LINE
  5
C4F4
  8
0
 10
4456.4093530140180519
 20
301.2925540382699978
 30
0.0
 11
4456.3947567720078951
 21
301.2814724863130778
 31
0.0
  0
ARC
  5
C4F5
  8
0
 10
4456.3879406921450936
 20
301.294591179867723
 30
0.0
 40
0.014783743276246
 50
270.4938597099359185
 51
297.4550358274207724
  0
LINE
  5
C4F6
  8
0
 10
4456.3596552118178806
 20
301.2868865839699879
 30
0.0
 11
4456.3880681187192749
 21
301.2868865839699879
 31
0.0
  0
LINE
  5
C4F7
  8
0
 10
4456.4009128229417911
 20
301.2966393250553097
 30
0.0
 11
4456.3880681187192749
 21
301.2868865839699879
 31
0.0
  0
LINE
  5
C4F8
  8
0
 10
4456.3880681187192749
 20
301.3054980681700954
 30
0.0
 11
4456.3880681187192749
 21
301.2868865839699879
 31
0.0
  0
LINE
  5
C4F9
  8
0
 10
4456.4250048977683036
 20
301.2739425540701177
 30
0.0
 11
4456.4107984443180612
 21
301.2739425540701177
 31
0.0
  0
LINE
  5
C4FA
  8
0
 10
4456.4107984443180612
 20
301.2739425540701177
 30
0.0
 11
4456.4107984443180612
 21
301.2925540382699978
 31
0.0
  0
LINE
  5
C4FB
  8
0
 10
4456.3978191667411011
 20
301.2837974742333245
 30
0.0
 11
4456.4107984443180612
 21
301.2739425540701177
 31
0.0
  0
LINE
  5
C4FC
  8
0
 10
4456.440768949511039
 20
301.2668639558701216
 30
0.0
 11
4456.4092026935168178
 21
301.2668639558701216
 31
0.0
  0
ARC
  5
C4FD
  8
0
 10
4456.4092026935168178
 20
301.2754931720659215
 30
0.0
 40
0.0086292161958852
 50
232.8327875122652131
 51
270.0
  0
LINE
  5
C4FE
  8
0
 10
4456.4039894112183902
 20
301.268616758770122
 30
0.0
 11
4456.3891620459862679
 21
301.2798579738330886
 31
0.0
  0
LINE
  5
C4FF
  8
0
 10
4456.3880681187192749
 20
301.2798079857699918
 30
0.0
 11
4456.3580594610175467
 21
301.2798079857699918
 31
0.0
  0
LINE
  5
C500
  8
0
 10
4456.346936690453731
 20
301.2965435168688941
 30
0.0
 11
4456.3596552118178806
 21
301.2868865839699879
 31
0.0
  0
ARC
  5
C501
  8
0
 10
4456.3580594610175467
 20
301.2884372019660191
 30
0.0
 40
0.0086292161958852
 50
232.8327875122652131
 51
270.0
  0
LINE
  5
C502
  8
0
 10
4456.3528461787182096
 20
301.2815607886701059
 30
0.0
 11
4456.3384809065191803
 21
301.29245167263349
 31
0.0
  0
LINE
  5
C503
  8
0
 10
4456.3596552118178806
 20
301.2868865839699879
 30
0.0
 11
4456.3596552118178806
 21
301.3054980681700954
 31
0.0
  0
LINE
  5
C504
  8
0
 10
4456.344783002658005
 20
301.5261191661489875
 30
0.0
 11
4456.3436135395077144
 21
301.5252313029130846
 31
0.0
  0
ARC
  5
C505
  8
0
 10
4456.3367974596458225
 20
301.5383499964676162
 30
0.0
 40
0.014783743276246
 50
270.4938597099359185
 51
297.4550358274207724
  0
LINE
  5
C506
  8
0
 10
4456.3369248862181848
 20
301.5235668023699986
 30
0.0
 11
4456.3255578462512858
 21
301.5235668023699986
 31
0.0
  0
LINE
  5
C507
  8
0
 10
4456.3587313197976982
 20
301.5110187273700149
 30
0.0
 11
4456.3436135395077144
 21
301.499541220512981
 31
0.0
  0
ARC
  5
C508
  8
0
 10
4456.3367974596458225
 20
301.5126599140676262
 30
0.0
 40
0.014783743276246
 50
270.4938597099359185
 51
297.4550358274207724
  0
LINE
  5
C509
  8
0
 10
4456.3085119793177
 20
301.5049553181701185
 30
0.0
 11
4456.3369248862181848
 21
301.5049553181701185
 31
0.0
  0
LINE
  5
C50A
  8
0
 10
4456.3500305298512103
 20
301.5149061856154162
 30
0.0
 11
4456.3369248862181848
 21
301.5049553181701185
 31
0.0
  0
LINE
  5
C50B
  8
0
 10
4456.3369248862181848
 20
301.5235668023699986
 30
0.0
 11
4456.3369248862181848
 21
301.5049553181701185
 31
0.0
  0
LINE
  5
C50C
  8
0
 10
4456.3369248862181848
 20
301.4978767199701224
 30
0.0
 11
4456.3069162285182756
 21
301.4978767199701224
 31
0.0
  0
LINE
  5
C50D
  8
0
 10
4456.2956630798153128
 20
301.5147112447260724
 30
0.0
 11
4456.3085119793177
 21
301.5049553181701185
 31
0.0
  0
ARC
  5
C50E
  8
0
 10
4456.3069162285182756
 20
301.5065059361659223
 30
0.0
 40
0.0086292161958852
 50
232.8327875122652131
 51
270.0
  0
LINE
  5
C50F
  8
0
 10
4456.301702946218029
 20
301.4996295228701229
 30
0.0
 11
4456.2871087653238646
 21
301.5106939516156217
 31
0.0
  0
LINE
  5
C510
  8
0
 10
4456.3085119793177
 20
301.5049553181701185
 30
0.0
 11
4456.3085119793177
 21
301.5207619700523765
 31
0.0
  0
LINE
  5
C511
  8
0
 10
4456.3587313197976982
 20
301.4853286449700818
 30
0.0
 11
4456.3436135395077144
 21
301.4738511381131048
 31
0.0
  0
ARC
  5
C512
  8
0
 10
4456.3367974596458225
 20
301.4869698316675795
 30
0.0
 40
0.014783743276246
 50
270.4938597099359185
 51
297.4550358274207724
  0
LINE
  5
C513
  8
0
 10
4456.3085119793177
 20
301.4792652357700717
 30
0.0
 11
4456.3369248862181848
 21
301.4792652357700717
 31
0.0
  0
LINE
  5
C514
  8
0
 10
4456.3500305298512103
 20
301.4892161032154263
 30
0.0
 11
4456.3369248862181848
 21
301.4792652357700717
 31
0.0
  0
LINE
  5
C515
  8
0
 10
4456.3369248862181848
 20
301.4978767199701224
 30
0.0
 11
4456.3369248862181848
 21
301.4792652357700717
 31
0.0
  0
LINE
  5
C516
  8
0
 10
4456.3369248862181848
 20
301.4721866375700756
 30
0.0
 11
4456.3069162285182756
 21
301.4721866375700756
 31
0.0
  0
LINE
  5
C517
  8
0
 10
4456.2956630798153128
 20
301.4890211623260825
 30
0.0
 11
4456.3085119793177
 21
301.4792652357700717
 31
0.0
  0
ARC
  5
C518
  8
0
 10
4456.3069162285182756
 20
301.4808158537658755
 30
0.0
 40
0.0086292161958852
 50
232.8327875122652131
 51
270.0
  0
LINE
  5
C519
  8
0
 10
4456.301702946218029
 20
301.4739394404700761
 30
0.0
 11
4456.2871087653238646
 21
301.4850038692155749
 31
0.0
  0
LINE
  5
C51A
  8
0
 10
4456.3085119793177
 20
301.4792652357700717
 30
0.0
 11
4456.3085119793177
 21
301.4978767199701224
 31
0.0
  0
LINE
  5
C51B
  8
0
 10
4456.3587313197976982
 20
301.4596385625699781
 30
0.0
 11
4456.3436135395077144
 21
301.4481610557131148
 31
0.0
  0
ARC
  5
C51C
  8
0
 10
4456.3367974596458225
 20
301.4612797492675895
 30
0.0
 40
0.014783743276246
 50
270.4938597099359185
 51
297.4550358274207724
  0
LINE
  5
C51D
  8
0
 10
4456.3085119793177
 20
301.453575153370025
 30
0.0
 11
4456.3369248862181848
 21
301.453575153370025
 31
0.0
  0
LINE
  5
C51E
  8
0
 10
4456.3500305298512103
 20
301.4635260208153795
 30
0.0
 11
4456.3369248862181848
 21
301.453575153370025
 31
0.0
  0
LINE
  5
C51F
  8
0
 10
4456.3369248862181848
 20
301.4721866375700756
 30
0.0
 11
4456.3369248862181848
 21
301.453575153370025
 31
0.0
  0
LINE
  5
C520
  8
0
 10
4456.3369248862181848
 20
301.446496555169972
 30
0.0
 11
4456.3069162285182756
 21
301.446496555169972
 31
0.0
  0
LINE
  5
C521
  8
0
 10
4456.2956630798153128
 20
301.4633310799260926
 30
0.0
 11
4456.3085119793177
 21
301.453575153370025
 31
0.0
  0
ARC
  5
C522
  8
0
 10
4456.3069162285182756
 20
301.4551257713658856
 30
0.0
 40
0.0086292161958852
 50
232.8327875122652131
 51
270.0
  0
LINE
  5
C523
  8
0
 10
4456.301702946218029
 20
301.4482493580699725
 30
0.0
 11
4456.2871087653238646
 21
301.459313786815585
 31
0.0
  0
LINE
  5
C524
  8
0
 10
4456.3085119793177
 20
301.453575153370025
 30
0.0
 11
4456.3085119793177
 21
301.4721866375700756
 31
0.0
  0
LINE
  5
C525
  8
0
 10
4456.3587313197976982
 20
301.4339484801701019
 30
0.0
 11
4456.3436135395077144
 21
301.4224709733131249
 31
0.0
  0
ARC
  5
C526
  8
0
 10
4456.3367974596458225
 20
301.4355896668675996
 30
0.0
 40
0.014783743276246
 50
270.4938597099359185
 51
297.4550358274207724
  0
LINE
  5
C527
  8
0
 10
4456.3085119793177
 20
301.4278850709699782
 30
0.0
 11
4456.3369248862181848
 21
301.4278850709699782
 31
0.0
  0
LINE
  5
C528
  8
0
 10
4456.3500305298512103
 20
301.4378359384153896
 30
0.0
 11
4456.3369248862181848
 21
301.4278850709699782
 31
0.0
  0
LINE
  5
C529
  8
0
 10
4456.3369248862181848
 20
301.446496555169972
 30
0.0
 11
4456.3369248862181848
 21
301.4278850709699782
 31
0.0
  0
LINE
  5
C52A
  8
0
 10
4456.3369248862181848
 20
301.4208064727699821
 30
0.0
 11
4456.3069162285182756
 21
301.4208064727699821
 31
0.0
  0
LINE
  5
C52B
  8
0
 10
4456.2956630798153128
 20
301.4376409975261026
 30
0.0
 11
4456.3085119793177
 21
301.4278850709699782
 31
0.0
  0
ARC
  5
C52C
  8
0
 10
4456.3069162285182756
 20
301.4294356889660094
 30
0.0
 40
0.0086292161958852
 50
232.8327875122652131
 51
270.0
  0
LINE
  5
C52D
  8
0
 10
4456.301702946218029
 20
301.4225592756699825
 30
0.0
 11
4456.2871087653238646
 21
301.4336237044155951
 31
0.0
  0
LINE
  5
C52E
  8
0
 10
4456.3085119793177
 20
301.4278850709699782
 30
0.0
 11
4456.3085119793177
 21
301.446496555169972
 31
0.0
  0
LINE
  5
C52F
  8
0
 10
4456.3587313197976982
 20
301.408258397770112
 30
0.0
 11
4456.3436135395077144
 21
301.3967808909130781
 31
0.0
  0
ARC
  5
C530
  8
0
 10
4456.3367974596458225
 20
301.4098995844676097
 30
0.0
 40
0.014783743276246
 50
270.4938597099359185
 51
297.4550358274207724
  0
LINE
  5
C531
  8
0
 10
4456.3085119793177
 20
301.4021949885699883
 30
0.0
 11
4456.3369248862181848
 21
301.4021949885699883
 31
0.0
  0
LINE
  5
C532
  8
0
 10
4456.3500305298512103
 20
301.4121458560153997
 30
0.0
 11
4456.3369248862181848
 21
301.4021949885699883
 31
0.0
  0
LINE
  5
C533
  8
0
 10
4456.3369248862181848
 20
301.4208064727699821
 30
0.0
 11
4456.3369248862181848
 21
301.4021949885699883
 31
0.0
  0
LINE
  5
C534
  8
0
 10
4456.3369248862181848
 20
301.3951163903699921
 30
0.0
 11
4456.3069162285182756
 21
301.3951163903699921
 31
0.0
  0
LINE
  5
C535
  8
0
 10
4456.2956630798153128
 20
301.4119509151261127
 30
0.0
 11
4456.3085119793177
 21
301.4021949885699883
 31
0.0
  0
ARC
  5
C536
  8
0
 10
4456.3069162285182756
 20
301.4037456065659057
 30
0.0
 40
0.0086292161958852
 50
232.8327875122652131
 51
270.0
  0
LINE
  5
C537
  8
0
 10
4456.301702946218029
 20
301.3968691932701063
 30
0.0
 11
4456.2871087653238646
 21
301.4079336220157188
 31
0.0
  0
LINE
  5
C538
  8
0
 10
4456.3085119793177
 20
301.4021949885699883
 30
0.0
 11
4456.3085119793177
 21
301.4208064727699821
 31
0.0
  0
LINE
  5
C539
  8
0
 10
4456.3587313197976982
 20
301.382568315370122
 30
0.0
 11
4456.3436135395077144
 21
301.3710908085129745
 31
0.0
  0
ARC
  5
C53A
  8
0
 10
4456.3367974596458225
 20
301.3842095020676197
 30
0.0
 40
0.014783743276246
 50
270.4938597099359185
 51
297.4550358274207724
  0
LINE
  5
C53B
  8
0
 10
4456.3085119793177
 20
301.376504906170112
 30
0.0
 11
4456.3369248862181848
 21
301.376504906170112
 31
0.0
  0
LINE
  5
C53C
  8
0
 10
4456.3500305298512103
 20
301.3864557736154097
 30
0.0
 11
4456.3369248862181848
 21
301.376504906170112
 31
0.0
  0
LINE
  5
C53D
  8
0
 10
4456.3369248862181848
 20
301.3951163903699921
 30
0.0
 11
4456.3369248862181848
 21
301.376504906170112
 31
0.0
  0
LINE
  5
C53E
  8
0
 10
4456.3369248862181848
 20
301.3694263079701159
 30
0.0
 11
4456.3069162285182756
 21
301.3694263079701159
 31
0.0
  0
LINE
  5
C53F
  8
0
 10
4456.2956630798153128
 20
301.3862608327261228
 30
0.0
 11
4456.3085119793177
 21
301.376504906170112
 31
0.0
  0
ARC
  5
C540
  8
0
 10
4456.3069162285182756
 20
301.3780555241659158
 30
0.0
 40
0.0086292161958852
 50
232.8327875122652131
 51
270.0
  0
LINE
  5
C541
  8
0
 10
4456.301702946218029
 20
301.3711791108701163
 30
0.0
 11
4456.2871087653238646
 21
301.3822435396156152
 31
0.0
  0
LINE
  5
C542
  8
0
 10
4456.3085119793177
 20
301.376504906170112
 30
0.0
 11
4456.3085119793177
 21
301.3951163903699921
 31
0.0
  0
LINE
  5
C543
  8
0
 10
4456.3587313197976982
 20
301.3568782329700753
 30
0.0
 11
4456.3436135395077144
 21
301.3454007261130982
 31
0.0
  0
ARC
  5
C544
  8
0
 10
4456.3367974596458225
 20
301.3585194196675729
 30
0.0
 40
0.014783743276246
 50
270.4938597099359185
 51
297.4550358274207724
  0
LINE
  5
C545
  8
0
 10
4456.3085119793177
 20
301.3508148237701221
 30
0.0
 11
4456.3369248862181848
 21
301.3508148237701221
 31
0.0
  0
LINE
  5
C546
  8
0
 10
4456.3500305298512103
 20
301.3607656912153061
 30
0.0
 11
4456.3369248862181848
 21
301.3508148237701221
 31
0.0
  0
LINE
  5
C547
  8
0
 10
4456.3369248862181848
 20
301.3694263079701159
 30
0.0
 11
4456.3369248862181848
 21
301.3508148237701221
 31
0.0
  0
LINE
  5
C548
  8
0
 10
4456.3369248862181848
 20
301.343736225570126
 30
0.0
 11
4456.3069162285182756
 21
301.343736225570126
 31
0.0
  0
LINE
  5
C549
  8
0
 10
4456.2956630798153128
 20
301.360570750326076
 30
0.0
 11
4456.3085119793177
 21
301.3508148237701221
 31
0.0
  0
ARC
  5
C54A
  8
0
 10
4456.3069162285182756
 20
301.3523654417659259
 30
0.0
 40
0.0086292161958852
 50
232.8327875122652131
 51
270.0
  0
LINE
  5
C54B
  8
0
 10
4456.301702946218029
 20
301.3454890284701264
 30
0.0
 11
4456.2871087653238646
 21
301.3565534572156821
 31
0.0
  0
LINE
  5
C54C
  8
0
 10
4456.3085119793177
 20
301.3508148237701221
 30
0.0
 11
4456.3085119793177
 21
301.3694263079701159
 31
0.0
  0
LINE
  5
C54D
  8
0
 10
4456.3587313197976982
 20
301.3311881505699716
 30
0.0
 11
4456.3436135395077144
 21
301.3197106437131083
 31
0.0
  0
ARC
  5
C54E
  8
0
 10
4456.3367974596458225
 20
301.332829337267583
 30
0.0
 40
0.014783743276246
 50
270.4938597099359185
 51
297.4550358274207724
  0
LINE
  5
C54F
  8
0
 10
4456.3085119793177
 20
301.3251247413700185
 30
0.0
 11
4456.3369248862181848
 21
301.3251247413700185
 31
0.0
  0
LINE
  5
C550
  8
0
 10
4456.3500305298512103
 20
301.335075608815373
 30
0.0
 11
4456.3369248862181848
 21
301.3251247413700185
 31
0.0
  0
LINE
  5
C551
  8
0
 10
4456.3369248862181848
 20
301.343736225570126
 30
0.0
 11
4456.3369248862181848
 21
301.3251247413700185
 31
0.0
  0
LINE
  5
C552
  8
0
 10
4456.3369248862181848
 20
301.3180461431700223
 30
0.0
 11
4456.3069162285182756
 21
301.3180461431700223
 31
0.0
  0
LINE
  5
C553
  8
0
 10
4456.2956630798153128
 20
301.3348806679260861
 30
0.0
 11
4456.3085119793177
 21
301.3251247413700185
 31
0.0
  0
ARC
  5
C554
  8
0
 10
4456.3069162285182756
 20
301.3266753593658791
 30
0.0
 40
0.0086292161958852
 50
232.8327875122652131
 51
270.0
  0
LINE
  5
C555
  8
0
 10
4456.301702946218029
 20
301.3197989460700228
 30
0.0
 11
4456.2871087653238646
 21
301.3308633748155785
 31
0.0
  0
LINE
  5
C556
  8
0
 10
4456.3085119793177
 20
301.3251247413700185
 30
0.0
 11
4456.3085119793177
 21
301.343736225570126
 31
0.0
  0
LINE
  5
C557
  8
0
 10
4456.3587313197976982
 20
301.3054980681700954
 30
0.0
 11
4456.3436135395077144
 21
301.2940205613130047
 31
0.0
  0
ARC
  5
C558
  8
0
 10
4456.3367974596458225
 20
301.3071392548677068
 30
0.0
 40
0.014783743276246
 50
270.4938597099359185
 51
297.4550358274207724
  0
LINE
  5
C559
  8
0
 10
4456.3085119793177
 20
301.2994346589700854
 30
0.0
 11
4456.3369248862181848
 21
301.2994346589700854
 31
0.0
  0
LINE
  5
C55A
  8
0
 10
4456.3500305298512103
 20
301.3093855264153831
 30
0.0
 11
4456.3369248862181848
 21
301.2994346589700854
 31
0.0
  0
LINE
  5
C55B
  8
0
 10
4456.3369248862181848
 20
301.3180461431700223
 30
0.0
 11
4456.3369248862181848
 21
301.2994346589700854
 31
0.0
  0
LINE
  5
C55C
  8
0
 10
4456.3369248862181848
 20
301.2923560607699756
 30
0.0
 11
4456.3069162285182756
 21
301.2923560607699756
 31
0.0
  0
LINE
  5
C55D
  8
0
 10
4456.2956630798153128
 20
301.3091905855260961
 30
0.0
 11
4456.3085119793177
 21
301.2994346589700854
 31
0.0
  0
ARC
  5
C55E
  8
0
 10
4456.3069162285182756
 20
301.3009852769660029
 30
0.0
 40
0.0086292161958852
 50
232.8327875122652131
 51
270.0
  0
LINE
  5
C55F
  8
0
 10
4456.301702946218029
 20
301.294108863669976
 30
0.0
 11
4456.2871087653238646
 21
301.3051732924155885
 31
0.0
  0
LINE
  5
C560
  8
0
 10
4456.3085119793177
 20
301.2994346589700854
 30
0.0
 11
4456.3085119793177
 21
301.3180461431700223
 31
0.0
  0
LINE
  5
C561
  8
0
 10
4456.3020566294062519
 20
301.5195652648191071
 30
0.0
 11
4456.2924703070066244
 21
301.5122872730131007
 31
0.0
  0
ARC
  5
C562
  8
0
 10
4456.2856542271465514
 20
301.5254059665675754
 30
0.0
 40
0.014783743276246
 50
270.4938597099359185
 51
297.4550358274207724
  0
LINE
  5
C563
  8
0
 10
4456.2857816537180042
 20
301.5106227724700148
 30
0.0
 11
4456.2626484585452999
 21
301.5106227724700716
 31
0.0
  0
LINE
  5
C564
  8
0
 10
4456.3073273180916658
 20
301.4978767199701224
 30
0.0
 11
4456.2924703070066244
 21
301.4865971906131108
 31
0.0
  0
ARC
  5
C565
  8
0
 10
4456.2856542271465514
 20
301.4997158841675855
 30
0.0
 40
0.014783743276246
 50
270.4938597099359185
 51
297.4550358274207724
  0
LINE
  5
C566
  8
0
 10
4456.2573687468166099
 20
301.4920112882700778
 30
0.0
 11
4456.2857816537180042
 21
301.4920112882700778
 31
0.0
  0
LINE
  5
C567
  8
0
 10
4456.2987568276139427
 20
301.5018630925102912
 30
0.0
 11
4456.2857816537180042
 21
301.4920112882700778
 31
0.0
  0
LINE
  5
C568
  8
0
 10
4456.2857816537180042
 20
301.5106227724700148
 30
0.0
 11
4456.2857816537180042
 21
301.4920112882700778
 31
0.0
  0
LINE
  5
C569
  8
0
 10
4456.2857816537180042
 20
301.4849326900700817
 30
0.0
 11
4456.255772996018095
 21
301.4849326900700817
 31
0.0
  0
LINE
  5
C56A
  8
0
 10
4456.2445198473151322
 20
301.5017672148260885
 30
0.0
 11
4456.2573687468166099
 21
301.4920112882700778
 31
0.0
  0
ARC
  5
C56B
  8
0
 10
4456.255772996018095
 20
301.4935619062658816
 30
0.0
 40
0.0086292161958852
 50
232.8327875122652131
 51
270.0
  0
LINE
  5
C56C
  8
0
 10
4456.2505597137178484
 20
301.4866854929700821
 30
0.0
 11
4456.2359655328227745
 21
301.497749921715581
 31
0.0
  0
LINE
  5
C56D
  8
0
 10
4456.2573687468166099
 20
301.4920112882700778
 30
0.0
 11
4456.2573687468166099
 21
301.5092066658771728
 31
0.0
  0
LINE
  5
C56E
  8
0
 10
4456.3073273180916658
 20
301.4721866375700756
 30
0.0
 11
4456.2924703070066244
 21
301.4609071082130072
 31
0.0
  0
ARC
  5
C56F
  8
0
 10
4456.2856542271465514
 20
301.4740258017677093
 30
0.0
 40
0.014783743276246
 50
270.4938597099359185
 51
297.4550358274207724
  0
LINE
  5
C570
  8
0
 10
4456.2573687468166099
 20
301.4663212058699742
 30
0.0
 11
4456.2857816537180042
 21
301.4663212058699742
 31
0.0
  0
LINE
  5
C571
  8
0
 10
4456.2987568276139427
 20
301.4761730101103012
 30
0.0
 11
4456.2857816537180042
 21
301.4663212058699742
 31
0.0
  0
LINE
  5
C572
  8
0
 10
4456.2857816537180042
 20
301.4849326900700817
 30
0.0
 11
4456.2857816537180042
 21
301.4663212058699742
 31
0.0
  0
LINE
  5
C573
  8
0
 10
4456.2857816537180042
 20
301.459242607669978
 30
0.0
 11
4456.255772996018095
 21
301.459242607669978
 31
0.0
  0
LINE
  5
C574
  8
0
 10
4456.2445198473151322
 20
301.4760771324260986
 30
0.0
 11
4456.2573687468166099
 21
301.4663212058699742
 31
0.0
  0
ARC
  5
C575
  8
0
 10
4456.255772996018095
 20
301.4678718238660053
 30
0.0
 40
0.0086292161958852
 50
232.8327875122652131
 51
270.0
  0
LINE
  5
C576
  8
0
 10
4456.2505597137178484
 20
301.4609954105699785
 30
0.0
 11
4456.2359655328227745
 21
301.472059839315591
 31
0.0
  0
LINE
  5
C577
  8
0
 10
4456.2573687468166099
 20
301.4663212058699742
 30
0.0
 11
4456.2573687468166099
 21
301.4849326900700817
 31
0.0
  0
LINE
  5
C578
  8
0
 10
4456.3073273180916658
 20
301.446496555169972
 30
0.0
 11
4456.2924703070066244
 21
301.4352170258130741
 31
0.0
  0
ARC
  5
C579
  8
0
 10
4456.2856542271465514
 20
301.4483357193676056
 30
0.0
 40
0.014783743276246
 50
270.4938597099359185
 51
297.4550358274207724
  0
LINE
  5
C57A
  8
0
 10
4456.2573687468166099
 20
301.4406311234699842
 30
0.0
 11
4456.2857816537180042
 21
301.4406311234699842
 31
0.0
  0
LINE
  5
C57B
  8
0
 10
4456.2987568276139427
 20
301.4504829277103113
 30
0.0
 11
4456.2857816537180042
 21
301.4406311234699842
 31
0.0
  0
LINE
  5
C57C
  8
0
 10
4456.2857816537180042
 20
301.459242607669978
 30
0.0
 11
4456.2857816537180042
 21
301.4406311234699842
 31
0.0
  0
LINE
  5
C57D
  8
0
 10
4456.2857816537180042
 20
301.4335525252699881
 30
0.0
 11
4456.255772996018095
 21
301.4335525252699881
 31
0.0
  0
LINE
  5
C57E
  8
0
 10
4456.2445198473151322
 20
301.4503870500261087
 30
0.0
 11
4456.2573687468166099
 21
301.4406311234699842
 31
0.0
  0
ARC
  5
C57F
  8
0
 10
4456.255772996018095
 20
301.4421817414659017
 30
0.0
 40
0.0086292161958852
 50
232.8327875122652131
 51
270.0
  0
LINE
  5
C580
  8
0
 10
4456.2505597137178484
 20
301.4353053281701023
 30
0.0
 11
4456.2359655328227745
 21
301.4463697569157148
 31
0.0
  0
LINE
  5
C581
  8
0
 10
4456.2573687468166099
 20
301.4406311234699842
 30
0.0
 11
4456.2573687468166099
 21
301.459242607669978
 31
0.0
  0
LINE
  5
C582
  8
0
 10
4456.3073273180916658
 20
301.4208064727699821
 30
0.0
 11
4456.2924703070066244
 21
301.4095269434130842
 31
0.0
  0
ARC
  5
C583
  8
0
 10
4456.2856542271465514
 20
301.4226456369676157
 30
0.0
 40
0.014783743276246
 50
270.4938597099359185
 51
297.4550358274207724
  0
LINE
  5
C584
  8
0
 10
4456.2573687468166099
 20
301.414941041070108
 30
0.0
 11
4456.2857816537180042
 21
301.414941041070108
 31
0.0
  0
LINE
  5
C585
  8
0
 10
4456.2987568276139427
 20
301.4247928453103214
 30
0.0
 11
4456.2857816537180042
 21
301.414941041070108
 31
0.0
  0
LINE
  5
C586
  8
0
 10
4456.2857816537180042
 20
301.4335525252699881
 30
0.0
 11
4456.2857816537180042
 21
301.414941041070108
 31
0.0
  0
LINE
  5
C587
  8
0
 10
4456.2857816537180042
 20
301.4078624428701119
 30
0.0
 11
4456.255772996018095
 21
301.4078624428701119
 31
0.0
  0
LINE
  5
C588
  8
0
 10
4456.2445198473151322
 20
301.4246969676261187
 30
0.0
 11
4456.2573687468166099
 21
301.414941041070108
 31
0.0
  0
ARC
  5
C589
  8
0
 10
4456.255772996018095
 20
301.4164916590660255
 30
0.0
 40
0.0086292161958852
 50
232.8327875122652131
 51
270.0
  0
LINE
  5
C58A
  8
0
 10
4456.2505597137178484
 20
301.4096152457701123
 30
0.0
 11
4456.2359655328227745
 21
301.4206796745157249
 31
0.0
  0
LINE
  5
C58B
  8
0
 10
4456.2573687468166099
 20
301.414941041070108
 30
0.0
 11
4456.2573687468166099
 21
301.4335525252699881
 31
0.0
  0
LINE
  5
C58C
  8
0
 10
4456.3073273180916658
 20
301.3951163903699921
 30
0.0
 11
4456.2924703070066244
 21
301.3838368610130942
 31
0.0
  0
ARC
  5
C58D
  8
0
 10
4456.2856542271465514
 20
301.3969555545676258
 30
0.0
 40
0.014783743276246
 50
270.4938597099359185
 51
297.4550358274207724
  0
LINE
  5
C58E
  8
0
 10
4456.2573687468166099
 20
301.3892509586701181
 30
0.0
 11
4456.2857816537180042
 21
301.3892509586701181
 31
0.0
  0
LINE
  5
C58F
  8
0
 10
4456.2987568276139427
 20
301.3991027629102746
 30
0.0
 11
4456.2857816537180042
 21
301.3892509586701181
 31
0.0
  0
LINE
  5
C590
  8
0
 10
4456.2857816537180042
 20
301.4078624428701119
 30
0.0
 11
4456.2857816537180042
 21
301.3892509586701181
 31
0.0
  0
LINE
  5
C591
  8
0
 10
4456.2857816537180042
 20
301.3821723604701219
 30
0.0
 11
4456.255772996018095
 21
301.3821723604701219
 31
0.0
  0
LINE
  5
C592
  8
0
 10
4456.2445198473151322
 20
301.399006885226072
 30
0.0
 11
4456.2573687468166099
 21
301.3892509586701181
 31
0.0
  0
ARC
  5
C593
  8
0
 10
4456.255772996018095
 20
301.3908015766659219
 30
0.0
 40
0.0086292161958852
 50
232.8327875122652131
 51
270.0
  0
LINE
  5
C594
  8
0
 10
4456.2505597137178484
 20
301.3839251633701224
 30
0.0
 11
4456.2359655328227745
 21
301.3949895921156212
 31
0.0
  0
LINE
  5
C595
  8
0
 10
4456.2573687468166099
 20
301.3892509586701181
 30
0.0
 11
4456.2573687468166099
 21
301.4078624428701119
 31
0.0
  0
LINE
  5
C596
  8
0
 10
4456.3073273180916658
 20
301.3694263079701159
 30
0.0
 11
4456.2924703070066244
 21
301.3581467786131043
 31
0.0
  0
ARC
  5
C597
  8
0
 10
4456.2856542271465514
 20
301.371265472167579
 30
0.0
 40
0.014783743276246
 50
270.4938597099359185
 51
297.4550358274207724
  0
LINE
  5
C598
  8
0
 10
4456.2573687468166099
 20
301.3635608762701281
 30
0.0
 11
4456.2857816537180042
 21
301.3635608762701281
 31
0.0
  0
LINE
  5
C599
  8
0
 10
4456.2987568276139427
 20
301.3734126805103983
 30
0.0
 11
4456.2857816537180042
 21
301.3635608762701281
 31
0.0
  0
LINE
  5
C59A
  8
0
 10
4456.2857816537180042
 20
301.3821723604701219
 30
0.0
 11
4456.2857816537180042
 21
301.3635608762701281
 31
0.0
  0
LINE
  5
C59B
  8
0
 10
4456.2857816537180042
 20
301.3564822780700752
 30
0.0
 11
4456.255772996018095
 21
301.3564822780700752
 31
0.0
  0
LINE
  5
C59C
  8
0
 10
4456.2445198473151322
 20
301.373316802826082
 30
0.0
 11
4456.2573687468166099
 21
301.3635608762701281
 31
0.0
  0
ARC
  5
C59D
  8
0
 10
4456.255772996018095
 20
301.3651114942658751
 30
0.0
 40
0.0086292161958852
 50
232.8327875122652131
 51
270.0
  0
LINE
  5
C59E
  8
0
 10
4456.2505597137178484
 20
301.3582350809700756
 30
0.0
 11
4456.2359655328227745
 21
301.3692995097155745
 31
0.0
  0
LINE
  5
C59F
  8
0
 10
4456.2573687468166099
 20
301.3635608762701281
 30
0.0
 11
4456.2573687468166099
 21
301.3821723604701219
 31
0.0
  0
LINE
  5
C5A0
  8
0
 10
4456.3073273180916658
 20
301.343736225570126
 30
0.0
 11
4456.2924703070066244
 21
301.3324566962130007
 31
0.0
  0
ARC
  5
C5A1
  8
0
 10
4456.2856542271465514
 20
301.3455753897677027
 30
0.0
 40
0.014783743276246
 50
270.4938597099359185
 51
297.4550358274207724
  0
LINE
  5
C5A2
  8
0
 10
4456.2573687468166099
 20
301.3378707938700245
 30
0.0
 11
4456.2857816537180042
 21
301.3378707938700245
 31
0.0
  0
LINE
  5
C5A3
  8
0
 10
4456.2987568276139427
 20
301.3477225981102947
 30
0.0
 11
4456.2857816537180042
 21
301.3378707938700245
 31
0.0
  0
LINE
  5
C5A4
  8
0
 10
4456.2857816537180042
 20
301.3564822780700752
 30
0.0
 11
4456.2857816537180042
 21
301.3378707938700245
 31
0.0
  0
LINE
  5
C5A5
  8
0
 10
4456.2857816537180042
 20
301.3307921956700284
 30
0.0
 11
4456.255772996018095
 21
301.3307921956700284
 31
0.0
  0
LINE
  5
C5A6
  8
0
 10
4456.2445198473151322
 20
301.3476267204260921
 30
0.0
 11
4456.2573687468166099
 21
301.3378707938700245
 31
0.0
  0
ARC
  5
C5A7
  8
0
 10
4456.255772996018095
 20
301.3394214118659988
 30
0.0
 40
0.0086292161958852
 50
232.8327875122652131
 51
270.0
  0
LINE
  5
C5A8
  8
0
 10
4456.2505597137178484
 20
301.332544998569972
 30
0.0
 11
4456.2359655328227745
 21
301.3436094273155845
 31
0.0
  0
LINE
  5
C5A9
  8
0
 10
4456.2573687468166099
 20
301.3378707938700245
 30
0.0
 11
4456.2573687468166099
 21
301.3564822780700752
 31
0.0
  0
LINE
  5
C5AA
  8
0
 10
4456.3073273180916658
 20
301.3180461431700223
 30
0.0
 11
4456.2924703070066244
 21
301.3067666138131244
 31
0.0
  0
ARC
  5
C5AB
  8
0
 10
4456.2856542271465514
 20
301.3198853073675991
 30
0.0
 40
0.014783743276246
 50
270.4938597099359185
 51
297.4550358274207724
  0
LINE
  5
C5AC
  8
0
 10
4456.2573687468166099
 20
301.3121807114699777
 30
0.0
 11
4456.2857816537180042
 21
301.3121807114699777
 31
0.0
  0
LINE
  5
C5AD
  8
0
 10
4456.2987568276139427
 20
301.3220325157103048
 30
0.0
 11
4456.2857816537180042
 21
301.3121807114699777
 31
0.0
  0
LINE
  5
C5AE
  8
0
 10
4456.2857816537180042
 20
301.3307921956700284
 30
0.0
 11
4456.2857816537180042
 21
301.3121807114699777
 31
0.0
  0
LINE
  5
C5AF
  8
0
 10
4456.2857816537180042
 20
301.3051021132699816
 30
0.0
 11
4456.255772996018095
 21
301.3051021132699816
 31
0.0
  0
LINE
  5
C5B0
  8
0
 10
4456.2445198473151322
 20
301.3219366380261022
 30
0.0
 11
4456.2573687468166099
 21
301.3121807114699777
 31
0.0
  0
ARC
  5
C5B1
  8
0
 10
4456.255772996018095
 20
301.3137313294658952
 30
0.0
 40
0.0086292161958852
 50
232.8327875122652131
 51
270.0
  0
LINE
  5
C5B2
  8
0
 10
4456.2505597137178484
 20
301.3068549161700957
 30
0.0
 11
4456.2359655328227745
 21
301.3179193449157083
 31
0.0
  0
LINE
  5
C5B3
  8
0
 10
4456.2573687468166099
 20
301.3121807114699777
 30
0.0
 11
4456.2573687468166099
 21
301.3307921956700284
 31
0.0
  0
LINE
  5
C5B4
  8
0
 10
4456.3073273180916658
 20
301.2923560607699756
 30
0.0
 11
4456.2924703070066244
 21
301.2810765314130776
 31
0.0
  0
ARC
  5
C5B5
  8
0
 10
4456.2905434229360253
 20
301.2854775590333816
 30
0.0
 40
0.0048043653418091
 50
167.0967385579542963
 51
293.6450507701688935
  0
LINE
  5
C5B6
  8
0
 10
4456.2987568276139427
 20
301.2963424333103148
 30
0.0
 11
4456.2857816537180042
 21
301.2864906290701015
 31
0.0
  0
LINE
  5
C5B7
  8
0
 10
4456.2857816537180042
 20
301.3051021132699816
 30
0.0
 11
4456.2857816537180042
 21
301.2864906290701015
 31
0.0
  0
LINE
  5
C5B8
  8
0
 10
4456.2525594053549867
 20
301.5078708941209129
 30
0.0
 11
4456.2413270745073532
 21
301.4993432431130032
 31
0.0
  0
ARC
  5
C5B9
  8
0
 10
4456.2345109946463708
 20
301.5124619366677052
 30
0.0
 40
0.014783743276246
 50
270.4938597099359185
 51
297.4550358274207724
  0
LINE
  5
C5BA
  8
0
 10
4456.2346384212169141
 20
301.497678742569974
 30
0.0
 11
4456.2203977835333717
 21
301.497678742569974
 31
0.0
  0
LINE
  5
C5BB
  8
0
 10
4456.2561840855923947
 20
301.4849326900700817
 30
0.0
 11
4456.2413270745073532
 21
301.4736531607131269
 31
0.0
  0
ARC
  5
C5BC
  8
0
 10
4456.2345109946463708
 20
301.4867718542677153
 30
0.0
 40
0.014783743276246
 50
270.4938597099359185
 51
297.4550358274207724
  0
LINE
  5
C5BD
  8
0
 10
4456.2062255143182483
 20
301.4790672583699802
 30
0.0
 11
4456.2346384212169141
 21
301.4790672583699802
 31
0.0
  0
LINE
  5
C5BE
  8
0
 10
4456.2476135951128526
 20
301.4889190626103073
 30
0.0
 11
4456.2346384212169141
 21
301.4790672583699802
 31
0.0
  0
LINE
  5
C5BF
  8
0
 10
4456.2346384212169141
 20
301.497678742569974
 30
0.0
 11
4456.2346384212169141
 21
301.4790672583699802
 31
0.0
  0
LINE
  5
C5C0
  8
0
 10
4456.2346384212169141
 20
301.4719886601699841
 30
0.0
 11
4456.2046297635179144
 21
301.4719886601699841
 31
0.0
  0
LINE
  5
C5C1
  8
0
 10
4456.1956431421986053
 20
301.4871022535197085
 30
0.0
 11
4456.2062255143182483
 21
301.4790672583699802
 31
0.0
  0
ARC
  5
C5C2
  8
0
 10
4456.2046297635179144
 20
301.4806178763658977
 30
0.0
 40
0.0086292161958852
 50
232.8327875122652131
 51
270.0
  0
LINE
  5
C5C3
  8
0
 10
4456.1994164812176678
 20
301.4737414630700982
 30
0.0
 11
4456.1873645400728492
 21
301.4828785187916083
 31
0.0
  0
LINE
  5
C5C4
  8
0
 10
4456.2062255143182483
 20
301.4790672583699802
 30
0.0
 11
4456.2062255143182483
 21
301.4919869460778159
 31
0.0
  0
LINE
  5
C5C5
  8
0
 10
4456.2561840855923947
 20
301.459242607669978
 30
0.0
 11
4456.2413270745073532
 21
301.4479630783130801
 31
0.0
  0
ARC
  5
C5C6
  8
0
 10
4456.2345109946463708
 20
301.4610817718676117
 30
0.0
 40
0.014783743276246
 50
270.4938597099359185
 51
297.4550358274207724
  0
LINE
  5
C5C7
  8
0
 10
4456.2062255143182483
 20
301.453377175970104
 30
0.0
 11
4456.2346384212169141
 21
301.453377175970104
 31
0.0
  0
LINE
  5
C5C8
  8
0
 10
4456.2476135951128526
 20
301.4632289802103173
 30
0.0
 11
4456.2346384212169141
 21
301.453377175970104
 31
0.0
  0
LINE
  5
C5C9
  8
0
 10
4456.2346384212169141
 20
301.4719886601699841
 30
0.0
 11
4456.2346384212169141
 21
301.453377175970104
 31
0.0
  0
LINE
  5
C5CA
  8
0
 10
4456.2346384212169141
 20
301.4462985777701078
 30
0.0
 11
4456.2046297635179144
 21
301.4462985777701078
 31
0.0
  0
LINE
  5
C5CB
  8
0
 10
4456.1933766148149516
 20
301.4631331025261147
 30
0.0
 11
4456.2062255143182483
 21
301.453377175970104
 31
0.0
  0
ARC
  5
C5CC
  8
0
 10
4456.2046297635179144
 20
301.4549277939659078
 30
0.0
 40
0.0086292161958852
 50
232.8327875122652131
 51
270.0
  0
LINE
  5
C5CD
  8
0
 10
4456.1994164812176678
 20
301.4480513806701083
 30
0.0
 11
4456.1848223003253224
 21
301.4591158094157208
 31
0.0
  0
LINE
  5
C5CE
  8
0
 10
4456.2062255143182483
 20
301.453377175970104
 30
0.0
 11
4456.2062255143182483
 21
301.4719886601699841
 31
0.0
  0
LINE
  5
C5CF
  8
0
 10
4456.2561840855923947
 20
301.4335525252699881
 30
0.0
 11
4456.2413270745073532
 21
301.4222729959130902
 31
0.0
  0
ARC
  5
C5D0
  8
0
 10
4456.2345109946463708
 20
301.4353916894676217
 30
0.0
 40
0.014783743276246
 50
270.4938597099359185
 51
297.4550358274207724
  0
LINE
  5
C5D1
  8
0
 10
4456.2062255143182483
 20
301.427687093570114
 30
0.0
 11
4456.2346384212169141
 21
301.427687093570114
 31
0.0
  0
LINE
  5
C5D2
  8
0
 10
4456.2476135951128526
 20
301.4375388978103274
 30
0.0
 11
4456.2346384212169141
 21
301.427687093570114
 31
0.0
  0
LINE
  5
C5D3
  8
0
 10
4456.2346384212169141
 20
301.4462985777701078
 30
0.0
 11
4456.2346384212169141
 21
301.427687093570114
 31
0.0
  0
LINE
  5
C5D4
  8
0
 10
4456.2346384212169141
 20
301.4206084953701179
 30
0.0
 11
4456.2046297635179144
 21
301.4206084953701179
 31
0.0
  0
LINE
  5
C5D5
  8
0
 10
4456.1933766148149516
 20
301.4374430201261248
 30
0.0
 11
4456.2062255143182483
 21
301.427687093570114
 31
0.0
  0
ARC
  5
C5D6
  8
0
 10
4456.2046297635179144
 20
301.4292377115659178
 30
0.0
 40
0.0086292161958852
 50
232.8327875122652131
 51
270.0
  0
LINE
  5
C5D7
  8
0
 10
4456.1994164812176678
 20
301.4223612982700047
 30
0.0
 11
4456.1848223003253224
 21
301.4334257270156741
 31
0.0
  0
LINE
  5
C5D8
  8
0
 10
4456.2062255143182483
 20
301.427687093570114
 30
0.0
 11
4456.2062255143182483
 21
301.4462985777701078
 31
0.0
  0
LINE
  5
C5D9
  8
0
 10
4456.2561840855923947
 20
301.4078624428701119
 30
0.0
 11
4456.2413270745073532
 21
301.3965829135131003
 31
0.0
  0
ARC
  5
C5DA
  8
0
 10
4456.2345109946463708
 20
301.409701607067575
 30
0.0
 40
0.014783743276246
 50
270.4938597099359185
 51
297.4550358274207724
  0
LINE
  5
C5DB
  8
0
 10
4456.2062255143182483
 20
301.4019970111700104
 30
0.0
 11
4456.2346384212169141
 21
301.4019970111700104
 31
0.0
  0
LINE
  5
C5DC
  8
0
 10
4456.2476135951128526
 20
301.4118488154102806
 30
0.0
 11
4456.2346384212169141
 21
301.4019970111700104
 31
0.0
  0
LINE
  5
C5DD
  8
0
 10
4456.2346384212169141
 20
301.4206084953701179
 30
0.0
 11
4456.2346384212169141
 21
301.4019970111700104
 31
0.0
  0
LINE
  5
C5DE
  8
0
 10
4456.2346384212169141
 20
301.394918412970128
 30
0.0
 11
4456.2046297635179144
 21
301.394918412970128
 31
0.0
  0
LINE
  5
C5DF
  8
0
 10
4456.1933766148149516
 20
301.411752937726078
 30
0.0
 11
4456.2062255143182483
 21
301.4019970111700104
 31
0.0
  0
ARC
  5
C5E0
  8
0
 10
4456.2046297635179144
 20
301.4035476291659279
 30
0.0
 40
0.0086292161958852
 50
232.8327875122652131
 51
270.0
  0
LINE
  5
C5E1
  8
0
 10
4456.1994164812176678
 20
301.3966712158700716
 30
0.0
 11
4456.1848223003253224
 21
301.4077356446156273
 31
0.0
  0
LINE
  5
C5E2
  8
0
 10
4456.2062255143182483
 20
301.4019970111700104
 30
0.0
 11
4456.2062255143182483
 21
301.4206084953701179
 31
0.0
  0
LINE
  5
C5E3
  8
0
 10
4456.2561840855923947
 20
301.3821723604701219
 30
0.0
 11
4456.2413270745073532
 21
301.3708928311129966
 31
0.0
  0
ARC
  5
C5E4
  8
0
 10
4456.2345109946463708
 20
301.384011524667585
 30
0.0
 40
0.014783743276246
 50
270.4938597099359185
 51
297.4550358274207724
  0
LINE
  5
C5E5
  8
0
 10
4456.2062255143182483
 20
301.3763069287700773
 30
0.0
 11
4456.2346384212169141
 21
301.3763069287700773
 31
0.0
  0
LINE
  5
C5E6
  8
0
 10
4456.2476135951128526
 20
301.3861587330102907
 30
0.0
 11
4456.2346384212169141
 21
301.3763069287700773
 31
0.0
  0
LINE
  5
C5E7
  8
0
 10
4456.2346384212169141
 20
301.394918412970128
 30
0.0
 11
4456.2346384212169141
 21
301.3763069287700773
 31
0.0
  0
LINE
  5
C5E8
  8
0
 10
4456.2346384212169141
 20
301.3692283305700812
 30
0.0
 11
4456.2046297635179144
 21
301.3692283305700812
 31
0.0
  0
LINE
  5
C5E9
  8
0
 10
4456.1933766148149516
 20
301.3860628553260881
 30
0.0
 11
4456.2062255143182483
 21
301.3763069287700773
 31
0.0
  0
ARC
  5
C5EA
  8
0
 10
4456.2046297635179144
 20
301.3778575467659948
 30
0.0
 40
0.0086292161958852
 50
232.8327875122652131
 51
270.0
  0
LINE
  5
C5EB
  8
0
 10
4456.1994164812176678
 20
301.3709811334700817
 30
0.0
 11
4456.1848223003253224
 21
301.3820455622155805
 31
0.0
  0
LINE
  5
C5EC
  8
0
 10
4456.2062255143182483
 20
301.3763069287700773
 30
0.0
 11
4456.2062255143182483
 21
301.394918412970128
 31
0.0
  0
LINE
  5
C5ED
  8
0
 10
4456.2561840855923947
 20
301.3564822780700752
 30
0.0
 11
4456.2413270745073532
 21
301.3452027487131204
 31
0.0
  0
ARC
  5
C5EE
  8
0
 10
4456.2345109946463708
 20
301.3583214422677088
 30
0.0
 40
0.014783743276246
 50
270.4938597099359185
 51
297.4550358274207724
  0
LINE
  5
C5EF
  8
0
 10
4456.2062255143182483
 20
301.3506168463699737
 30
0.0
 11
4456.2346384212169141
 21
301.3506168463699737
 31
0.0
  0
LINE
  5
C5F0
  8
0
 10
4456.2476135951128526
 20
301.3604686506103008
 30
0.0
 11
4456.2346384212169141
 21
301.3506168463699737
 31
0.0
  0
LINE
  5
C5F1
  8
0
 10
4456.2346384212169141
 20
301.3692283305700812
 30
0.0
 11
4456.2346384212169141
 21
301.3506168463699737
 31
0.0
  0
LINE
  5
C5F2
  8
0
 10
4456.2346384212169141
 20
301.3435382481699776
 30
0.0
 11
4456.2046297635179144
 21
301.3435382481699776
 31
0.0
  0
LINE
  5
C5F3
  8
0
 10
4456.1933766148149516
 20
301.3603727729260982
 30
0.0
 11
4456.2062255143182483
 21
301.3506168463699737
 31
0.0
  0
ARC
  5
C5F4
  8
0
 10
4456.2046297635179144
 20
301.3521674643658912
 30
0.0
 40
0.0086292161958852
 50
232.8327875122652131
 51
270.0
  0
LINE
  5
C5F5
  8
0
 10
4456.1994164812176678
 20
301.3452910510700917
 30
0.0
 11
4456.1848223003253224
 21
301.3563554798157043
 31
0.0
  0
LINE
  5
C5F6
  8
0
 10
4456.2062255143182483
 20
301.3506168463699737
 30
0.0
 11
4456.2062255143182483
 21
301.3692283305700812
 31
0.0
  0
LINE
  5
C5F7
  8
0
 10
4456.2561840855923947
 20
301.3307921956700284
 30
0.0
 11
4456.2413270745073532
 21
301.3195126663130736
 31
0.0
  0
ARC
  5
C5F8
  8
0
 10
4456.2345109946463708
 20
301.3326313598676052
 30
0.0
 40
0.014783743276246
 50
270.4938597099359185
 51
297.4550358274207724
  0
LINE
  5
C5F9
  8
0
 10
4456.2062255143182483
 20
301.3249267639700975
 30
0.0
 11
4456.2346384212169141
 21
301.3249267639700975
 31
0.0
  0
LINE
  5
C5FA
  8
0
 10
4456.2476135951128526
 20
301.3347785682103108
 30
0.0
 11
4456.2346384212169141
 21
301.3249267639700975
 31
0.0
  0
LINE
  5
C5FB
  8
0
 10
4456.2346384212169141
 20
301.3435382481699776
 30
0.0
 11
4456.2346384212169141
 21
301.3249267639700975
 31
0.0
  0
LINE
  5
C5FC
  8
0
 10
4456.2346384212169141
 20
301.3178481657699876
 30
0.0
 11
4456.2046297635179144
 21
301.3178481657699876
 31
0.0
  0
LINE
  5
C5FD
  8
0
 10
4456.1933766148149516
 20
301.3346826905261082
 30
0.0
 11
4456.2062255143182483
 21
301.3249267639700975
 31
0.0
  0
ARC
  5
C5FE
  8
0
 10
4456.2046297635179144
 20
301.3264773819660149
 30
0.0
 40
0.0086292161958852
 50
232.8327875122652131
 51
270.0
  0
LINE
  5
C5FF
  8
0
 10
4456.1994164812176678
 20
301.3196009686699881
 30
0.0
 11
4456.1848223003253224
 21
301.3306653974157143
 31
0.0
  0
LINE
  5
C600
  8
0
 10
4456.2062255143182483
 20
301.3249267639700975
 30
0.0
 11
4456.2062255143182483
 21
301.3435382481699776
 31
0.0
  0
LINE
  5
C601
  8
0
 10
4456.2561840855923947
 20
301.3051021132699816
 30
0.0
 11
4456.2413270745073532
 21
301.2938225839130837
 31
0.0
  0
ARC
  5
C602
  8
0
 10
4456.2400932474229194
 20
301.2991369739315246
 30
0.0
 40
0.0054557373968039
 50
178.9528189277689876
 51
283.0706416627496083
  0
LINE
  5
C603
  8
0
 10
4456.2476135951128526
 20
301.3090884858103209
 30
0.0
 11
4456.2346384212169141
 21
301.2992366815701075
 31
0.0
  0
LINE
  5
C604
  8
0
 10
4456.2346384212169141
 20
301.3178481657699876
 30
0.0
 11
4456.2346384212169141
 21
301.2992366815701075
 31
0.0
  0
LINE
  5
C605
  8
0
 10
4456.2050408530922141
 20
301.4719886601699841
 30
0.0
 11
4456.1901838420080821
 21
301.4607091308129725
 31
0.0
  0
ARC
  5
C606
  8
0
 10
4456.1833677621461902
 20
301.4738278243676177
 30
0.0
 40
0.014783743276246
 50
270.4938597099359185
 51
297.4550358274207724
  0
LINE
  5
C607
  8
0
 10
4456.1600039107061093
 20
301.46612322847011
 30
0.0
 11
4456.1834951887167335
 21
301.46612322847011
 31
0.0
  0
LINE
  5
C608
  8
0
 10
4456.1964703626135815
 20
301.4759750327103234
 30
0.0
 11
4456.1834951887167335
 21
301.46612322847011
 31
0.0
  0
LINE
  5
C609
  8
0
 10
4456.1834951887167335
 20
301.4807773051363142
 30
0.0
 11
4456.1834951887167335
 21
301.46612322847011
 31
0.0
  0
LINE
  5
C60A
  8
0
 10
4456.1834951887167335
 20
301.4590446302701139
 30
0.0
 11
4456.1534865310168243
 21
301.4590446302701139
 31
0.0
  0
ARC
  5
C60B
  8
0
 10
4456.1534865310168243
 20
301.4676738464659138
 30
0.0
 40
0.0086292161958852
 50
252.3549206877034123
 51
270.0
  0
LINE
  5
C60C
  8
0
 10
4456.2050408530922141
 20
301.4462985777701078
 30
0.0
 11
4456.1901838420080821
 21
301.4350190484129826
 31
0.0
  0
ARC
  5
C60D
  8
0
 10
4456.1833677621461902
 20
301.4481377419676278
 30
0.0
 40
0.014783743276246
 50
270.4938597099359185
 51
297.4550358274207724
  0
LINE
  5
C60E
  8
0
 10
4456.1550822818180677
 20
301.4404331460700064
 30
0.0
 11
4456.1834951887167335
 21
301.4404331460700064
 31
0.0
  0
LINE
  5
C60F
  8
0
 10
4456.1964703626135815
 20
301.4502849503102766
 30
0.0
 11
4456.1834951887167335
 21
301.4404331460700064
 31
0.0
  0
LINE
  5
C610
  8
0
 10
4456.1834951887167335
 20
301.4590446302701139
 30
0.0
 11
4456.1834951887167335
 21
301.4404331460700064
 31
0.0
  0
LINE
  5
C611
  8
0
 10
4456.1834951887167335
 20
301.433354547870124
 30
0.0
 11
4456.1534865310168243
 21
301.433354547870124
 31
0.0
  0
LINE
  5
C612
  8
0
 10
4456.1422333823811641
 20
301.4501890725761086
 30
0.0
 11
4456.1550822818180677
 21
301.4404331460700064
 31
0.0
  0
ARC
  5
C613
  8
0
 10
4456.1534865310168243
 20
301.4419837640659239
 30
0.0
 40
0.0086292161958852
 50
232.8327875122652131
 51
270.0
  0
LINE
  5
C614
  8
0
 10
4456.1482732487183966
 20
301.4351073507701244
 30
0.0
 11
4456.1343002199282637
 21
301.4457008594105218
 31
0.0
  0
LINE
  5
C615
  8
0
 10
4456.1550822818180677
 20
301.4404331460700064
 30
0.0
 11
4456.1550822818180677
 21
301.4590446302701139
 31
0.0
  0
LINE
  5
C616
  8
0
 10
4456.2050408530922141
 20
301.4206084953701179
 30
0.0
 11
4456.1901838420080821
 21
301.4093289660129926
 31
0.0
  0
ARC
  5
C617
  8
0
 10
4456.1833677621461902
 20
301.422447659567581
 30
0.0
 40
0.014783743276246
 50
270.4938597099359185
 51
297.4550358274207724
  0
LINE
  5
C618
  8
0
 10
4456.1550822818180677
 20
301.4147430636700165
 30
0.0
 11
4456.1834951887167335
 21
301.4147430636700165
 31
0.0
  0
LINE
  5
C619
  8
0
 10
4456.1963398929428877
 20
301.4244958047552814
 30
0.0
 11
4456.1834951887167335
 21
301.4147430636700165
 31
0.0
  0
LINE
  5
C61A
  8
0
 10
4456.1834951887167335
 20
301.433354547870124
 30
0.0
 11
4456.1834951887167335
 21
301.4147430636700165
 31
0.0
  0
LINE
  5
C61B
  8
0
 10
4456.1834951887167335
 20
301.4076644654700203
 30
0.0
 11
4456.1534865310168243
 21
301.4076644654700203
 31
0.0
  0
LINE
  5
C61C
  8
0
 10
4456.1422333823811641
 20
301.4244989901761187
 30
0.0
 11
4456.1550822818180677
 21
301.4147430636700165
 31
0.0
  0
ARC
  5
C61D
  8
0
 10
4456.1534865310168243
 20
301.4162936816659908
 30
0.0
 40
0.0086292161958852
 50
232.8327875122652131
 51
270.0
  0
LINE
  5
C61E
  8
0
 10
4456.1482732487183966
 20
301.4094172683700208
 30
0.0
 11
4456.1336790679397382
 21
301.420481697027185
 31
0.0
  0
LINE
  5
C61F
  8
0
 10
4456.1550822818180677
 20
301.4147430636700165
 30
0.0
 11
4456.1550822818180677
 21
301.433354547870124
 31
0.0
  0
LINE
  5
C620
  8
0
 10
4456.2050408530922141
 20
301.394918412970128
 30
0.0
 11
4456.1901838420080821
 21
301.3836388836131164
 31
0.0
  0
ARC
  5
C621
  8
0
 10
4456.1833677621461902
 20
301.3967575771677048
 30
0.0
 40
0.014783743276246
 50
270.4938597099359185
 51
297.4550358274207724
  0
LINE
  5
C622
  8
0
 10
4456.1550822818180677
 20
301.3890529812700834
 30
0.0
 11
4456.1834951887167335
 21
301.3890529812700834
 31
0.0
  0
LINE
  5
C623
  8
0
 10
4456.1964703626135815
 20
301.3989047855102967
 30
0.0
 11
4456.1834951887167335
 21
301.3890529812700834
 31
0.0
  0
LINE
  5
C624
  8
0
 10
4456.1834951887167335
 20
301.4076644654700203
 30
0.0
 11
4456.1834951887167335
 21
301.3890529812700834
 31
0.0
  0
LINE
  5
C625
  8
0
 10
4456.1834951887167335
 20
301.3819743830699736
 30
0.0
 11
4456.1534865310168243
 21
301.3819743830699736
 31
0.0
  0
LINE
  5
C626
  8
0
 10
4456.1422333823811641
 20
301.3988089077760719
 30
0.0
 11
4456.1550822818180677
 21
301.3890529812700834
 31
0.0
  0
ARC
  5
C627
  8
0
 10
4456.1534865310168243
 20
301.3906035992658872
 30
0.0
 40
0.0086292161958852
 50
232.8327875122652131
 51
270.0
  0
LINE
  5
C628
  8
0
 10
4456.1482732487183966
 20
301.383727185969974
 30
0.0
 11
4456.1336790679397382
 21
301.394791614627195
 31
0.0
  0
LINE
  5
C629
  8
0
 10
4456.1550822818180677
 20
301.3890529812700834
 30
0.0
 11
4456.1550822818180677
 21
301.4076644654700203
 31
0.0
  0
LINE
  5
C62A
  8
0
 10
4456.2050408530922141
 20
301.3692283305700812
 30
0.0
 11
4456.1901838420080821
 21
301.3579488012131264
 31
0.0
  0
ARC
  5
C62B
  8
0
 10
4456.1833677621461902
 20
301.3710674947676011
 30
0.0
 40
0.014783743276246
 50
270.4938597099359185
 51
297.4550358274207724
  0
LINE
  5
C62C
  8
0
 10
4456.1550822818180677
 20
301.3633628988699797
 30
0.0
 11
4456.1834951887167335
 21
301.3633628988699797
 31
0.0
  0
LINE
  5
C62D
  8
0
 10
4456.1964703626135815
 20
301.3732147031103068
 30
0.0
 11
4456.1834951887167335
 21
301.3633628988699797
 31
0.0
  0
LINE
  5
C62E
  8
0
 10
4456.1834951887167335
 20
301.3819743830699736
 30
0.0
 11
4456.1834951887167335
 21
301.3633628988699797
 31
0.0
  0
LINE
  5
C62F
  8
0
 10
4456.1834951887167335
 20
301.3562843006699836
 30
0.0
 11
4456.1534865310168243
 21
301.3562843006699836
 31
0.0
  0
LINE
  5
C630
  8
0
 10
4456.1422333823811641
 20
301.373118825376082
 30
0.0
 11
4456.1550822818180677
 21
301.3633628988699797
 31
0.0
  0
ARC
  5
C631
  8
0
 10
4456.1534865310168243
 20
301.3649135168658972
 30
0.0
 40
0.0086292161958852
 50
232.8327875122652131
 51
270.0
  0
LINE
  5
C632
  8
0
 10
4456.1482732487183966
 20
301.3580371035699841
 30
0.0
 11
4456.1336790679397382
 21
301.3691015322272051
 31
0.0
  0
LINE
  5
C633
  8
0
 10
4456.1550822818180677
 20
301.3633628988699797
 30
0.0
 11
4456.1550822818180677
 21
301.3819743830699736
 31
0.0
  0
LINE
  5
C634
  8
0
 10
4456.2050408530922141
 20
301.3435382481699776
 30
0.0
 11
4456.1901838420080821
 21
301.3322587188130797
 31
0.0
  0
ARC
  5
C635
  8
0
 10
4456.1833677621461902
 20
301.3453774123676112
 30
0.0
 40
0.014783743276246
 50
270.4938597099359185
 51
297.4550358274207724
  0
LINE
  5
C636
  8
0
 10
4456.1550822818180677
 20
301.3376728164701035
 30
0.0
 11
4456.1834951887167335
 21
301.3376728164701035
 31
0.0
  0
LINE
  5
C637
  8
0
 10
4456.1964703626135815
 20
301.3475246207103169
 30
0.0
 11
4456.1834951887167335
 21
301.3376728164701035
 31
0.0
  0
LINE
  5
C638
  8
0
 10
4456.1834951887167335
 20
301.3562843006699836
 30
0.0
 11
4456.1834951887167335
 21
301.3376728164701035
 31
0.0
  0
LINE
  5
C639
  8
0
 10
4456.1834951887167335
 20
301.3305942182701074
 30
0.0
 11
4456.1534865310168243
 21
301.3305942182701074
 31
0.0
  0
LINE
  5
C63A
  8
0
 10
4456.1422333823811641
 20
301.3474287429760921
 30
0.0
 11
4456.1550822818180677
 21
301.3376728164701035
 31
0.0
  0
ARC
  5
C63B
  8
0
 10
4456.1534865310168243
 20
301.3392234344659073
 30
0.0
 40
0.0086292161958852
 50
232.8327875122652131
 51
270.0
  0
LINE
  5
C63C
  8
0
 10
4456.1482732487183966
 20
301.3323470211699942
 30
0.0
 11
4456.1399089405085761
 21
301.3386883357561032
 31
0.0
  0
LINE
  5
C63D
  8
0
 10
4456.1550822818180677
 20
301.3376728164701035
 30
0.0
 11
4456.1550822818180677
 21
301.3562843006699836
 31
0.0
  0
LINE
  5
C63E
  8
0
 10
4456.2050408530922141
 20
301.3178481657699876
 30
0.0
 11
4456.1898728988380753
 21
301.3063325665480079
 31
0.0
  0
ARC
  5
C63F
  8
0
 10
4456.1833677621461902
 20
301.3196873299676213
 30
0.0
 40
0.014783743276246
 50
295.7570524594037238
 51
297.4550358274207724
  0
LINE
  5
C640
  8
0
 10
4456.1789453091541873
 20
301.3119827340699999
 30
0.0
 11
4456.1834951887167335
 21
301.3119827340699999
 31
0.0
  0
LINE
  5
C641
  8
0
 10
4456.1964703626135815
 20
301.3218345383103269
 30
0.0
 11
4456.1834951887167335
 21
301.3119827340699999
 31
0.0
  0
LINE
  5
C642
  8
0
 10
4456.1834951887167335
 20
301.3305942182701074
 30
0.0
 11
4456.1834951887167335
 21
301.3119827340699999
 31
0.0
  0
LINE
  5
C643
  8
0
 10
4456.1538976207239102
 20
301.4590446302701139
 30
0.0
 11
4456.1390406095079015
 21
301.4477651008131147
 31
0.0
  0
ARC
  5
C644
  8
0
 10
4456.1322245296451001
 20
301.4608837943677031
 30
0.0
 40
0.014783743276246
 50
281.0132797713890227
 51
297.4550358274207724
  0
LINE
  5
C645
  8
0
 10
4456.1538976207239102
 20
301.433354547870124
 30
0.0
 11
4456.1390406095079015
 21
301.4220750184131248
 31
0.0
  0
ARC
  5
C646
  8
0
 10
4456.1322245296451001
 20
301.4351937119675995
 30
0.0
 40
0.014783743276246
 50
270.4938597099359185
 51
297.4550358274207724
  0
LINE
  5
C647
  8
0
 10
4456.1187557177909184
 20
301.4274891160699781
 30
0.0
 11
4456.1323519562192814
 21
301.4274891160699781
 31
0.0
  0
LINE
  5
C648
  8
0
 10
4456.145327130179794
 20
301.4373409203603273
 30
0.0
 11
4456.1323519562192814
 21
301.4274891160699781
 31
0.0
  0
LINE
  5
C649
  8
0
 10
4456.1323519562192814
 20
301.4439290487599123
 30
0.0
 11
4456.1323519562192814
 21
301.4274891160699781
 31
0.0
  0
LINE
  5
C64A
  8
0
 10
4456.1323519562192814
 20
301.420410517869982
 30
0.0
 11
4456.1150850984513454
 21
301.420410517869982
 31
0.0
  0
LINE
  5
C64B
  8
0
 10
4456.1538976207239102
 20
301.4076644654700203
 30
0.0
 11
4456.1390406095079015
 21
301.396384936013078
 31
0.0
  0
ARC
  5
C64C
  8
0
 10
4456.1322245296451001
 20
301.4095036295676096
 30
0.0
 40
0.014783743276246
 50
270.4938597099359185
 51
297.4550358274207724
  0
LINE
  5
C64D
  8
0
 10
4456.1097438405267894
 20
301.4017990336701018
 30
0.0
 11
4456.1323519562192814
 21
301.4017990336701018
 31
0.0
  0
LINE
  5
C64E
  8
0
 10
4456.145327130179794
 20
301.4116508379602806
 30
0.0
 11
4456.1323519562192814
 21
301.4017990336701018
 31
0.0
  0
LINE
  5
C64F
  8
0
 10
4456.1323519562192814
 20
301.420410517869982
 30
0.0
 11
4456.1323519562192814
 21
301.4017990336701018
 31
0.0
  0
LINE
  5
C650
  8
0
 10
4456.1323519562192814
 20
301.3947204354701057
 30
0.0
 11
4456.1091272634157576
 21
301.3947204354701057
 31
0.0
  0
LINE
  5
C651
  8
0
 10
4456.1538976207239102
 20
301.3819743830699736
 30
0.0
 11
4456.1390406095079015
 21
301.3706948536129744
 31
0.0
  0
ARC
  5
C652
  8
0
 10
4456.1322245296451001
 20
301.3838135471676196
 30
0.0
 40
0.014783743276246
 50
270.4938597099359185
 51
297.4550358274207724
  0
LINE
  5
C653
  8
0
 10
4456.1145372720520754
 20
301.3761089512699982
 30
0.0
 11
4456.1323519562192814
 21
301.3761089512699982
 31
0.0
  0
LINE
  5
C654
  8
0
 10
4456.145327130179794
 20
301.3859607555604043
 30
0.0
 11
4456.1323519562192814
 21
301.3761089512699982
 31
0.0
  0
LINE
  5
C655
  8
0
 10
4456.1323519562192814
 20
301.3947204354701057
 30
0.0
 11
4456.1323519562192814
 21
301.3761089512699982
 31
0.0
  0
LINE
  5
C656
  8
0
 10
4456.1323519562192814
 20
301.3690303530700021
 30
0.0
 11
4456.1178336776047217
 21
301.3690303530700021
 31
0.0
  0
LINE
  5
C657
  8
0
 10
4456.1538976207239102
 20
301.3562843006699836
 30
0.0
 11
4456.1390406095079015
 21
301.3450047712129845
 31
0.0
  0
ARC
  5
C658
  8
0
 10
4456.1322245296451001
 20
301.3581234647675728
 30
0.0
 40
0.014783743276246
 50
281.6142114034162773
 51
297.4550358274207724
  0
LINE
  5
C659
  8
0
 10
4456.129567897742163
 20
301.350418868870122
 30
0.0
 11
4456.1323519562192814
 21
301.350418868870122
 31
0.0
  0
LINE
  5
C65A
  8
0
 10
4456.145327130179794
 20
301.3602706731604144
 30
0.0
 11
4456.1323519562192814
 21
301.350418868870122
 31
0.0
  0
LINE
  5
C65B
  8
0
 10
4456.1323519562192814
 20
301.3690303530700021
 30
0.0
 11
4456.1323519562192814
 21
301.350418868870122
 31
0.0
  0
ARC
  5
C65C
  8
0
 10
4456.4127621614388772
 20
300.9403991476352758
 30
0.0
 40
0.5896516820262447
 50
93.0594799726182345
 51
108.0596455516980967
  0
ARC
  5
C65D
  8
0
 10
4456.3125445053792646
 20
301.2477483326775882
 30
0.0
 40
0.2663761027873972
 50
108.0596455516980967
 51
133.0755862440373107
  0
ARC
  5
C65E
  8
0
 10
4456.177975478098233
 20
301.3922896048259759
 30
0.0
 40
0.0688911141045845
 50
133.4248002507208071
 51
223.0164429564673014
  0
ARC
  5
C65F
  8
0
 10
4456.2987997076661486
 20
301.5109761305060943
 30
0.0
 40
0.2382413734399047
 50
224.0629690207769897
 51
254.215273477799002
  0
ARC
  5
C660
  8
0
 10
4456.4025675479633719
 20
301.8020176476641154
 30
0.0
 40
0.5469264714416566
 50
252.0478457932933907
 51
262.8570593002141891
  0
ARC
  5
C661
  8
0
 10
4456.2228825811871502
 20
301.4222570230144242
 30
0.0
 40
0.1177639611143516
 50
194.8672849474930047
 51
243.1326868563160986
  0
ARC
  5
C662
  8
0
 10
4456.3340242640124416
 20
301.5985177574318072
 30
0.0
 40
0.3258094563594089
 50
239.7035861919391948
 51
252.1944186040192903
  0
ARC
  5
C663
  8
0
 10
4456.4034915679076221
 20
301.8125456289336057
 30
0.0
 40
0.5508280163348787
 50
252.1223732675645124
 51
263.1716819828977805
  0
ARC
  5
C664
  8
0
 10
4456.3875915147527849
 20
301.0002944397551801
 30
0.0
 40
0.5599094136139052
 50
93.5602406705318685
 51
117.3459829206875042
  0
ARC
  5
C665
  8
0
 10
4456.2039158430889074
 20
301.3554598712437951
 30
0.0
 40
0.1600603970017351
 50
117.3459829206875042
 51
149.0568762327503975
  0
ARC
  5
C666
  8
0
 10
4456.1406101522952667
 20
301.3989278692835114
 30
0.0
 40
0.0835478468947835
 50
152.3027774067091116
 51
216.1904262527116032
  0
ARC
  5
C667
  8
0
 10
4456.2333701028310315
 20
301.466549466673996
 30
0.0
 40
0.1983392770556064
 50
216.1333942012591081
 51
244.5627089145442028
  0
ARC
  5
C668
  8
0
 10
4456.3850314274841367
 20
301.7826388780715092
 30
0.0
 40
0.5489290100384002
 50
244.4383961467987092
 51
262.9937981826433884
  0
ARC
  5
C669
  8
0
 10
4456.3917705062031018
 20
301.0345114488633271
 30
0.0
 40
0.5018000367700808
 50
92.3583560784836095
 51
111.610286208996996
  0
ARC
  5
C66A
  8
0
 10
4456.2841440787733518
 20
301.2773685234644176
 30
0.0
 40
0.2366138133588799
 50
109.0379898955560947
 51
134.8871518470984938
  0
ARC
  5
C66B
  8
0
 10
4456.1646895528710957
 20
301.3928048335806125
 30
0.0
 40
0.0705979641128513
 50
132.3148555336703112
 51
216.747782399597412
  0
ARC
  5
C66C
  8
0
 10
4456.252775224385914
 20
301.4625448514560162
 30
0.0
 40
0.1829316311362632
 50
217.7438292819230128
 51
246.2399540575601122
  0
ARC
  5
C66D
  8
0
 10
4456.3879596923343342
 20
301.7542353211464956
 30
0.0
 40
0.5044035882509306
 50
245.5354252144526868
 51
263.4446772383931261
  0
ARC
  5
C66E
  8
0
 10
4456.3853165653908945
 20
300.9456310807490809
 30
0.0
 40
0.621290316737373
 50
94.8434352074437754
 51
113.5569817663701997
  0
ARC
  5
C66F
  8
0
 10
4456.2126952703756615
 20
301.3225528167911875
 30
0.0
 40
0.2069295188708813
 50
111.4536522947718993
 51
147.8937805179546956
  0
ARC
  5
C670
  8
0
 10
4456.1097243253616398
 20
301.3952898215155756
 30
0.0
 40
0.0813393862017029
 50
152.7492931502362978
 51
214.7862241924848945
  0
ARC
  5
C671
  8
0
 10
4456.231544295891581
 20
301.4934318840336118
 30
0.0
 40
0.2376395952566726
 50
217.4640488181468072
 51
250.1713554406640867
  0
ARC
  5
C672
  8
0
 10
4456.386034020043553
 20
301.857849782429696
 30
0.0
 40
0.6332283198953476
 50
248.2060020813403867
 51
262.8195384645633794
  0
ARC
  5
C673
  8
0
 10
4456.3187886336645533
 20
301.0998249647341254
 30
0.0
 40
0.5166377027496577
 50
95.5869386440518554
 51
129.1056378055953928
  0
ARC
  5
C674
  8
0
 10
4456.3390296226252758
 20
301.7703743907575245
 30
0.0
 40
0.553276027389372
 50
231.275225076747887
 51
265.7119630803176733
  0
LINE
  5
C675
  8
0
 10
4455.9929111727169584
 20
301.3387305779701251
 30
0.0
 11
4455.9929231234236795
 21
301.6109859161289819
 31
0.0
  0
ARC
  5
C676
  8
0
 10
4456.164695039250546
 20
301.5743690604645053
 30
0.0
 40
0.2120174921271388
 50
189.9225996016712088
 51
215.8834141909937046
  0
ARC
  5
C677
  8
0
 10
4456.0223572396771488
 20
301.55009782536888
 30
0.0
 40
0.0676293338426003
 50
115.7997430451419945
 51
190.4471468065455042
  0
ARC
  5
C678
  8
0
 10
4456.8278148752951893
 20
301.5570185176085261
 30
0.0
 40
0.0776193278787442
 50
318.3486166685804051
 51
30.2183630589107111
  0
ARC
  5
C679
  8
0
 10
4456.6686640142916076
 20
301.4528793415016139
 30
0.0
 40
0.2677393173074816
 50
32.33484631914218
 51
73.2605029446640259
  0
LINE
  5
C67A
  8
0
 10
4456.8949432175177208
 20
301.5568575341529254
 30
0.0
 11
4456.8949432175177208
 21
301.5959870399149167
 31
0.0
  0
ARC
  5
C67B
  8
0
 10
4456.4250048978183258
 20
302.1591612573545262
 30
0.0
 40
0.9490960724600229
 50
262.2891413424483744
 51
277.7108586575516256
  0
ARC
  5
C67C
  8
0
 10
4456.4250048978183258
 20
302.1100396372203249
 30
0.0
 40
0.8883402242315979
 50
262.358840484744519
 51
277.6411595152555947
  0
ARC
  5
C67D
  8
0
 10
4456.4250048978183258
 20
302.0355311564034082
 30
0.0
 40
0.8048571813332976
 50
262.365342139535187
 51
277.6346578604646993
  0
ARC
  5
C67E
  8
0
 10
4456.4250048978183258
 20
301.9887410926095868
 30
0.0
 40
0.7416731955395744
 50
262.6697198679297003
 51
277.330280132070186
  0
ARC
  5
C67F
  8
0
 10
4456.4250048978183258
 20
301.9621292385891138
 30
0.0
 40
0.7085893265190464
 50
262.6667077878163923
 51
277.3332922121836077
  0
ARC
  5
C680
  8
0
 10
4456.4250048978183258
 20
301.9697689505284188
 30
0.0
 40
0.7094989685583482
 50
262.9562498196665956
 51
277.0437501803332907
  0
ARC
  5
C681
  8
0
 10
4456.4250048978183258
 20
300.8124445344288915
 30
0.0
 40
0.7180976180733221
 50
86.5099773682143933
 51
93.4900226317856067
  0
ARC
  5
C682
  8
0
 10
4456.4250048978183258
 20
300.7565067744276917
 30
0.0
 40
0.7812401013419648
 50
86.0450924427234156
 51
93.9549075572765986
  0
ARC
  5
C683
  8
0
 10
4456.4250048978183258
 20
300.7291857383457909
 30
0.0
 40
0.8330705983241868
 50
85.0292914298231892
 51
94.9707085701767966
  0
ARC
  5
C684
  8
0
 10
4456.4250048978183258
 20
300.6746084663963074
 30
0.0
 40
0.8948513209811108
 50
84.0895814560840051
 51
95.9104185439160233
  0
ARC
  5
C685
  8
0
 10
4456.4250048978183258
 20
300.5786511031952273
 30
0.0
 40
1.047120560474875
 50
81.4037341465308941
 51
98.5962658534691201
  0
ARC
  5
C686
  8
0
 10
4456.0196807504844401
 20
301.5576204106953924
 30
0.0
 40
0.0751475643929761
 50
149.2134013063617886
 51
221.4854895409949904
  0
ARC
  5
C687
  8
0
 10
4456.1813457813432251
 20
301.4528793415016139
 30
0.0
 40
0.2677393173074816
 50
106.7394970553360025
 51
147.6651536808577987
  0
LINE
  5
C688
  8
0
 10
4455.9550665781180214
 20
301.5568575341529254
 30
0.0
 11
4455.9550665781180214
 21
301.5959892152582142
 31
0.0
  0
ARC
  5
C689
  8
0
 10
4456.4250048978183258
 20
300.7805873707765159
 30
0.0
 40
0.982523620371837
 50
70.9447800392131995
 51
109.0552199607868005
  0
ARC
  5
C68A
  8
0
 10
4456.4377962144681078
 20
300.4471306754552984
 30
0.0
 40
2.6248132983136618
 50
90.2792165674206615
 51
99.501796457027325
  0
ARC
  5
C68B
  8
0
 10
4456.4479086453502532
 20
300.4084824666639975
 30
0.0
 40
2.6646030387564088
 50
99.5790702883753056
 51
102.2916423426470942
  0
ARC
  5
C68C
  8
0
 10
4455.8931747034930595
 20
302.9545063016727227
 30
0.0
 40
0.0588465047185087
 50
102.2916423426463979
 51
175.9801423675625074
  0
ARC
  5
C68D
  8
0
 10
4447.9523544339226646
 20
303.0489492534812825
 30
0.0
 40
7.882635976234261
 50
355.4200577429884902
 51
359.343501939966302
  0
ARC
  5
C68E
  8
0
 10
4446.5642505719142719
 20
303.160144367841724
 30
0.0
 40
9.2751864008811182
 50
352.5549789916851751
 51
355.4200577429884902
  0
ARC
  5
C68F
  8
0
 10
4447.1461876612802371
 20
303.0840989096409999
 30
0.0
 40
8.6883016697005662
 50
351.2476856107862773
 51
352.5549789916851751
  0
ARC
  5
C690
  8
0
 10
4447.2350101796046147
 20
303.0704241436193911
 30
0.0
 40
8.5984326595392346
 50
350.303586871026198
 51
351.2476856107862773
  0
ARC
  5
C691
  8
0
 10
4456.399958182147202
 20
305.6940083207693988
 30
0.0
 40
4.4186925011764044
 50
262.1932804598196753
 51
265.6975909875865796
  0
ARC
  5
C692
  8
0
 10
4455.8082498488402052
 20
301.3781965257498996
 30
0.0
 40
0.0625072202530231
 50
214.6494888156670129
 51
262.1932804598196753
  0
ARC
  5
C693
  8
0
 10
4456.2097987376873789
 20
301.5679533229911726
 30
0.0
 40
0.5059051997868133
 50
192.0936813932084135
 51
206.4445547729110046
  0
ARC
  5
C694
  8
0
 10
4456.1503973903891165
 20
301.5543646005547203
 30
0.0
 40
0.4449759986442271
 50
179.0376939836822032
 51
191.9852745258648099
  0
ARC
  5
C695
  8
0
 10
4456.1091756298237669
 20
301.5579945857516009
 30
0.0
 40
0.4037097725140248
 50
170.8474463503266918
 51
179.4545501277108031
  0
ARC
  5
C696
  8
0
 10
4456.445425486476779
 20
294.7019919359516962
 30
0.0
 40
7.1995503143829138
 50
90.1625122490988531
 51
91.2903287530862855
  0
ARC
  5
C697
  8
0
 10
4456.4147396693069823
 20
296.0643351133990109
 30
0.0
 40
5.8368615925858851
 50
91.2903287530862855
 51
95.3873010513219981
  0
ARC
  5
C698
  8
0
 10
4455.8670818733125998
 20
301.8048214283498965
 30
0.0
 40
0.0705935568342842
 50
90.2852550124315201
 51
127.9515347591443941
  0
ARC
  5
C699
  8
0
 10
4456.271889581216783
 20
301.4901036096517828
 30
0.0
 40
0.5814523995964939
 50
140.431793786626713
 51
154.4297724009244916
  0
ARC
  5
C69A
  8
0
 10
4456.1497350951731278
 20
301.5503960036326134
 30
0.0
 40
0.4452419789807055
 50
154.6438023603770944
 51
168.3072049892570874
  0
LINE
  5
C69B
  8
0
 10
4455.4407529293175685
 20
296.6866450432348188
 30
0.0
 11
4455.4407529293175685
 21
296.5933814193900844
 31
0.0
  0
ARC
  5
C69C
  8
0
 10
4447.4832260347147894
 20
298.6653286214411764
 30
0.0
 40
8.1998428631889073
 50
346.0362771084415954
 51
355.3771191159174236
  0
ARC
  5
C69D
  8
0
 10
4352.6987999281545854
 20
306.329592013695617
 30
0.0
 40
103.2936300718998979
 50
355.3771238549784925
 51
356.1637037571812812
  0
ARC
  5
C69E
  8
0
 10
4421.2596517638812657
 20
301.2945795171115719
 30
0.0
 40
34.552289673879109
 50
356.8877067364924756
 51
358.506271937433894
  0
LINE
  5
C69F
  8
0
 10
4455.8002000331625823
 20
300.3938870252264906
 30
0.0
 11
4455.8224898973439849
 21
301.3132122972139086
 31
0.0
  0
LINE
  5
C6A0
  8
0
 10
4455.4407529293175685
 20
296.6866450432348188
 30
0.0
 11
4457.4092568663181737
 21
296.6866450432348188
 31
0.0
  0
LINE
  5
C6A1
  8
0
 10
4458.5903592285176273
 20
266.3876316131037925
 30
0.0
 11
4458.5903592285176273
 21
266.168210453890083
 31
0.0
  0
ARC
  5
C6A2
  8
0
 10
4460.2643356757098445
 20
269.7805356364582963
 30
0.0
 40
3.740157478387915
 50
220.8413708707277863
 51
242.6804269539931056
  0
ARC
  5
C6A3
  8
0
 10
4457.4199168254308461
 20
267.3217128160902121
 30
0.0
 40
0.0197
 50
40.8413708707253633
 51
90.0
  0
ARC
  5
C6A4
  8
0
 10
4458.5116592285166917
 20
266.3876316131037925
 30
0.0
 40
0.0787
 50
0.0
 51
62.6804269539930772
  0
ARC
  5
C6A5
  8
0
 10
4458.5824592285180188
 20
266.168210453890083
 30
0.0
 40
0.0079
 50
270.0
 51
359.9999999999869829
  0
LINE
  5
C6A6
  8
0
 10
4457.2714615907179905
 20
267.3414128160900987
 30
0.0
 11
4457.2714615907179905
 21
292.5303632097902096
 31
0.0
  0
LINE
  5
C6A7
  8
0
 10
4457.2714615907179905
 20
292.5461632097901088
 30
0.0
 11
4457.2714615907179905
 21
294.7823679341901197
 31
0.0
  0
ARC
  5
C6A8
  8
0
 10
4457.2635615907183819
 20
292.5461632097901088
 30
0.0
 40
0.0079
 50
270.0
 51
0.0
  0
LINE
  5
C6A9
  8
0
 10
4458.492002299413798
 20
294.9004679341900896
 30
0.0
 11
4457.3895615907167667
 21
294.9004679341900896
 31
0.0
  0
LINE
  5
C6AA
  8
0
 10
4458.5903592285176273
 20
294.9449949720064978
 30
0.0
 11
4458.5903592285176273
 21
296.5488543815736193
 31
0.0
  0
ARC
  5
C6AB
  8
0
 10
4458.4942292520427145
 20
295.0372116059890004
 30
0.0
 40
0.1367618042256336
 50
269.06698637918538
 51
312.4421940650863121
  0
ARC
  5
C6AC
  8
0
 10
4458.5785592285174062
 20
294.9449949720066115
 30
0.0
 40
0.0118
 50
312.442194066449872
 51
359.9999999995342819
  0
ARC
  5
C6AD
  8
0
 10
4457.3895615907167667
 20
294.7823679341901197
 30
0.0
 40
0.1181
 50
90.0
 51
180.0
  0
LINE
  5
C6AE
  8
0
 10
4458.5903592285176273
 20
294.9904390401060255
 30
0.0
 11
4458.6612360633343997
 21
294.9904390400430998
 31
0.0
  0
LINE
  5
C6AF
  8
0
 10
4460.3620234648942642
 20
295.3563445518901176
 30
0.0
 11
4460.3620234648942642
 21
296.1375048016901133
 31
0.0
  0
LINE
  5
C6B0
  8
0
 10
4460.3856234648956161
 20
295.3723445518900803
 30
0.0
 11
4460.3856234648956161
 21
296.1215048016900937
 31
0.0
  0
LINE
  5
C6B1
  8
0
 10
4460.5356234648943428
 20
295.3997193361402083
 30
0.0
 11
4460.5356234648943428
 21
296.0941300174400794
 31
0.0
  0
LINE
  5
C6B2
  8
0
 10
4460.6861234648949903
 20
295.4138928270305087
 30
0.0
 11
4460.6861234648949903
 21
296.0799565265497222
 31
0.0
  0
LINE
  5
C6B3
  8
0
 10
4461.0491556012957517
 20
294.2882580531373264
 30
0.0
 11
4461.0491556012957517
 21
297.2055913004430749
 31
0.0
  0
LINE
  5
C6B4
  8
0
 10
4461.6319347910948636
 20
294.330743183833988
 30
0.0
 11
4461.6319347910948636
 21
297.1631061697462997
 31
0.0
  0
ARC
  5
C6B5
  8
0
 10
4460.823621942423415
 20
289.0750420975729185
 30
0.0
 40
6.2982405223258198
 50
94.2029800030379647
 51
110.0799922107243987
  0
LINE
  5
C6B6
  8
0
 10
4460.3856234648956161
 20
295.3723445518900803
 30
0.0
 11
4460.3620234648942642
 21
295.3723445518900803
 31
0.0
  0
ARC
  5
C6B7
  8
0
 10
4460.4156234648953614
 20
295.4013445518900767
 30
0.0
 40
0.029999999999994
 50
180.0000006514981123
 51
270.0
  0
LINE
  5
C6B8
  8
0
 10
4460.4156234648953614
 20
295.371344551890104
 30
0.0
 11
4460.5056234648964164
 21
295.3713445518902176
 31
0.0
  0
ARC
  5
C6B9
  8
0
 10
4460.5056234648964164
 20
295.4013910954375888
 30
0.0
 40
0.0300465435474524
 50
270.0
 51
356.8104736899102249
  0
ARC
  5
C6BA
  8
0
 10
4460.5656234648949976
 20
295.4663445518900744
 30
0.0
 40
0.029999999999994
 50
90.0
 51
179.9999986961049103
  0
LINE
  5
C6BB
  8
0
 10
4460.5656234648949976
 20
295.496344551890104
 30
0.0
 11
4460.656123464895245
 21
295.496344551890104
 31
0.0
  0
ARC
  5
C6BC
  8
0
 10
4460.656123464895245
 20
295.5263445518900767
 30
0.0
 40
0.029999999999994
 50
270.0
 51
0.0000019471532853
  0
ARC
  5
C6BD
  8
0
 10
4460.7311234647486344
 20
295.4138928270305087
 30
0.0
 40
0.0449999998542481
 50
179.9999999240851878
 51
269.0000001689392093
  0
LINE
  5
C6BE
  8
0
 10
4460.7303381065948997
 20
295.3688996808919001
 30
0.0
 11
4461.0049409595985708
 21
295.364106471073228
 31
0.0
  0
ARC
  5
C6BF
  8
0
 10
4461.0041556014457456
 20
295.3191133249399059
 30
0.0
 40
0.0449999998489482
 50
0.0002455796920971
 51
89.0000001689391951
  0
ARC
  5
C6C0
  8
0
 10
4461.0743180652780211
 20
294.2899451557636894
 30
0.0
 40
0.0252189593161546
 50
183.8358484791399121
 51
276.7244823616666736
  0
ARC
  5
C6C1
  8
0
 10
4461.6044820003089626
 20
287.8863678458279196
 30
0.0
 40
6.4002827888204612
 50
90.1521846644293277
 51
94.7249827732358938
  0
ARC
  5
C6C2
  8
0
 10
4461.5867268573092588
 20
294.3318430623929771
 30
0.0
 40
0.0452213114590845
 50
270.9569166733281236
 51
358.6063072416635009
  0
ARC
  5
C6C3
  8
0
 10
4461.0741221698881418
 20
295.6534074494308015
 30
0.0
 40
0.0249666621555614
 50
180.1568585131313966
 51
276.2502576930638725
  0
ARC
  5
C6C4
  8
0
 10
4461.7262117311538532
 20
289.6994676139613034
 30
0.0
 40
5.9645759214065306
 50
91.3095141557046759
 51
96.2502576930639435
  0
ARC
  5
C6C5
  8
0
 10
4461.5868634086828024
 20
295.7075442933028171
 30
0.0
 40
0.0451608245517629
 50
273.8570083122568235
 51
356.3933874168936882
  0
LINE
  5
C6C6
  8
0
 10
4458.5903592285176273
 20
296.5034103134742054
 30
0.0
 11
4458.6612360633343997
 21
296.5034103135370742
 31
0.0
  0
LINE
  5
C6C7
  8
0
 10
4458.6612360633343997
 20
296.5034103135370742
 30
0.0
 11
4458.6612360638500832
 21
294.9904390402319905
 31
0.0
  0
ARC
  5
C6C8
  8
0
 10
4460.823621942423415
 20
302.4188072560074261
 30
0.0
 40
6.2982405223258198
 50
249.9200077892755871
 51
265.7970199969620921
  0
LINE
  5
C6C9
  8
0
 10
4460.3856234648956161
 20
296.1215048016900937
 30
0.0
 11
4460.3620234648942642
 21
296.1215048016900937
 31
0.0
  0
ARC
  5
C6CA
  8
0
 10
4460.4156234648953614
 20
296.0925048016900973
 30
0.0
 40
0.029999999999994
 50
90.0
 51
179.9999993484985907
  0
LINE
  5
C6CB
  8
0
 10
4460.4156234648953614
 20
296.1225048016901269
 30
0.0
 11
4460.5056234648964164
 21
296.1225048016901269
 31
0.0
  0
ARC
  5
C6CC
  8
0
 10
4460.5056234648964164
 20
296.0924582581425852
 30
0.0
 40
0.0300465435474524
 50
3.1895263100898159
 51
90.0
  0
ARC
  5
C6CD
  8
0
 10
4460.5656234648949976
 20
296.0275048016900996
 30
0.0
 40
0.029999999999994
 50
180.0000013038950897
 51
270.0
  0
LINE
  5
C6CE
  8
0
 10
4460.5656234648949976
 20
295.9975048016901269
 30
0.0
 11
4460.656123464895245
 21
295.9975048016901269
 31
0.0
  0
ARC
  5
C6CF
  8
0
 10
4460.656123464895245
 20
295.9675048016900973
 30
0.0
 40
0.029999999999994
 50
359.9999980528467063
 51
90.0
  0
ARC
  5
C6D0
  8
0
 10
4460.7311234647486344
 20
296.0799565265497222
 30
0.0
 40
0.0449999998542481
 50
90.9999998310608191
 51
180.0000000759148122
  0
LINE
  5
C6D1
  8
0
 10
4460.7303381065948997
 20
296.1249496726883876
 30
0.0
 11
4461.0049409595985708
 21
296.1297428825070028
 31
0.0
  0
ARC
  5
C6D2
  8
0
 10
4461.0041556014457456
 20
296.1747360286403818
 30
0.0
 40
0.0449999998489482
 50
270.9999998310607907
 51
359.9997544203079087
  0
ARC
  5
C6D3
  8
0
 10
4461.0743180652780211
 20
297.2039041978164846
 30
0.0
 40
0.0252189593161546
 50
83.2755176383333264
 51
176.1641515208600026
  0
ARC
  5
C6D4
  8
0
 10
4461.6044820003089626
 20
303.6074815077524249
 30
0.0
 40
6.4002827888204612
 50
265.2750172267640778
 51
269.847815335570715
  0
ARC
  5
C6D5
  8
0
 10
4461.5867268573092588
 20
297.1620062911871969
 30
0.0
 40
0.0452213114590845
 50
1.3936927583365739
 51
89.0430833266718622
  0
ARC
  5
C6D6
  8
0
 10
4461.0741221698881418
 20
295.8404419041493725
 30
0.0
 40
0.0249666621555614
 50
83.7497423069360565
 51
179.8431414868684897
  0
ARC
  5
C6D7
  8
0
 10
4461.7262117311538532
 20
301.7943817396189843
 30
0.0
 40
5.9645759214065306
 50
263.7497423069360138
 51
268.6904858442953241
  0
ARC
  5
C6D8
  8
0
 10
4461.5868634086828024
 20
295.7863050602774138
 30
0.0
 40
0.0451608245517629
 50
3.6066125831063238
 51
86.1429916877432333
  0
ARC
  5
C6D9
  8
0
 10
4461.375969480918684
 20
294.6826245553219792
 30
0.0
 40
1.505577120950133
 50
135.0163408671756997
 51
154.8683552776919896
  0
ARC
  5
C6DA
  8
0
 10
4461.375969480918684
 20
296.8112247982583085
 30
0.0
 40
1.505577120950133
 50
205.1316447223078967
 51
224.9836591328243003
  0
ARC
  5
C6DB
  8
0
 10
4458.4942292520427145
 20
296.4566377475911736
 30
0.0
 40
0.1367618042256336
 50
47.5578059349137305
 51
90.9330136206582864
  0
ARC
  5
C6DC
  8
0
 10
4458.5785592285174062
 20
296.5488543815736193
 30
0.0
 40
0.0118
 50
0.000000000465735
 51
47.5578059335500782
  0
ARC
  5
C6DD
  8
0
 10
4456.4122135811676344
 20
300.4471306754552984
 30
0.0
 40
2.6248132983136618
 50
80.4982035429727034
 51
89.7207834325793243
  0
ARC
  5
C6DE
  8
0
 10
4456.40210115028367
 20
300.4084824666639975
 30
0.0
 40
2.6646030387564088
 50
77.7083576573528774
 51
80.4209297116247086
  0
ARC
  5
C6DF
  8
0
 10
4456.9568350921417732
 20
302.9545063016727227
 30
0.0
 40
0.0588465047185087
 50
4.0198576324374526
 51
77.7083576573535737
  0
ARC
  5
C6E0
  8
0
 10
4464.8976553617130776
 20
303.0489492534812825
 30
0.0
 40
7.882635976234261
 50
180.656498060033698
 51
184.5799422570113961
  0
ARC
  5
C6E1
  8
0
 10
4466.2857592237223798
 20
303.160144367841724
 30
0.0
 40
9.2751864008811182
 50
184.5799422570113961
 51
187.4450210083147113
  0
ARC
  5
C6E2
  8
0
 10
4465.7038221343545956
 20
303.0840989096409999
 30
0.0
 40
8.6883016697005662
 50
187.4450210083147113
 51
188.7523143892105111
  0
ARC
  5
C6E3
  8
0
 10
4465.614999616030218
 20
303.0704241436193911
 30
0.0
 40
8.5984326595392346
 50
188.7523143892105111
 51
189.6964131289738873
  0
ARC
  5
C6E4
  8
0
 10
4456.4500516134894497
 20
305.6940083207693988
 30
0.0
 40
4.4186925011764044
 50
274.302409012401597
 51
277.8067195401803815
  0
ARC
  5
C6E5
  8
0
 10
4457.0417599467964465
 20
301.3781965257498996
 30
0.0
 40
0.0625072202530231
 50
277.8067195401803815
 51
325.3505111843330155
  0
ARC
  5
C6E6
  8
0
 10
4456.6402110579474538
 20
301.5679533229911726
 30
0.0
 40
0.5059051997868133
 50
333.5554452270890806
 51
347.9063186067916149
  0
ARC
  5
C6E7
  8
0
 10
4456.6996124052466257
 20
301.5543646005547203
 30
0.0
 40
0.4449759986442271
 50
348.0147254741352185
 51
0.9623060163177996
  0
ARC
  5
C6E8
  8
0
 10
4456.7408341658119753
 20
301.5579945857516009
 30
0.0
 40
0.4037097725140248
 50
0.5454498722858815
 51
9.1525536496733029
  0
ARC
  5
C6E9
  8
0
 10
4456.4045843091589632
 20
294.7019919359516962
 30
0.0
 40
7.1995503143829138
 50
88.7096712469137003
 51
89.8374877509011469
  0
ARC
  5
C6EA
  8
0
 10
4456.4352701263296694
 20
296.0643351133990109
 30
0.0
 40
5.8368615925858851
 50
84.6126989486779877
 51
88.7096712469137003
  0
ARC
  5
C6EB
  8
0
 10
4456.9829279223222329
 20
301.8048214283498965
 30
0.0
 40
0.0705935568342842
 50
52.048465240855549
 51
89.7147449875684657
  0
ARC
  5
C6EC
  8
0
 10
4456.5781202144180497
 20
301.4901036096517828
 30
0.0
 40
0.5814523995964939
 50
25.5702275990754302
 51
39.5682062133733368
  0
ARC
  5
C6ED
  8
0
 10
4456.7002747004617049
 20
301.5503960036326134
 30
0.0
 40
0.4452419789807055
 50
11.6927950107429304
 51
25.3561976396228488
  0
LINE
  5
C6EE
  8
0
 10
4457.4092568663181737
 20
296.6866450432348188
 30
0.0
 11
4457.4092568663181737
 21
296.5933814193900844
 31
0.0
  0
ARC
  5
C6EF
  8
0
 10
4465.3667839008412557
 20
298.6653286443315096
 30
0.0
 40
8.1998430044979962
 50
184.6228809647089122
 51
193.963722810854108
  0
ARC
  5
C6F0
  8
0
 10
4560.1512098674802473
 20
306.329592013695617
 30
0.0
 40
103.2936300718998979
 50
183.8362962428186904
 51
184.6228761450213938
  0
ARC
  5
C6F1
  8
0
 10
4491.5903580317562955
 20
301.2945795171115719
 30
0.0
 40
34.552289673879109
 50
181.4937280625659923
 51
183.112293263507496
  0
LINE
  5
C6F2
  8
0
 10
4457.0498097624722504
 20
300.3938870252264906
 30
0.0
 11
4457.0275198982917573
 21
301.3132122972139086
 31
0.0
  0
LINE
  5
C6F3
  8
0
 10
4454.3022309587859127
 20
266.4575534544264883
 30
0.0
 11
4458.5477788368498295
 21
266.4575534544264883
 31
0.0
  0
LINE
  5
C6F4
  8
0
 10
4455.5864482049173603
 20
292.5382632097901023
 30
0.0
 11
4457.2635615907183819
 21
292.5382632097901023
 31
0.0
  0
ARC
  5
C6F5
  8
0
 10
4455.5864482049173603
 20
292.5303632097902096
 30
0.0
 40
0.0079
 50
89.9999999999478888
 51
180.000000000052097
  0
ARC
  5
C6F6
  8
0
 10
4457.2635615907183819
 20
292.5303632097902096
 30
0.0
 40
0.0079
 50
0.0
 51
90.0
  0
LINE
  5
C6F8
  8
0
 10
4455.823667210417625
 20
301.8604866536902023
 30
0.0
 11
4455.8344729721166004
 21
302.9586315714784064
 31
0.0
  0
LINE
  5
C6F9
  8
0
 10
4457.0263425852181172
 20
301.860486653689577
 30
0.0
 11
4457.0155368235182323
 21
302.9586315714901161
 31
0.0
  0
ENDSEC
  0
EOF
