  0
SECTION
  2
HEADER
  9
$ACADVER
  1
AC1009
  9
$INSBASE
 10
4286.7414159753498097
 20
144.5125048390432028
 30
0.0
  9
$EXTMIN
 10
4280.3597060540496386
 20
144.5068080094505945
 30
0.0
  9
$EXTMAX
 10
4293.1231258966499809
 20
153.2132922406431987
 30
0.0
  9
$LIMMIN
 10
0.0
 20
0.0
  9
$LIMMAX
 10
11.6929133858000007
 20
8.2677165353999982
  9
$ORTHOMODE
 70
     1
  9
$REGENMODE
 70
     1
  9
$FILLMODE
 70
     1
  9
$QTEXTMODE
 70
     0
  9
$MIRRTEXT
 70
     0
  9
$DRAGMODE
 70
     2
  9
$LTSCALE
 40
0.6431102362
  9
$OSMODE
 70
  4095
  9
$ATTMODE
 70
     1
  9
$TEXTSIZE
 40
0.2
  9
$TRACEWID
 40
0.05
  9
$TEXTSTYLE
  7
STANDARD
  9
$CLAYER
  8
0
  9
$CELTYPE
  6
BYLAYER
  9
$CECOLOR
 62
   256
  9
$DIMSCALE
 40
1.0
  9
$DIMASZ
 40
0.1875
  9
$DIMEXO
 40
0.0625
  9
$DIMDLI
 40
0.4443307087
  9
$DIMRND
 40
0.0
  9
$DIMDLE
 40
0.0
  9
$DIMEXE
 40
0.125
  9
$DIMTP
 40
0.01
  9
$DIMTM
 40
0.01
  9
$DIMTXT
 40
2.0
  9
$DIMCEN
 40
0.1052362205
  9
$DIMTSZ
 40
0.0
  9
$DIMTOL
 70
     1
  9
$DIMLIM
 70
     0
  9
$DIMTIH
 70
     1
  9
$DIMTOH
 70
     1
  9
$DIMSE1
 70
     0
  9
$DIMSE2
 70
     0
  9
$DIMTAD
 70
     0
  9
$DIMZIN
 70
     0
  9
$DIMBLK
  1

  9
$DIMASO
 70
     1
  9
$DIMSHO
 70
     1
  9
$DIMPOST
  1
\X
  9
$DIMAPOST
  1

  9
$DIMALT
 70
     1
  9
$DIMALTD
 70
     2
  9
$DIMALTF
 40
25.3999999999999986
  9
$DIMLFAC
 40
1.0
  9
$DIMTOFL
 70
     0
  9
$DIMTVP
 40
0.0
  9
$DIMTIX
 70
     0
  9
$DIMSOXD
 70
     0
  9
$DIMSAH
 70
     0
  9
$DIMBLK1
  1

  9
$DIMBLK2
  1

  9
$DIMSTYLE
  2
STANDARD
  9
$DIMCLRD
 70
     0
  9
$DIMCLRE
 70
     0
  9
$DIMCLRT
 70
     0
  9
$DIMTFAC
 40
1.0
  9
$DIMGAP
 40
0.09
  9
$LUNITS
 70
     2
  9
$LUPREC
 70
     4
  9
$SKETCHINC
 40
0.1
  9
$FILLETRAD
 40
0.0
  9
$AUNITS
 70
     0
  9
$AUPREC
 70
     0
  9
$MENU
  1
.
  9
$ELEVATION
 40
0.0
  9
$PELEVATION
 40
0.0
  9
$THICKNESS
 40
0.0
  9
$LIMCHECK
 70
     0
  9
$BLIPMODE
 70
     0
  9
$CHAMFERA
 40
0.0
  9
$CHAMFERB
 40
0.0
  9
$SKPOLY
 70
     0
  9
$TDCREATE
 40
2458060.468368056230247
  9
$TDUPDATE
 40
2458967.5989583330228925
  9
$TDINDWG
 40
0.3057130787
  9
$TDUSRTIMER
 40
0.3057130787
  9
$USRTIMER
 70
     1
  9
$ANGBASE
 50
0.0
  9
$ANGDIR
 70
     0
  9
$PDMODE
 70
     0
  9
$PDSIZE
 40
0.3125
  9
$PLINEWID
 40
0.0
  9
$COORDS
 70
     1
  9
$SPLFRAME
 70
     0
  9
$SPLINETYPE
 70
     6
  9
$SPLINESEGS
 70
     8
  9
$ATTDIA
 70
     1
  9
$ATTREQ
 70
     1
  9
$HANDLING
 70
     1
  9
$HANDSEED
  5
6BD4
  9
$SURFTAB1
 70
     6
  9
$SURFTAB2
 70
     6
  9
$SURFTYPE
 70
     6
  9
$SURFU
 70
     6
  9
$SURFV
 70
     6
  9
$UCSNAME
  2

  9
$UCSORG
 10
0.0
 20
0.0
 30
0.0
  9
$UCSXDIR
 10
1.0
 20
0.0
 30
0.0
  9
$UCSYDIR
 10
0.0
 20
1.0
 30
0.0
  9
$PUCSNAME
  2

  9
$PUCSORG
 10
0.0
 20
0.0
 30
0.0
  9
$PUCSXDIR
 10
1.0
 20
0.0
 30
0.0
  9
$PUCSYDIR
 10
0.0
 20
1.0
 30
0.0
  9
$USERI1
 70
     0
  9
$USERI2
 70
     0
  9
$USERI3
 70
     0
  9
$USERI4
 70
     0
  9
$USERI5
 70
     0
  9
$USERR1
 40
0.0
  9
$USERR2
 40
0.0
  9
$USERR3
 40
0.0
  9
$USERR4
 40
0.0
  9
$USERR5
 40
0.0
  9
$WORLDVIEW
 70
     1
  9
$SHADEDGE
 70
     3
  9
$SHADEDIF
 70
    70
  9
$TILEMODE
 70
     1
  9
$MAXACTVP
 70
    64
  9
$PLIMCHECK
 70
     0
  9
$PEXTMIN
 10
1.0000000000000000E+20
 20
1.0000000000000000E+20
 30
1.0000000000000000E+20
  9
$PEXTMAX
 10
-1.0000000000000000E+20
 20
-1.0000000000000000E+20
 30
-1.0000000000000000E+20
  9
$PLIMMIN
 10
0.0
 20
0.0
  9
$PLIMMAX
 10
12.0
 20
9.0
  9
$UNITMODE
 70
     0
  9
$VISRETAIN
 70
     1
  9
$PLINEGEN
 70
     0
  9
$PSLTSCALE
 70
     1
  0
ENDSEC
  0
SECTION
  2
TABLES
  0
TABLE
  2
VPORT
 70
     1
  0
VPORT
  2
*ACTIVE
 70
     0
 10
0.0
 20
0.0
 11
1.0
 21
1.0
 12
0.0
 22
0.0
 13
0.0
 23
0.0
 14
1.0
 24
1.0
 15
0.0
 25
0.0
 16
0.0
 26
0.0
 36
54.0366876855175065
 17
4286.7414550781240905
 27
148.8600476814831097
 37
0.0
 40
15.4507698414985004
 41
2.7303822937625748
 42
50.0
 43
0.0
 44
0.0
 50
0.0
 51
0.0
 71
     0
 72
   100
 73
     1
 74
     1
 75
     0
 76
     0
 77
     0
 78
     0
  0
ENDTAB
  0
TABLE
  2
LTYPE
 70
     2
  0
LTYPE
  2
CONTINUOUS
 70
     0
  3
Solid line
 72
    65
 73
     0
 40
0.0
  0
LTYPE
  2
PHANTOM2
 70
     0
  3
___ _ _ ___ _ _ ___ _ _ ___ _ _
 72
    65
 73
     6
 40
1.25
 49
0.625
 49
-0.125
 49
0.125
 49
-0.125
 49
0.125
 49
-0.125
  0
ENDTAB
  0
TABLE
  2
LAYER
 70
     2
  0
LAYER
  2
0
 70
     0
 62
   255
  6
CONTINUOUS
  0
LAYER
  2
DEFPOINTS
 70
     0
 62
     7
  6
CONTINUOUS
  0
ENDTAB
  0
TABLE
  2
STYLE
 70
     1
  0
STYLE
  2
STANDARD
 70
     0
 40
0.0
 41
0.8
 50
0.0
 71
     0
 42
0.2
  3
txt
  4

  0
ENDTAB
  0
TABLE
  2
VIEW
 70
     0
  0
ENDTAB
  0
TABLE
  2
UCS
 70
     0
  0
ENDTAB
  0
TABLE
  2
APPID
 70
     9
  0
APPID
  2
ACAD
 70
     0
  0
APPID
  2
ACAD_MLEADERVER
 70
     0
  0
APPID
  2
ACAD_EXEMPT_FROM_CAD_STANDARDS
 70
     0
  0
APPID
  2
ACAD_NAV_VCDISPLAY
 70
     0
  0
APPID
  2
ACAECLAYERSTANDARD
 70
     0
  0
APPID
  2
ACCMTRANSPARENCY
 70
     0
  0
APPID
  2
ACAD_DSTYLE_DIMJAG
 70
     0
  0
APPID
  2
ACAD_DSTYLE_DIMTALN
 70
     0
  0
APPID
  2
ACDBATTR
 70
     0
  0
ENDTAB
  0
TABLE
  2
DIMSTYLE
 70
     1
  0
DIMSTYLE
  2
STANDARD
 70
     0
  3

  4

  5

  6

  7

 40
1.0
 41
0.1875
 42
0.0625
 43
0.38
 44
0.125
 45
0.0
 46
0.0
 47
0.01
 48
0.01
140
0.15625
141
0.09
142
0.0
143
25.3999999999999986
144
1.0
145
0.0
146
1.0
147
0.09
 71
     1
 72
     0
 73
     1
 74
     1
 75
     0
 76
     0
 77
     0
 78
     4
170
     0
171
     2
172
     0
173
     0
174
     0
175
     0
176
     0
177
     0
178
     0
  0
ENDTAB
  0
ENDSEC
  0
SECTION
  2
BLOCKS
  0
BLOCK
  8
0
  2
$MODEL_SPACE
 70
     0
 10
0.0
 20
0.0
 30
0.0
  3
$MODEL_SPACE
  1

  0
ENDBLK
  5
21
  8
0
  0
BLOCK
 67
     1
  8
0
  2
$PAPER_SPACE
 70
     0
 10
0.0
 20
0.0
 30
0.0
  3
$PAPER_SPACE
  1

  0
ENDBLK
  5
1D
 67
     1
  8
0
  0
ENDSEC
  0
SECTION
  2
ENTITIES
  0
ATTDEF
  5
3930
  8
DEFPOINTS
 10
4286.7356356268792297
 20
144.5101413427838963
 30
0.0
 40
0.001
  1
K-22566T-4
  3

  2
MODELNUMBER
 70
     0
1001
ACDBATTR
1070
     0
1070
     1
  0
ATTDEF
  5
3931
  8
DEFPOINTS
 10
4286.7356356268792297
 20
144.5084746761172028
 30
0.0
 40
0.001
  1
PARALLEL
  3

  2
TRADENAME
 70
     0
1001
ACDBATTR
1070
     0
1070
     1
  0
ATTDEF
  5
3932
  8
DEFPOINTS
 10
4286.7356356268792297
 20
144.5068080094505945
 30
0.0
 40
0.001
  1
BATHROOM SINK FAUCET
  3

  2
PRODUCT
 70
     0
1001
ACDBATTR
1070
     0
1070
     1
  0
LINE
  5
6907
  8
0
 10
4280.3760441852500662
 20
147.075311364743186
 30
0.0
 11
4280.3598419931486205
 21
146.9070451663432095
 31
0.0
  0
LINE
  5
6908
  8
0
 10
4281.8004710934501418
 20
144.5223473587431045
 30
0.0
 11
4281.8004710934501418
 21
144.7487253114431098
 31
0.0
  0
LINE
  5
6909
  8
0
 10
4282.5774283252485475
 20
146.6761258551431126
 30
0.0
 11
4282.5768131562226699
 21
144.8274433413286033
 31
0.0
  0
LINE
  5
690A
  8
0
 10
4282.2675423882492396
 20
146.6763211729432044
 30
0.0
 11
4282.253380595750059
 21
144.8472809364432123
 31
0.0
  0
LINE
  5
690B
  8
0
 10
4285.7473214871488381
 20
144.5125048390432028
 30
0.0
 11
4287.7355104635498719
 21
144.5125048390432028
 31
0.0
  0
LINE
  5
690C
  8
0
 10
4283.7985025894504361
 20
144.5125048390432028
 30
0.0
 11
4281.8103136131494466
 21
144.5125048390432028
 31
0.0
  0
LINE
  5
690D
  8
0
 10
4285.7768490461503461
 20
144.7880953902431997
 30
0.0
 11
4287.7059829045501829
 21
144.7880953902431997
 31
0.0
  0
LINE
  5
690E
  8
0
 10
4283.7689750304498375
 20
144.7880953902431997
 30
0.0
 11
4281.8398411721500452
 21
144.7880953902431997
 31
0.0
  0
LINE
  5
690F
  8
0
 10
4283.032741920312219
 20
144.8274432206090125
 30
0.0
 11
4283.0343021915141435
 21
147.1109079886431061
 31
0.0
  0
LINE
  5
6910
  8
0
 10
4283.3358867816496058
 20
144.8274431403430924
 30
0.0
 11
4282.2731067917502514
 21
144.8274434217431121
 31
0.0
  0
LINE
  5
6911
  8
0
 10
4283.3555892036501973
 20
144.8471284864432107
 30
0.0
 11
4283.3555892036501973
 21
147.0715379811431092
 31
0.0
  0
LINE
  5
6912
  8
0
 10
4286.6090844462496534
 20
152.3669395795431001
 30
0.0
 11
4286.6376320266499533
 21
152.3799037488431054
 31
0.0
  0
LINE
  5
6913
  8
0
 10
4286.6405853675487378
 20
152.3812449347431084
 30
0.0
 11
4286.6691369159489113
 21
152.3942109060430994
 31
0.0
  0
LINE
  5
6914
  8
0
 10
4286.6720909317500627
 20
152.3955523984431011
 30
0.0
 11
4286.7036138965486316
 21
152.4098677641432005
 31
0.0
  0
LINE
  5
6915
  8
0
 10
4286.7065719394504413
 20
152.4112110853432114
 30
0.0
 11
4286.7243682311500379
 21
152.4192928259431028
 31
0.0
  0
LINE
  5
6916
  8
0
 10
4286.731187328849046
 20
152.418260585043214
 30
0.0
 11
4286.7133910370503145
 21
152.4101788444432088
 31
0.0
  0
LINE
  5
6917
  8
0
 10
4286.7104329942485492
 20
152.4088355233431002
 30
0.0
 11
4286.6789100294499804
 21
152.3945201576430861
 31
0.0
  0
LINE
  5
6918
  8
0
 10
4286.6759560135487845
 20
152.3931786652431981
 30
0.0
 11
4286.6474044651486111
 21
152.3802126939432071
 31
0.0
  0
LINE
  5
6919
  8
0
 10
4286.644451124248917
 20
152.3788715080432041
 30
0.0
 11
4286.6159035439486615
 21
152.3659073387431988
 31
0.0
  0
LINE
  5
691A
  8
0
 10
4283.8083451091488314
 20
144.7487253114431098
 30
0.0
 11
4283.8083451091488314
 21
144.5223473587431045
 31
0.0
  0
LINE
  5
691B
  8
0
 10
4286.6670986745502887
 20
152.3602269688431079
 30
0.0
 11
4286.6818826316502964
 21
152.3746931201432062
 31
0.0
  0
LINE
  5
691C
  8
0
 10
4286.6970940620485635
 20
152.3736244658431076
 30
0.0
 11
4286.6823101048503304
 21
152.359158314443107
 31
0.0
  0
LINE
  5
691D
  8
0
 10
4280.3892336131502816
 20
146.8746875162431138
 30
0.0
 11
4282.2214235789488157
 21
146.8746875162431138
 31
0.0
  0
LINE
  5
691E
  8
0
 10
4283.3161871176498607
 20
147.1109079886431061
 30
0.0
 11
4280.4152330119486578
 21
147.1109079886431061
 31
0.0
  0
LINE
  5
691F
  8
0
 10
4285.7374789674486237
 20
144.5223473587431045
 30
0.0
 11
4285.7374789674486237
 21
144.7487253114431098
 31
0.0
  0
LINE
  5
6920
  8
0
 10
4285.9638569201497376
 20
144.8077804295431861
 30
0.0
 11
4285.9638569201497376
 21
153.1817961776432071
 31
0.0
  0
LINE
  5
6921
  8
0
 10
4286.5161480513497736
 20
152.4070070091395053
 30
0.0
 11
4286.5161480513497736
 21
152.3920621493431042
 31
0.0
  0
LINE
  5
6922
  8
0
 10
4286.5406671755490606
 20
152.4260023915431077
 30
0.0
 11
4286.5406671755490606
 21
152.4369361233931102
 31
0.0
  0
LINE
  5
6923
  8
0
 10
4286.5496573728496514
 20
152.4405791491431899
 30
0.0
 11
4286.5496573728496514
 21
152.4528056786803916
 31
0.0
  0
LINE
  5
6924
  8
0
 10
4286.5535887641490262
 20
152.395345878803397
 30
0.0
 11
4286.5535887641490262
 21
152.3786435064432112
 31
0.0
  0
LINE
  5
6925
  8
0
 10
4286.5695309188486135
 20
152.4521811789431069
 30
0.0
 11
4286.5695309188486135
 21
152.4671169343918962
 31
0.0
  0
LINE
  5
6926
  8
0
 10
4286.5707092475486206
 20
152.4239379097431026
 30
0.0
 11
4286.5707092475486206
 21
152.4003213500431002
 31
0.0
  0
LINE
  5
6927
  8
0
 10
4286.6036769541497051
 20
152.4260023915431077
 30
0.0
 11
4286.6036769541497051
 21
152.4446284649013137
 31
0.0
  0
LINE
  5
6928
  8
0
 10
4286.6051148259502952
 20
152.4636264551432134
 30
0.0
 11
4286.6051148259502952
 21
152.482372957690103
 31
0.0
  0
LINE
  5
6929
  8
0
 10
4286.6090844462496534
 20
152.3853849122986048
 30
0.0
 11
4286.6090844462496534
 21
152.3669395795431001
 31
0.0
  0
LINE
  5
692A
  8
0
 10
4286.6240989878488108
 20
152.443920937843103
 30
0.0
 11
4286.6240989878488108
 21
152.4659080564541966
 31
0.0
  0
LINE
  5
692B
  8
0
 10
4286.6405853675487378
 20
152.4003746178968015
 30
0.0
 11
4286.6405853675487378
 21
152.3812449347431084
 31
0.0
  0
LINE
  5
692C
  8
0
 10
4286.644451124248917
 20
152.4710687932430915
 30
0.0
 11
4286.644451124248917
 21
152.4876178871431023
 31
0.0
  0
LINE
  5
692D
  8
0
 10
4286.6670986745502887
 20
152.3763434172257973
 30
0.0
 11
4286.6670986745502887
 21
152.3602269688431079
 31
0.0
  0
LINE
  5
692E
  8
0
 10
4286.6720909317500627
 20
152.4239379097431026
 30
0.0
 11
4286.6720909317500627
 21
152.3955523984431011
 31
0.0
  0
LINE
  5
692F
  8
0
 10
4286.6726309154491901
 20
152.4260023915431077
 30
0.0
 11
4286.6726309154491901
 21
152.4541426827572081
 31
0.0
  0
LINE
  5
6930
  8
0
 10
4286.6759560135487845
 20
152.4567616361431135
 30
0.0
 11
4286.6759590084639058
 21
152.4730655160508093
 31
0.0
  0
LINE
  5
6931
  8
0
 10
4286.6970940620485635
 20
152.4763158355430903
 30
0.0
 11
4286.6971353944300063
 21
152.4915739732836926
 31
0.0
  0
LINE
  5
6932
  8
0
 10
4286.7065719394504413
 20
152.4239379097431026
 30
0.0
 11
4286.7065719394504413
 21
152.4112110853432114
 31
0.0
  0
LINE
  5
6933
  8
0
 10
4286.7104329942485492
 20
152.4411047780430977
 30
0.0
 11
4286.7104329942485492
 21
152.4580936153153061
 31
0.0
  0
LINE
  5
6934
  8
0
 10
4286.7141395846501837
 20
152.4260023915431077
 30
0.0
 11
4286.7141395846501837
 21
152.435292559243095
 31
0.0
  0
LINE
  5
6935
  8
0
 10
4286.731187328849046
 20
152.4316797162431101
 30
0.0
 11
4286.7312305412424394
 21
152.4411407152981042
 31
0.0
  0
LINE
  5
6936
  8
0
 10
4286.7374789674486237
 20
152.3573662544432068
 30
0.0
 11
4286.7374789674486237
 21
152.3723359877430994
 31
0.0
  0
LINE
  5
6937
  8
0
 10
4286.7374789674486237
 20
152.3738846557432112
 30
0.0
 11
4286.7374789674486237
 21
152.3888564698430912
 31
0.0
  0
LINE
  5
6938
  8
0
 10
4286.7374789674486237
 20
152.4610838314432044
 30
0.0
 11
4286.7374789674486237
 21
152.4760556455431129
 31
0.0
  0
LINE
  5
6939
  8
0
 10
4286.7374789674486237
 20
152.4776043135431962
 30
0.0
 11
4286.7374789674486237
 21
152.4925740468430888
 31
0.0
  0
LINE
  5
693A
  8
0
 10
4286.6818826316502964
 20
152.4752471811432031
 30
0.0
 11
4286.6670986745502887
 21
152.48971333254309
 31
0.0
  0
LINE
  5
693B
  8
0
 10
4286.6823101048503304
 20
152.4907819868431034
 30
0.0
 11
4286.6970940620485635
 21
152.4763158355430903
 31
0.0
  0
LINE
  5
693C
  8
0
 10
4286.6051148259502952
 20
152.3863138462432119
 30
0.0
 11
4286.5647243039502428
 21
152.3757238884431047
 31
0.0
  0
LINE
  5
693D
  8
0
 10
4286.5535887641490262
 20
152.3786435064432112
 30
0.0
 11
4286.5939792861499882
 21
152.3892334642432047
 31
0.0
  0
LINE
  5
693E
  8
0
 10
4286.6240989878488108
 20
152.4060193634431073
 30
0.0
 11
4286.5746462553488527
 21
152.3985334564432037
 31
0.0
  0
LINE
  5
693F
  8
0
 10
4286.5695309188486135
 20
152.3977591223431034
 30
0.0
 11
4286.5200850592500501
 21
152.3902742557432077
 31
0.0
  0
LINE
  5
6940
  8
0
 10
4286.5161480513497736
 20
152.3920621493431042
 30
0.0
 11
4286.5655939110502004
 21
152.3995470160431012
 31
0.0
  0
LINE
  5
6941
  8
0
 10
4286.5707092475486206
 20
152.4003213500431002
 30
0.0
 11
4286.6201619799494438
 21
152.4078072570430891
 31
0.0
  0
LINE
  5
6942
  8
0
 10
4286.5496573728496514
 20
152.4093611521431058
 30
0.0
 11
4286.4944828936486374
 21
152.4054849586430862
 31
0.0
  0
LINE
  5
6943
  8
0
 10
4286.4904070032498566
 20
152.4094732310431084
 30
0.0
 11
4286.5455814823490073
 21
152.4133494246432008
 31
0.0
  0
LINE
  5
6944
  8
0
 10
4286.7141395846501837
 20
152.4239379097431026
 30
0.0
 11
4286.6785470012500809
 21
152.4239379097431026
 31
0.0
  0
LINE
  5
6945
  8
0
 10
4286.6726309154491901
 20
152.4239379097431026
 30
0.0
 11
4286.6095849859502778
 21
152.4239379097431026
 31
0.0
  0
LINE
  5
6946
  8
0
 10
4286.6036769541497051
 20
152.4239379097431026
 30
0.0
 11
4286.5465738573502676
 21
152.4239379097431026
 31
0.0
  0
LINE
  5
6947
  8
0
 10
4286.5406671755490606
 20
152.4239379097431026
 30
0.0
 11
4286.4835720148512337
 21
152.4239379097431026
 31
0.0
  0
LINE
  5
6948
  8
0
 10
4286.4835720148512337
 20
152.4260023915431077
 30
0.0
 11
4286.5406671755490606
 21
152.4260023915431077
 31
0.0
  0
LINE
  5
6949
  8
0
 10
4286.5465738573502676
 20
152.4260023915431077
 30
0.0
 11
4286.6036769541497051
 21
152.4260023915431077
 31
0.0
  0
LINE
  5
694A
  8
0
 10
4286.6095849859502778
 20
152.4260023915431077
 30
0.0
 11
4286.6726309154491901
 21
152.4260023915431077
 31
0.0
  0
LINE
  5
694B
  8
0
 10
4286.6785470012500809
 20
152.4260023915431077
 30
0.0
 11
4286.7141395846501837
 21
152.4260023915431077
 31
0.0
  0
LINE
  5
694C
  8
0
 10
4286.5455814823490073
 20
152.4365908767431108
 30
0.0
 11
4286.4904070032498566
 21
152.4404670702431019
 31
0.0
  0
LINE
  5
694D
  8
0
 10
4286.4944828936486374
 20
152.4444553427431117
 30
0.0
 11
4286.5496573728496514
 21
152.4405791491431899
 31
0.0
  0
LINE
  5
694E
  8
0
 10
4286.6201619799494438
 20
152.4421330442432065
 30
0.0
 11
4286.5707092475486206
 21
152.4496189512431101
 31
0.0
  0
LINE
  5
694F
  8
0
 10
4286.5655939110502004
 20
152.4503932853430967
 30
0.0
 11
4286.5161480513497736
 21
152.4578781519431061
 31
0.0
  0
LINE
  5
6950
  8
0
 10
4286.5200850592500501
 20
152.4596660455430879
 30
0.0
 11
4286.5695309188486135
 21
152.4521811789431069
 31
0.0
  0
LINE
  5
6951
  8
0
 10
4286.5746462553488527
 20
152.4514068449431079
 30
0.0
 11
4286.6240989878488108
 21
152.443920937843103
 31
0.0
  0
LINE
  5
6952
  8
0
 10
4286.5939792861499882
 20
152.4607068370432046
 30
0.0
 11
4286.5535887641490262
 21
152.4712967948431128
 31
0.0
  0
LINE
  5
6953
  8
0
 10
4286.5647243039502428
 20
152.4742164128431057
 30
0.0
 11
4286.6051148259502952
 21
152.4636264551432134
 31
0.0
  0
LINE
  5
6954
  8
0
 10
4286.7243682311500379
 20
152.4306474753431075
 30
0.0
 11
4286.7065719394504413
 21
152.4387292159431126
 31
0.0
  0
LINE
  5
6955
  8
0
 10
4286.7036138965486316
 20
152.4400725371432088
 30
0.0
 11
4286.6720909317500627
 21
152.4543879028431093
 31
0.0
  0
LINE
  5
6956
  8
0
 10
4286.6691369159489113
 20
152.455729395243111
 30
0.0
 11
4286.6405853675487378
 21
152.468695366543102
 31
0.0
  0
LINE
  5
6957
  8
0
 10
4286.6376320266499533
 20
152.4700365524431049
 30
0.0
 11
4286.6090844462496534
 21
152.4830007217431103
 31
0.0
  0
LINE
  5
6958
  8
0
 10
4286.6159035439486615
 20
152.4840329626431128
 30
0.0
 11
4286.644451124248917
 21
152.4710687932430915
 31
0.0
  0
LINE
  5
6959
  8
0
 10
4286.6474044651486111
 20
152.4697276074431045
 30
0.0
 11
4286.6759560135487845
 21
152.4567616361431135
 31
0.0
  0
LINE
  5
695A
  8
0
 10
4286.6789100294499804
 20
152.4554201437431971
 30
0.0
 11
4286.7104329942485492
 21
152.4411047780430977
 31
0.0
  0
LINE
  5
695B
  8
0
 10
4286.7133910370503145
 20
152.4397614568430868
 30
0.0
 11
4286.731187328849046
 21
152.4316797162431101
 31
0.0
  0
LINE
  5
695C
  8
0
 10
4285.9953529831500418
 20
152.6621111382430911
 30
0.0
 11
4287.4874789675486682
 21
152.6621111382430911
 31
0.0
  0
LINE
  5
695D
  8
0
 10
4285.9953529831500418
 20
153.2132922406431135
 30
0.0
 11
4287.4874789675486682
 21
153.2132922406431135
 31
0.0
  0
ARC
  5
695E
  8
0
 10
4282.0596667614718172
 20
146.6668917949521074
 30
0.0
 40
0.2080893783396932
 50
2.5971946803801451
 51
86.955724341253358
  0
ARC
  5
695F
  8
0
 10
4282.3516521957499208
 20
144.8274654689431031
 30
0.0
 40
0.0393700787
 50
270.0
 51
359.9678689891110253
  0
ARC
  5
6960
  8
0
 10
4283.2571640068499619
 20
144.8274654689431031
 30
0.0
 40
0.0393700787
 50
180.0324495939829035
 51
270.0
  0
ARC
  5
6961
  8
0
 10
4281.8427137127628157
 20
144.7458527708294014
 30
0.0
 40
0.0423401744926213
 50
93.8901817842130271
 51
176.1098182158056034
  0
ARC
  5
6962
  8
0
 10
4280.4152330119486578
 20
147.0715379099432027
 30
0.0
 40
0.0393700787
 50
90.0
 51
174.5000000000007105
  0
ARC
  5
6963
  8
0
 10
4283.3142247189916816
 20
147.0695418919638939
 30
0.0
 40
0.0414126184027112
 50
2.762728370576196
 51
87.2839369516220245
  0
ARC
  5
6964
  8
0
 10
4280.3892336131502816
 20
146.9042150752432008
 30
0.0
 40
0.0295275591
 50
174.5000000000007105
 51
270.0
  0
ARC
  5
6965
  8
0
 10
4282.2743732974222439
 20
144.8484293287218918
 30
0.0
 40
0.0210240892393042
 50
183.1312079037595026
 51
266.5463716383241035
  0
ARC
  5
6966
  8
0
 10
4283.3329850971258566
 20
144.8500497713174013
 30
0.0
 40
0.022792093740714
 50
277.3142334817777055
 51
352.6360872910260014
  0
ARC
  5
6967
  8
0
 10
4281.8111444942251183
 20
144.523178239817895
 30
0.0
 40
0.0107056922924308
 50
184.4512675997490874
 51
265.5487324002476726
  0
ARC
  5
6968
  8
0
 10
4285.781428275988219
 20
144.7441460817163943
 30
0.0
 40
0.0441872274066895
 50
95.9483808370331701
 51
174.0516193085151997
  0
ARC
  5
6969
  8
0
 10
4283.7665720476989009
 20
144.7463223286933953
 30
0.0
 40
0.0418421197954576
 50
3.2922941192365212
 51
86.7077058807452801
  0
ARC
  5
696A
  8
0
 10
4285.9844820536136467
 20
144.8087205237127932
 30
0.0
 40
0.0206465471082764
 50
182.6097369824379939
 51
267.3902633087291747
  0
ARC
  5
696B
  8
0
 10
4285.7478747752529671
 20
144.5229006468470061
 30
0.0
 40
0.0104105210062535
 50
183.0465349453799888
 51
266.9534650546452781
  0
ARC
  5
696C
  8
0
 10
4283.7985025894504361
 20
144.5223473587431045
 30
0.0
 40
0.0098425197
 50
270.0
 51
0.0
  0
ARC
  5
696D
  8
0
 10
4286.7412302504490071
 20
151.5270028835431049
 30
0.0
 40
0.9655784501999999
 50
90.2225952978072172
 51
93.498394357900338
  0
ARC
  5
696E
  8
0
 10
4286.7408413411485526
 20
153.3109647813431025
 30
0.0
 40
0.9536044546999999
 50
266.4810335413743019
 51
269.7979768029194929
  0
ARC
  5
696F
  8
0
 10
4286.7412684626497139
 20
153.1246489798431867
 30
0.0
 40
0.7523225361
 50
266.633806344293987
 51
269.7113963928113094
  0
ARC
  5
6970
  8
0
 10
4286.7409937182492286
 20
151.7339026622431959
 30
0.0
 40
0.7437099566000001
 50
90.2707791350256201
 51
93.3840181279025927
  0
ARC
  5
6971
  8
0
 10
4285.9973937991380808
 20
153.1797553616547987
 30
0.0
 40
0.0335989163840477
 50
93.4823195419141371
 51
176.5176804580623013
  0
ARC
  5
6972
  8
0
 10
4285.9975787616949674
 20
152.6958329797878093
 30
0.0
 40
0.0337952169292079
 50
183.7762767524706078
 51
266.2237232475188762
  0
ARC
  5
6973
  8
0
 10
4286.9732699312507975
 20
152.6781949866694106
 30
0.0
 40
0.6112585453320289
 50
191.8512545369358122
 51
196.8306846147802105
  0
ARC
  5
6974
  8
0
 10
4286.4969578703748994
 20
152.4504562096342113
 30
0.0
 40
0.1721962487725572
 50
107.7531657610487059
 51
129.311734671145814
  0
ARC
  5
6975
  8
0
 10
4286.7874551304630586
 20
149.8577847255120048
 30
0.0
 40
2.783271612975394
 50
90.9477945222429867
 51
94.5335525451889538
  0
ARC
  5
6976
  8
0
 10
4286.6817486972613551
 20
151.4150979286260963
 30
0.0
 40
1.222603967546946
 50
95.3639515267425395
 51
101.1916248641553011
  0
ARC
  5
6977
  8
0
 10
4286.4153037535588737
 20
152.5541817895779104
 30
0.0
 40
0.0402915744416898
 50
132.9226521742207012
 51
182.1647919898815076
  0
ARC
  5
6978
  8
0
 10
4286.5080859001591307
 20
152.1780020036435985
 30
0.0
 40
0.4410647202188116
 50
98.2951627370223662
 51
122.2840290784595965
  0
ARC
  5
6979
  8
0
 10
4286.2973350561360348
 20
152.5217010668008868
 30
0.0
 40
0.0383153488631508
 50
130.3926481325405859
 51
207.1431526474638929
  0
ARC
  5
697A
  8
0
 10
4286.4547366152191898
 20
152.5343367023334906
 30
0.0
 40
0.0743322171015955
 50
206.4667238201159023
 51
250.6076064526278913
  0
ARC
  5
697B
  8
0
 10
4286.4225480374243489
 20
152.5070976439166941
 30
0.0
 40
0.0348542656136744
 50
125.813061497404405
 51
189.7276855882184918
  0
ARC
  5
697C
  8
0
 10
4286.5691154152209492
 20
152.2811235465345874
 30
0.0
 40
0.3041603954109566
 50
98.5021144075292483
 51
123.2934855264996941
  0
ARC
  5
697D
  8
0
 10
4286.8135680558034437
 20
150.5788742443311037
 30
0.0
 40
2.023868230361809
 50
92.0430608221329152
 51
98.2217196734942348
  0
ARC
  5
697E
  8
0
 10
4286.4153261001183637
 20
152.6354308235200108
 30
0.0
 40
0.2008640772630353
 50
220.7853346434754087
 51
258.8051124711703892
  0
ARC
  5
697F
  8
0
 10
4286.5920721276434051
 20
153.158548831155997
 30
0.0
 40
0.7517817064198061
 50
253.3230126597314893
 51
259.6863415214393171
  0
ARC
  5
6980
  8
0
 10
4286.5610761357738738
 20
152.5206421285953979
 30
0.0
 40
0.1426521799999614
 50
183.8009759177768103
 51
203.2978600893297028
  0
ARC
  5
6981
  8
0
 10
4286.5478194124134461
 20
152.4038813961336984
 30
0.0
 40
0.1678578777939321
 50
104.9455214977544983
 51
140.2636203279811866
  0
ARC
  5
6982
  8
0
 10
4286.7952714882731016
 20
151.075584141163489
 30
0.0
 40
1.51856914962162
 50
92.0324005627234669
 51
101.0379026314973032
  0
ARC
  5
6983
  8
0
 10
4286.5943646541018097
 20
152.5327098684821863
 30
0.0
 40
0.1780114957595499
 50
202.6276460765998877
 51
226.499439205317799
  0
ARC
  5
6984
  8
0
 10
4286.636395199621802
 20
152.6844903438943106
 30
0.0
 40
0.3255601988841029
 50
239.6362348660397004
 51
264.3291202461754779
  0
ARC
  5
6985
  8
0
 10
4286.7661431778205952
 20
153.7238986527246141
 30
0.0
 40
1.372956412504265
 50
263.2271321579323171
 51
268.9680364715496808
  0
ARC
  5
6986
  8
0
 10
4286.5061945725910846
 20
152.433748240069292
 30
0.0
 40
0.0457251748988373
 50
184.5291103991349928
 51
221.2724139914261059
  0
ARC
  5
6987
  8
0
 10
4286.5515331198166677
 20
152.3639218272398068
 30
0.0
 40
0.1124772668144276
 50
105.7120820375853043
 51
143.9349813828860931
  0
ARC
  5
6988
  8
0
 10
4286.7548604014145894
 20
151.4607046160957111
 30
0.0
 40
1.0381578142848871
 50
90.742016670164503
 51
103.0142637742256966
  0
LINE
  5
6989
  8
0
 10
4286.644451124248917
 20
152.3788715080432041
 30
0.0
 11
4286.6818826316502964
 21
152.3746931201432062
 31
0.0
  0
LINE
  5
698A
  8
0
 10
4286.6159035439486615
 20
152.3659073387431988
 30
0.0
 11
4286.6670986745502887
 21
152.3602269688431079
 31
0.0
  0
ARC
  5
698B
  8
0
 10
4286.6898269236080523
 20
152.8910833672404124
 30
0.0
 40
0.5303263691649392
 50
256.3554717822082125
 51
261.2426286214889046
  0
ARC
  5
698C
  8
0
 10
4286.701094171900877
 20
152.7875169247355984
 30
0.0
 40
0.4125238720861247
 50
256.5460519869815244
 51
261.1505478488004997
  0
ARC
  5
698D
  8
0
 10
4286.6204964673343056
 20
152.6254498088277103
 30
0.0
 40
0.2557146684142095
 50
246.8792802960969084
 51
254.8320193856555989
  0
ARC
  5
698E
  8
0
 10
4286.6440276193379759
 20
152.5720703513314902
 30
0.0
 40
0.1895630843152649
 50
246.8592257431174062
 51
254.6913060248465115
  0
ARC
  5
698F
  8
0
 10
4286.5552007543246873
 20
152.4792911620052109
 30
0.0
 40
0.0955720370171265
 50
230.5570275085271135
 51
245.8817876263493076
  0
ARC
  5
6990
  8
0
 10
4286.5962637726943285
 20
152.467196035123095
 30
0.0
 40
0.0742767136845216
 50
231.1363001958760037
 51
245.612008560719687
  0
ARC
  5
6991
  8
0
 10
4286.5591248032651492
 20
152.4260697755883029
 30
0.0
 40
0.0185803356496593
 50
186.5884989157783878
 51
223.2052285611958098
  0
ARC
  5
6992
  8
0
 10
4286.5068667991636175
 20
152.4260981777352981
 30
0.0
 40
0.0233947373159424
 50
185.2982349000614022
 51
225.2860038548068928
  0
ARC
  5
6993
  8
0
 10
4286.5076156405848451
 20
152.4234882738373926
 30
0.0
 40
0.0241747125381099
 50
135.3851917308878114
 51
174.030569514256598
  0
ARC
  5
6994
  8
0
 10
4286.5591248044183885
 20
152.4238705252824957
 30
0.0
 40
0.0185803368432721
 50
136.7947727148099091
 51
173.4115002131719052
  0
ARC
  5
6995
  8
0
 10
4286.5563302080672656
 20
152.368826137817706
 30
0.0
 40
0.0976978348694336
 50
114.2859055229529019
 51
129.2752789599454104
  0
ARC
  5
6996
  8
0
 10
4286.5962234034732319
 20
152.382809819981702
 30
0.0
 40
0.0742003409685607
 50
114.3805020738981
 51
128.8711898585708013
  0
ARC
  5
6997
  8
0
 10
4286.6205415212170919
 20
152.2243607095919913
 30
0.0
 40
0.2558517185365274
 50
105.1701140291824004
 51
113.1185862890690998
  0
ARC
  5
6998
  8
0
 10
4286.646706780351451
 20
152.2701871281300043
 30
0.0
 40
0.1976814309182995
 50
105.4697528447652957
 51
112.979715396803897
  0
ARC
  5
6999
  8
0
 10
4286.700730915753411
 20
152.0642660994298012
 30
0.0
 40
0.4106472091036833
 50
98.8389249754664263
 51
103.4644748495220057
  0
ARC
  5
699A
  8
0
 10
4286.6903843837608292
 20
151.956041799474491
 30
0.0
 40
0.5331935723522713
 50
98.7705194224457728
 51
103.6313801738485978
  0
ARC
  5
699B
  8
0
 10
4286.7284276469481483
 20
151.7034355320161865
 30
0.0
 40
0.7886659764798308
 50
94.459990054195174
 51
98.202753641040033
  0
ARC
  5
699C
  8
0
 10
4286.7303311012974518
 20
151.8714766250458013
 30
0.0
 40
0.6057112667115639
 50
94.5877655965935134
 51
98.1510737312822386
  0
ARC
  5
699D
  8
0
 10
4286.739035920059905
 20
151.8096608356040065
 30
0.0
 40
0.6663966287543842
 50
90.1338645647828542
 51
97.9033742613358413
  0
ARC
  5
699E
  8
0
 10
4286.7396961925433061
 20
151.9894975864553999
 30
0.0
 40
0.4715914572474712
 50
90.2693816993357245
 51
97.7678570071605009
  0
ARC
  5
699F
  8
0
 10
4286.7650154563725664
 20
151.6273298116767876
 30
0.0
 40
0.8325549487015134
 50
91.6243153699207511
 51
95.9363231159105823
  0
ARC
  5
69A0
  8
0
 10
4286.7535203174602429
 20
151.9989691304213864
 30
0.0
 40
0.4442301749310735
 50
91.5613832706170001
 51
95.566053854032134
  0
ARC
  5
69A1
  8
0
 10
4286.680685628432002
 20
152.1813599040324902
 30
0.0
 40
0.2901201456967818
 50
97.9448293434848125
 51
111.4384543544726967
  0
ARC
  5
69A2
  8
0
 10
4286.6983336753246476
 20
152.252579332533287
 30
0.0
 40
0.2052374204367379
 50
98.1785547555707439
 51
111.2047291803825004
  0
ARC
  5
69A3
  8
0
 10
4286.6286445167197598
 20
152.4169752365851878
 30
0.0
 40
0.0265493637629928
 50
108.6327239788923009
 51
160.1222727925928098
  0
ARC
  5
69A4
  8
0
 10
4286.7016341470953193
 20
152.253085943277199
 30
0.0
 40
0.2034583016198415
 50
98.3491654498699432
 51
110.2393250030679042
  0
ARC
  5
69A5
  8
0
 10
4286.6388557226518969
 20
152.4127746246331014
 30
0.0
 40
0.032120863072387
 50
103.6980780151613004
 51
155.6812675936077994
  0
ARC
  5
69A6
  8
0
 10
4286.6383910198892409
 20
152.4366903942002978
 30
0.0
 40
0.0315025943557888
 50
203.879060671482307
 51
256.3187426514247136
  0
ARC
  5
69A7
  8
0
 10
4286.6990860633477496
 20
152.5867348530549066
 30
0.0
 40
0.1930789167190674
 50
249.3325099836241918
 51
261.9629178421038205
  0
ARC
  5
69A8
  8
0
 10
4286.5835934186616214
 20
152.4123106394289948
 30
0.0
 40
0.039470393913091
 50
109.0520039275242965
 51
159.702994420373301
  0
ARC
  5
69A9
  8
0
 10
4286.5824362059811392
 20
152.436447026456193
 30
0.0
 40
0.0379813908430677
 50
199.2292410450125999
 51
252.0157606070968939
  0
ARC
  5
69AA
  8
0
 10
4286.6806263649386892
 20
152.6683543623576895
 30
0.0
 40
0.2898880902987508
 50
248.5561196064057015
 51
262.0605965330453273
  0
ARC
  5
69AB
  8
0
 10
4286.7387068998450559
 20
153.035596118769206
 30
0.0
 40
0.6617126023570351
 50
262.0690842213442124
 51
269.8936768260006147
  0
ARC
  5
69AC
  8
0
 10
4286.7396962898228594
 20
152.8604440887195892
 30
0.0
 40
0.4715928315783042
 50
262.2321538415259852
 51
269.7306072666747809
  0
ARC
  5
69AD
  8
0
 10
4286.6967382926368373
 20
152.5912761154694977
 30
0.0
 40
0.1989887754911017
 50
248.5898188504810946
 51
262.0268972107099898
  0
ARC
  5
69AE
  8
0
 10
4286.6290136771067409
 20
152.4333423348693941
 30
0.0
 40
0.0270257792144763
 50
200.3638000707157119
 51
250.8812014146188858
  0
ARC
  5
69AF
  8
0
 10
4286.7043456913261252
 20
152.452627111286489
 30
0.0
 40
0.0427656087772394
 50
222.1325086540497011
 51
269.0195205165276207
  0
ARC
  5
69B0
  8
0
 10
4286.7085901463451592
 20
152.4528746391949028
 30
0.0
 40
0.0417124067709921
 50
223.9253026950098899
 51
267.226726754792594
  0
ARC
  5
69B1
  8
0
 10
4286.708590501873914
 20
152.3970648792067095
 30
0.0
 40
0.0417132059417861
 50
92.7737089840347267
 51
136.0742615662007893
  0
ARC
  5
69B2
  8
0
 10
4286.7047455774481932
 20
152.396432625882511
 30
0.0
 40
0.0436545823080789
 50
91.4854753013607649
 51
137.3624953601926109
  0
ARC
  5
69B3
  8
0
 10
4286.7540966800652313
 20
153.0573620639092951
 30
0.0
 40
0.6670925161724791
 50
263.5285575167508227
 51
268.910803814861822
  0
ARC
  5
69B4
  8
0
 10
4286.7533398997748009
 20
152.8480742195447135
 30
0.0
 40
0.4413293948770646
 50
264.4207795520995887
 51
268.4517829548324244
  0
ARC
  5
69B5
  8
0
 10
4286.7450356969411587
 20
152.6958503013499069
 30
0.0
 40
0.2874187986038176
 50
263.6789498906156268
 51
269.278404008639825
  0
ARC
  5
69B6
  8
0
 10
4286.7473287454440651
 20
152.6365411443921118
 30
0.0
 40
0.2188765586337422
 50
265.7707878492626037
 51
268.4520133545836984
  0
ARC
  5
69B7
  8
0
 10
4286.7262918810920382
 20
152.4371132453754001
 30
0.0
 40
0.0179239442602072
 50
227.3130461235263908
 51
263.838983798967206
  0
ARC
  5
69B8
  8
0
 10
4286.7262532137528979
 20
152.4129122028220138
 30
0.0
 40
0.0178351633245511
 50
96.0668707877563861
 51
132.7810992897846063
  0
ARC
  5
69B9
  8
0
 10
4286.7565734335130401
 20
152.0301848404932912
 30
0.0
 40
0.4022966437385793
 50
92.1592623259473527
 51
93.6179364702556853
  0
ARC
  5
69BA
  8
0
 10
4286.7473169619270266
 20
152.1170180684279103
 30
0.0
 40
0.3245215911839331
 50
91.0419037431841502
 51
96.0007423575357421
  0
ARC
  5
69BB
  8
0
 10
4285.9973926245957045
 20
152.4854130594349044
 30
0.0
 40
0.1770317298921966
 50
49.8013721991062823
 51
86.4817509688101467
  0
ARC
  5
69BC
  8
0
 10
4285.87351633516937
 20
152.3746213705703099
 30
0.0
 40
0.342391057109956
 50
23.9888040326704015
 51
45.9313976162911999
  0
ARC
  5
69BD
  8
0
 10
4286.3285842684799718
 20
152.5984781896823961
 30
0.0
 40
0.1655348564068611
 50
210.757300568939911
 51
250.8640116769001907
  0
ARC
  5
69BE
  8
0
 10
4286.5694398698406076
 20
153.1618817129671015
 30
0.0
 40
0.7779430808473379
 50
247.7060087152918868
 51
265.2508556990408124
  0
ARC
  5
69BF
  8
0
 10
4286.2548243721603285
 20
152.5215012238082863
 30
0.0
 40
0.0689200506966624
 50
126.4576372996181988
 51
186.3962718487902066
  0
ARC
  5
69C0
  8
0
 10
4286.4621367870850008
 20
152.0714827570859882
 30
0.0
 40
0.5631311218732277
 50
98.8101094237832172
 51
116.1592949459483037
  0
ARC
  5
69C1
  8
0
 10
4286.8335086505203435
 20
148.614873936849591
 30
0.0
 40
4.0391032110025344
 50
91.3064729004216531
 51
96.5054492107886546
  0
ARC
  5
69C2
  8
0
 10
4282.2149838498908139
 20
146.4447171485496142
 30
0.0
 40
0.4300185893712497
 50
32.556873468034361
 51
89.1419368886073045
  0
LINE
  5
69C3
  8
0
 10
4293.1067877654495533
 20
147.075311364743186
 30
0.0
 11
4293.1229899575500895
 21
146.9070451663432095
 31
0.0
  0
LINE
  5
69C4
  8
0
 10
4291.6823608572485682
 20
144.5223473587431045
 30
0.0
 11
4291.6823608572485682
 21
144.7487253114431098
 31
0.0
  0
LINE
  5
69C5
  8
0
 10
4290.9054036254501625
 20
146.6761258551431126
 30
0.0
 11
4290.9060187944760401
 21
144.8274433413286033
 31
0.0
  0
LINE
  5
69C6
  8
0
 10
4291.2152895624485609
 20
146.6763211729432044
 30
0.0
 11
4291.2294513549495605
 21
144.8472809364432123
 31
0.0
  0
LINE
  5
69C7
  8
0
 10
4289.6843293612491834
 20
144.5125048390432028
 30
0.0
 11
4291.6725183375501729
 21
144.5125048390432028
 31
0.0
  0
LINE
  5
69C8
  8
0
 10
4289.713856920249782
 20
144.7880953902431997
 30
0.0
 11
4291.6429907785495743
 21
144.7880953902431997
 31
0.0
  0
LINE
  5
69C9
  8
0
 10
4290.4500900303874005
 20
144.8274432206090125
 30
0.0
 11
4290.4485297591845665
 21
147.1109079886431061
 31
0.0
  0
LINE
  5
69CA
  8
0
 10
4290.1469451690500136
 20
144.8274431403430924
 30
0.0
 11
4291.2097251589502775
 21
144.8274434217431121
 31
0.0
  0
LINE
  5
69CB
  8
0
 10
4290.1272427470503317
 20
144.8471284864432107
 30
0.0
 11
4290.1272427470503317
 21
147.0715379811431092
 31
0.0
  0
LINE
  5
69CC
  8
0
 10
4286.8737475044499661
 20
152.3669395795431001
 30
0.0
 11
4286.8451999240496662
 21
152.3799037488431054
 31
0.0
  0
LINE
  5
69CD
  8
0
 10
4286.8422465831499721
 20
152.3812449347431084
 30
0.0
 11
4286.8136950347497987
 21
152.3942109060430994
 31
0.0
  0
LINE
  5
69CE
  8
0
 10
4286.8107410189486473
 20
152.3955523984431011
 30
0.0
 11
4286.7792180541491689
 21
152.4098677641432005
 31
0.0
  0
LINE
  5
69CF
  8
0
 10
4286.7762600112500877
 20
152.4112110853432114
 30
0.0
 11
4286.7584637195486721
 21
152.4192928259431028
 31
0.0
  0
LINE
  5
69D0
  8
0
 10
4286.7516446218487545
 20
152.418260585043214
 30
0.0
 11
4286.7694409136502145
 21
152.4101788444432088
 31
0.0
  0
LINE
  5
69D1
  8
0
 10
4286.7723989564501608
 20
152.4088355233431002
 30
0.0
 11
4286.8039219212496391
 21
152.3945201576430861
 31
0.0
  0
LINE
  5
69D2
  8
0
 10
4286.8068759371499254
 20
152.3931786652431981
 30
0.0
 11
4286.8354274855500989
 21
152.3802126939432071
 31
0.0
  0
LINE
  5
69D3
  8
0
 10
4286.8383808264488835
 20
152.3788715080432041
 30
0.0
 11
4286.8669284067500485
 21
152.3659073387431988
 31
0.0
  0
LINE
  5
69D4
  8
0
 10
4289.6744868415498786
 20
144.7487253114431098
 30
0.0
 11
4289.6744868415498786
 21
144.5223473587431045
 31
0.0
  0
LINE
  5
69D5
  8
0
 10
4286.8157332761502403
 20
152.3602269688431079
 30
0.0
 11
4286.8009493190502326
 21
152.3746931201432062
 31
0.0
  0
LINE
  5
69D6
  8
0
 10
4286.7857378886501465
 20
152.3736244658431076
 30
0.0
 11
4286.8005218458501986
 21
152.359158314443107
 31
0.0
  0
LINE
  5
69D7
  8
0
 10
4293.0935983375502474
 20
146.8746875162431138
 30
0.0
 11
4291.2614083717498943
 21
146.8746875162431138
 31
0.0
  0
LINE
  5
69D8
  8
0
 10
4290.1666448330488493
 20
147.1109079886431061
 30
0.0
 11
4293.0675989387500522
 21
147.1109079886431061
 31
0.0
  0
LINE
  5
69D9
  8
0
 10
4287.7453529832491768
 20
144.5223473587431045
 30
0.0
 11
4287.7453529832491768
 21
144.7487253114431098
 31
0.0
  0
LINE
  5
69DA
  8
0
 10
4287.5189750305498819
 20
144.8077804295431861
 30
0.0
 11
4287.5189750305498819
 21
153.1817961776432071
 31
0.0
  0
LINE
  5
69DB
  8
0
 10
4286.9666838993498459
 20
152.4070070091395053
 30
0.0
 11
4286.9666838993498459
 21
152.3920621493431042
 31
0.0
  0
LINE
  5
69DC
  8
0
 10
4286.9421647751487399
 20
152.4260023915431077
 30
0.0
 11
4286.9421647751487399
 21
152.4369361233931102
 31
0.0
  0
LINE
  5
69DD
  8
0
 10
4286.933174577849968
 20
152.4405791491431899
 30
0.0
 11
4286.933174577849968
 21
152.4528056786803916
 31
0.0
  0
LINE
  5
69DE
  8
0
 10
4286.9292431865487742
 20
152.395345878803397
 30
0.0
 11
4286.9292431865487742
 21
152.3786435064432112
 31
0.0
  0
LINE
  5
69DF
  8
0
 10
4286.9133010318500965
 20
152.4521811789431069
 30
0.0
 11
4286.9133010318500965
 21
152.4671169343918962
 31
0.0
  0
LINE
  5
69E0
  8
0
 10
4286.9121227031491799
 20
152.4239379097431026
 30
0.0
 11
4286.9121227031491799
 21
152.4003213500431002
 31
0.0
  0
LINE
  5
69E1
  8
0
 10
4286.8791549965499144
 20
152.4260023915431077
 30
0.0
 11
4286.8791549965499144
 21
152.4446284649013137
 31
0.0
  0
LINE
  5
69E2
  8
0
 10
4286.8777171247502338
 20
152.4636264551432134
 30
0.0
 11
4286.8777171247502338
 21
152.482372957690103
 31
0.0
  0
LINE
  5
69E3
  8
0
 10
4286.8737475044499661
 20
152.3853849122986048
 30
0.0
 11
4286.8737475044499661
 21
152.3669395795431001
 31
0.0
  0
LINE
  5
69E4
  8
0
 10
4286.8587329628498992
 20
152.443920937843103
 30
0.0
 11
4286.8587329628498992
 21
152.4659080564541966
 31
0.0
  0
LINE
  5
69E5
  8
0
 10
4286.8422465831499721
 20
152.4003746178968015
 30
0.0
 11
4286.8422465831499721
 21
152.3812449347431084
 31
0.0
  0
LINE
  5
69E6
  8
0
 10
4286.8383808264488835
 20
152.4710687932430915
 30
0.0
 11
4286.8383808264488835
 21
152.4876178871431023
 31
0.0
  0
LINE
  5
69E7
  8
0
 10
4286.8157332761502403
 20
152.3763434172257973
 30
0.0
 11
4286.8157332761502403
 21
152.3602269688431079
 31
0.0
  0
LINE
  5
69E8
  8
0
 10
4286.8107410189486473
 20
152.4239379097431026
 30
0.0
 11
4286.8107410189486473
 21
152.3955523984431011
 31
0.0
  0
LINE
  5
69E9
  8
0
 10
4286.8102010352486104
 20
152.4260023915431077
 30
0.0
 11
4286.8102010352486104
 21
152.4541426827572081
 31
0.0
  0
LINE
  5
69EA
  8
0
 10
4286.8068759371499254
 20
152.4567616361431135
 30
0.0
 11
4286.8068729422348042
 21
152.4730655160508093
 31
0.0
  0
LINE
  5
69EB
  8
0
 10
4286.7857378886501465
 20
152.4763158355430903
 30
0.0
 11
4286.7856965562677942
 21
152.4915739732836926
 31
0.0
  0
LINE
  5
69EC
  8
0
 10
4286.7762600112500877
 20
152.4239379097431026
 30
0.0
 11
4286.7762600112500877
 21
152.4112110853432114
 31
0.0
  0
LINE
  5
69ED
  8
0
 10
4286.7723989564501608
 20
152.4411047780430977
 30
0.0
 11
4286.7723989564501608
 21
152.4580936153153061
 31
0.0
  0
LINE
  5
69EE
  8
0
 10
4286.7686923660494358
 20
152.4260023915431077
 30
0.0
 11
4286.7686923660494358
 21
152.435292559243095
 31
0.0
  0
LINE
  5
69EF
  8
0
 10
4286.7516446218487545
 20
152.4316797162431101
 30
0.0
 11
4286.7516014094571801
 21
152.4411407152981042
 31
0.0
  0
LINE
  5
69F0
  8
0
 10
4286.7453529832500863
 20
152.3573662544432068
 30
0.0
 11
4286.7453529832500863
 21
152.3723359877430994
 31
0.0
  0
LINE
  5
69F1
  8
0
 10
4286.7453529832500863
 20
152.3738846557432112
 30
0.0
 11
4286.7453529832500863
 21
152.3888564698430912
 31
0.0
  0
LINE
  5
69F2
  8
0
 10
4286.7453529832500863
 20
152.4610838314432044
 30
0.0
 11
4286.7453529832500863
 21
152.4760556455431129
 31
0.0
  0
LINE
  5
69F3
  8
0
 10
4286.7453529832500863
 20
152.4776043135431962
 30
0.0
 11
4286.7453529832500863
 21
152.4925740468430888
 31
0.0
  0
LINE
  5
69F4
  8
0
 10
4286.8009493190502326
 20
152.4752471811432031
 30
0.0
 11
4286.8157332761502403
 21
152.48971333254309
 31
0.0
  0
LINE
  5
69F5
  8
0
 10
4286.8005218458501986
 20
152.4907819868431034
 30
0.0
 11
4286.7857378886501465
 21
152.4763158355430903
 31
0.0
  0
LINE
  5
69F6
  8
0
 10
4286.8777171247502338
 20
152.3863138462432119
 30
0.0
 11
4286.9181076467511957
 21
152.3757238884431047
 31
0.0
  0
LINE
  5
69F7
  8
0
 10
4286.9292431865487742
 20
152.3786435064432112
 30
0.0
 11
4286.8888526645487218
 21
152.3892334642432047
 31
0.0
  0
LINE
  5
69F8
  8
0
 10
4286.8587329628498992
 20
152.4060193634431073
 30
0.0
 11
4286.9081856953498573
 21
152.3985334564432037
 31
0.0
  0
LINE
  5
69F9
  8
0
 10
4286.9133010318500965
 20
152.3977591223431034
 30
0.0
 11
4286.9627468914486599
 21
152.3902742557432077
 31
0.0
  0
LINE
  5
69FA
  8
0
 10
4286.9666838993498459
 20
152.3920621493431042
 30
0.0
 11
4286.9172380396503286
 21
152.3995470160431012
 31
0.0
  0
LINE
  5
69FB
  8
0
 10
4286.9121227031491799
 20
152.4003213500431002
 30
0.0
 11
4286.8626699707510852
 21
152.4078072570430891
 31
0.0
  0
LINE
  5
69FC
  8
0
 10
4286.933174577849968
 20
152.4093611521431058
 30
0.0
 11
4286.9883490570491631
 21
152.4054849586430862
 31
0.0
  0
LINE
  5
69FD
  8
0
 10
4286.9924249474497628
 20
152.4094732310431084
 30
0.0
 11
4286.9372504683497027
 21
152.4133494246432008
 31
0.0
  0
LINE
  5
69FE
  8
0
 10
4286.7686923660494358
 20
152.4239379097431026
 30
0.0
 11
4286.804284949448629
 21
152.4239379097431026
 31
0.0
  0
LINE
  5
69FF
  8
0
 10
4286.8102010352486104
 20
152.4239379097431026
 30
0.0
 11
4286.8732469647502512
 21
152.4239379097431026
 31
0.0
  0
LINE
  5
6A00
  8
0
 10
4286.8791549965499144
 20
152.4239379097431026
 30
0.0
 11
4286.9362580933502613
 21
152.4239379097431026
 31
0.0
  0
LINE
  5
6A01
  8
0
 10
4286.9421647751487399
 20
152.4239379097431026
 30
0.0
 11
4286.9992599358502048
 21
152.4239379097431026
 31
0.0
  0
LINE
  5
6A02
  8
0
 10
4286.9992599358502048
 20
152.4260023915431077
 30
0.0
 11
4286.9421647751487399
 21
152.4260023915431077
 31
0.0
  0
LINE
  5
6A03
  8
0
 10
4286.9362580933502613
 20
152.4260023915431077
 30
0.0
 11
4286.8791549965499144
 21
152.4260023915431077
 31
0.0
  0
LINE
  5
6A04
  8
0
 10
4286.8732469647502512
 20
152.4260023915431077
 30
0.0
 11
4286.8102010352486104
 21
152.4260023915431077
 31
0.0
  0
LINE
  5
6A05
  8
0
 10
4286.804284949448629
 20
152.4260023915431077
 30
0.0
 11
4286.7686923660494358
 21
152.4260023915431077
 31
0.0
  0
LINE
  5
6A06
  8
0
 10
4286.9372504683497027
 20
152.4365908767431108
 30
0.0
 11
4286.9924249474497628
 21
152.4404670702431019
 31
0.0
  0
LINE
  5
6A07
  8
0
 10
4286.9883490570491631
 20
152.4444553427431117
 30
0.0
 11
4286.933174577849968
 21
152.4405791491431899
 31
0.0
  0
LINE
  5
6A08
  8
0
 10
4286.8626699707510852
 20
152.4421330442432065
 30
0.0
 11
4286.9121227031491799
 21
152.4496189512431101
 31
0.0
  0
LINE
  5
6A09
  8
0
 10
4286.9172380396503286
 20
152.4503932853430967
 30
0.0
 11
4286.9666838993498459
 21
152.4578781519431061
 31
0.0
  0
LINE
  5
6A0A
  8
0
 10
4286.9627468914486599
 20
152.4596660455430879
 30
0.0
 11
4286.9133010318500965
 21
152.4521811789431069
 31
0.0
  0
LINE
  5
6A0B
  8
0
 10
4286.9081856953498573
 20
152.4514068449431079
 30
0.0
 11
4286.8587329628498992
 21
152.443920937843103
 31
0.0
  0
LINE
  5
6A0C
  8
0
 10
4286.8888526645487218
 20
152.4607068370432046
 30
0.0
 11
4286.9292431865487742
 21
152.4712967948431128
 31
0.0
  0
LINE
  5
6A0D
  8
0
 10
4286.9181076467511957
 20
152.4742164128431057
 30
0.0
 11
4286.8777171247502338
 21
152.4636264551432134
 31
0.0
  0
LINE
  5
6A0E
  8
0
 10
4286.7584637195486721
 20
152.4306474753431075
 30
0.0
 11
4286.7762600112500877
 21
152.4387292159431126
 31
0.0
  0
LINE
  5
6A0F
  8
0
 10
4286.7792180541491689
 20
152.4400725371432088
 30
0.0
 11
4286.8107410189486473
 21
152.4543879028431093
 31
0.0
  0
LINE
  5
6A10
  8
0
 10
4286.8136950347497987
 20
152.455729395243111
 30
0.0
 11
4286.8422465831499721
 21
152.468695366543102
 31
0.0
  0
LINE
  5
6A11
  8
0
 10
4286.8451999240496662
 20
152.4700365524431049
 30
0.0
 11
4286.8737475044499661
 21
152.4830007217431103
 31
0.0
  0
LINE
  5
6A12
  8
0
 10
4286.8669284067500485
 20
152.4840329626431128
 30
0.0
 11
4286.8383808264488835
 21
152.4710687932430915
 31
0.0
  0
LINE
  5
6A13
  8
0
 10
4286.8354274855500989
 20
152.4697276074431045
 30
0.0
 11
4286.8068759371499254
 21
152.4567616361431135
 31
0.0
  0
LINE
  5
6A14
  8
0
 10
4286.8039219212496391
 20
152.4554201437431971
 30
0.0
 11
4286.7723989564501608
 21
152.4411047780430977
 31
0.0
  0
LINE
  5
6A15
  8
0
 10
4286.7694409136502145
 20
152.4397614568430868
 30
0.0
 11
4286.7516446218487545
 21
152.4316797162431101
 31
0.0
  0
ARC
  5
6A16
  8
0
 10
4291.4231651892278023
 20
146.6668917949521074
 30
0.0
 40
0.2080893783396932
 50
93.044275658746642
 51
177.4028053196198869
  0
ARC
  5
6A17
  8
0
 10
4291.1311797549487892
 20
144.8274654689431031
 30
0.0
 40
0.0393700787
 50
180.0321310108874115
 51
270.0
  0
ARC
  5
6A18
  8
0
 10
4290.2256679438487481
 20
144.8274654689431031
 30
0.0
 40
0.0393700787
 50
270.0
 51
359.9675504060169828
  0
ARC
  5
6A19
  8
0
 10
4291.6401182379358943
 20
144.7458527708294014
 30
0.0
 40
0.0423401744926213
 50
3.8901817841943811
 51
86.1098182157869729
  0
ARC
  5
6A1A
  8
0
 10
4293.0675989387500522
 20
147.0715379099432027
 30
0.0
 40
0.0393700787
 50
5.4999999999992344
 51
90.0
  0
ARC
  5
6A1B
  8
0
 10
4290.1686072317070284
 20
147.0695418919638939
 30
0.0
 40
0.0414126184027112
 50
92.7160630483779755
 51
177.2372716294237875
  0
ARC
  5
6A1C
  8
0
 10
4293.0935983375502474
 20
146.9042150752432008
 30
0.0
 40
0.0295275591
 50
270.0
 51
5.4999999999992344
  0
ARC
  5
6A1D
  8
0
 10
4291.2084586532782851
 20
144.8484293287218918
 30
0.0
 40
0.0210240892393042
 50
273.4536283616757828
 51
356.8687920962403837
  0
ARC
  5
6A1E
  8
0
 10
4290.1498468535746724
 20
144.8500497713174013
 30
0.0
 40
0.022792093740714
 50
187.3639127089739986
 51
262.6857665182224082
  0
ARC
  5
6A1F
  8
0
 10
4291.6716874564754107
 20
144.523178239817895
 30
0.0
 40
0.0107056922924308
 50
274.4512675997523274
 51
355.5487324002507989
  0
ARC
  5
6A20
  8
0
 10
4287.7014036747114005
 20
144.7441460817163943
 30
0.0
 40
0.0441872274066895
 50
5.9483806914847417
 51
84.0516191629668157
  0
ARC
  5
6A21
  8
0
 10
4289.7162599029988996
 20
144.7463223286933953
 30
0.0
 40
0.0418421197954576
 50
93.2922941192547341
 51
176.7077058807633989
  0
ARC
  5
6A22
  8
0
 10
4287.4983498970841538
 20
144.8087205237127932
 30
0.0
 40
0.0206465471082764
 50
272.6097366912707116
 51
357.3902630175620061
  0
ARC
  5
6A23
  8
0
 10
4287.7349571754448334
 20
144.5229006468470061
 30
0.0
 40
0.0104105210062535
 50
273.0465349453547219
 51
356.9534650546199828
  0
ARC
  5
6A24
  8
0
 10
4289.6843293612491834
 20
144.5223473587431045
 30
0.0
 40
0.0098425197
 50
180.0
 51
270.0
  0
ARC
  5
6A25
  8
0
 10
4286.7416017002487933
 20
151.5270028835431049
 30
0.0
 40
0.9655784501999999
 50
86.5016056420996904
 51
89.777404702192797
  0
ARC
  5
6A26
  8
0
 10
4286.7419906095501574
 20
153.3109647813431025
 30
0.0
 40
0.9536044546999999
 50
270.2020231970803934
 51
273.5189664586258118
  0
ARC
  5
6A27
  8
0
 10
4286.7415634880499056
 20
153.1246489798431867
 30
0.0
 40
0.7523225361
 50
270.2886036071888043
 51
273.366193655706013
  0
ARC
  5
6A28
  8
0
 10
4286.7418382324485719
 20
151.7339026622431959
 30
0.0
 40
0.7437099566000001
 50
86.6159818720974215
 51
89.7292208649743941
  0
ARC
  5
6A29
  8
0
 10
4287.4854381515624482
 20
153.1797553616547987
 30
0.0
 40
0.0335989163840477
 50
3.4823195419377262
 51
86.5176804580858487
  0
ARC
  5
6A2A
  8
0
 10
4287.4852531890046521
 20
152.6958329797878093
 30
0.0
 40
0.0337952169292079
 50
273.7762767524811238
 51
356.2237232475292785
  0
ARC
  5
6A2B
  8
0
 10
4286.509562019448822
 20
152.6781949866694106
 30
0.0
 40
0.6112585453320289
 50
343.1693153852182263
 51
348.1487454630641878
  0
ARC
  5
6A2C
  8
0
 10
4286.9858740803247201
 20
152.4504562096342113
 30
0.0
 40
0.1721962487725572
 50
50.6882653288542429
 51
72.2468342389513083
  0
ARC
  5
6A2D
  8
0
 10
4286.6953768202356514
 20
149.8577847255120048
 30
0.0
 40
2.783271612975394
 50
85.4664474548110604
 51
89.0522054777570276
  0
ARC
  5
6A2E
  8
0
 10
4286.8010832534391739
 20
151.4150979286260963
 30
0.0
 40
1.222603967546946
 50
78.8083751358447273
 51
84.6360484732574463
  0
ARC
  5
6A2F
  8
0
 10
4287.0675281971398363
 20
152.5541817895779104
 30
0.0
 40
0.0402915744416898
 50
357.8352080101183788
 51
47.0773478257793201
  0
ARC
  5
6A30
  8
0
 10
4286.9747460505423078
 20
152.1780020036435985
 30
0.0
 40
0.4410647202188116
 50
57.7159709215403822
 51
81.704837262977648
  0
ARC
  5
6A31
  8
0
 10
4287.1854968945617657
 20
152.5217010668008868
 30
0.0
 40
0.0383153488631508
 50
332.8568473525360787
 51
49.6073518674594212
  0
ARC
  5
6A32
  8
0
 10
4287.0280953354822486
 20
152.5343367023334906
 30
0.0
 40
0.0743322171015955
 50
289.3923935473720803
 51
333.5332761798841261
  0
ARC
  5
6A33
  8
0
 10
4287.0602839132770896
 20
152.5070976439166941
 30
0.0
 40
0.0348542656136744
 50
350.2723144117815082
 51
54.1869385025956305
  0
ARC
  5
6A34
  8
0
 10
4286.9137165354786703
 20
152.2811235465345874
 30
0.0
 40
0.3041603954109566
 50
56.7065144735003202
 51
81.4978855924707375
  0
ARC
  5
6A35
  8
0
 10
4286.6692638948952663
 20
150.5788742443311037
 30
0.0
 40
2.023868230361809
 50
81.7782803265057652
 51
87.9569391778670848
  0
ARC
  5
6A36
  8
0
 10
4287.0675058505812558
 20
152.6354308235200108
 30
0.0
 40
0.2008640772630353
 50
281.1948875288296108
 51
319.2146653565246197
  0
ARC
  5
6A37
  8
0
 10
4286.8907598230562144
 20
153.158548831155997
 30
0.0
 40
0.7517817064198061
 50
280.3136584785606829
 51
286.676987340268397
  0
ARC
  5
6A38
  8
0
 10
4286.9217558149248362
 20
152.5206421285953979
 30
0.0
 40
0.1426521799999614
 50
336.7021399106703257
 51
356.1990240822232181
  0
ARC
  5
6A39
  8
0
 10
4286.9350125382879924
 20
152.4038813961336984
 30
0.0
 40
0.1678578777939321
 50
39.7363796720187921
 51
75.0544785022455017
  0
ARC
  5
6A3A
  8
0
 10
4286.6875604624274274
 20
151.075584141163489
 30
0.0
 40
1.51856914962162
 50
78.9620973685026399
 51
87.9675994372765473
  0
ARC
  5
6A3B
  8
0
 10
4286.8884672965969003
 20
152.5327098684821863
 30
0.0
 40
0.1780114957595499
 50
313.500560794682201
 51
337.3723539234001123
  0
ARC
  5
6A3C
  8
0
 10
4286.8464367510759985
 20
152.6844903438943106
 30
0.0
 40
0.3255601988841029
 50
275.6708797538245221
 51
300.3637651339603281
  0
ARC
  5
6A3D
  8
0
 10
4286.7166887728781148
 20
153.7238986527246141
 30
0.0
 40
1.372956412504283
 50
271.0319635284502056
 51
276.7728678420676829
  0
ARC
  5
6A3E
  8
0
 10
4286.9766373781094444
 20
152.433748240069292
 30
0.0
 40
0.0457251748988373
 50
318.7275860085737804
 51
355.4708896008634156
  0
ARC
  5
6A3F
  8
0
 10
4286.9312988308820422
 20
152.3639218272398068
 30
0.0
 40
0.1124772668144276
 50
36.0650186171138927
 51
74.2879179624147241
  0
ARC
  5
6A40
  8
0
 10
4286.7279715492850301
 20
151.4607046160957111
 30
0.0
 40
1.0381578142848871
 50
76.9857362257743034
 51
89.2579833298355254
  0
LINE
  5
6A41
  8
0
 10
4286.8383808264488835
 20
152.3788715080432041
 30
0.0
 11
4286.8009493190502326
 21
152.3746931201432062
 31
0.0
  0
LINE
  5
6A42
  8
0
 10
4286.8669284067500485
 20
152.3659073387431988
 30
0.0
 11
4286.8157332761502403
 21
152.3602269688431079
 31
0.0
  0
ARC
  5
6A43
  8
0
 10
4286.7930050270906577
 20
152.8910833672404124
 30
0.0
 40
0.5303263691649392
 50
278.7573713785110954
 51
283.6445282177916738
  0
ARC
  5
6A44
  8
0
 10
4286.781737778797833
 20
152.7875169247355984
 30
0.0
 40
0.4125238720861247
 50
278.8494521511993867
 51
283.4539480130184756
  0
ARC
  5
6A45
  8
0
 10
4286.8623354833653138
 20
152.6254498088277103
 30
0.0
 40
0.2557146684142095
 50
285.1679806143442875
 51
293.1207197039030916
  0
ARC
  5
6A46
  8
0
 10
4286.8388043313607341
 20
152.5720703513314902
 30
0.0
 40
0.1895630843152649
 50
285.3086939751535169
 51
293.1407742568825938
  0
ARC
  5
6A47
  8
0
 10
4286.9276311963749322
 20
152.4792911620052109
 30
0.0
 40
0.0955720370171265
 50
294.1182123736508061
 51
309.442972491472915
  0
ARC
  5
6A48
  8
0
 10
4286.886568178005291
 20
152.467196035123095
 30
0.0
 40
0.0742767136845216
 50
294.387991439280313
 51
308.8636998041239963
  0
ARC
  5
6A49
  8
0
 10
4286.9237071474335607
 20
152.4260697755883029
 30
0.0
 40
0.0185803356496593
 50
316.7947714388041049
 51
353.4115010842215838
  0
ARC
  5
6A4A
  8
0
 10
4286.9759651515350924
 20
152.4260981777352981
 30
0.0
 40
0.0233947373159424
 50
314.7139961451931072
 51
354.7017650999385978
  0
ARC
  5
6A4B
  8
0
 10
4286.9752163101156839
 20
152.4234882738373926
 30
0.0
 40
0.0241747125381099
 50
5.9694304857434091
 51
44.6148082691121886
  0
ARC
  5
6A4C
  8
0
 10
4286.923707146281231
 20
152.4238705252824957
 30
0.0
 40
0.0185803368432721
 50
6.5884997868280744
 51
43.2052272851900696
  0
ARC
  5
6A4D
  8
0
 10
4286.9265017426332633
 20
152.368826137817706
 30
0.0
 40
0.0976978348694336
 50
50.7247210400545328
 51
65.7140944770470412
  0
ARC
  5
6A4E
  8
0
 10
4286.8866085472245686
 20
152.382809819981702
 30
0.0
 40
0.0742003409685607
 50
51.12881014142922
 51
65.6194979261019142
  0
ARC
  5
6A4F
  8
0
 10
4286.862290429481618
 20
152.2243607095919913
 30
0.0
 40
0.2558517185365274
 50
66.8814137109309002
 51
74.8298859708175996
  0
ARC
  5
6A50
  8
0
 10
4286.8361251703481685
 20
152.2701871281300043
 30
0.0
 40
0.1976814309182995
 50
67.0202846031960604
 51
74.5302471552347043
  0
ARC
  5
6A51
  8
0
 10
4286.782101034947118
 20
152.0642660994298012
 30
0.0
 40
0.4106472091036833
 50
76.5355251504779659
 51
81.1610750245335737
  0
ARC
  5
6A52
  8
0
 10
4286.7924475669387903
 20
151.956041799474491
 30
0.0
 40
0.5331935723522713
 50
76.3686198261513169
 51
81.2294805775541988
  0
ARC
  5
6A53
  8
0
 10
4286.7544043037523807
 20
151.7034355320161865
 30
0.0
 40
0.7886659764798308
 50
81.797246358959967
 51
85.5400099458048402
  0
ARC
  5
6A54
  8
0
 10
4286.7525008494012582
 20
151.8714766250458013
 30
0.0
 40
0.6057112667115639
 50
81.8489262687177472
 51
85.4122344034064866
  0
ARC
  5
6A55
  8
0
 10
4286.743796030638805
 20
151.8096608356040065
 30
0.0
 40
0.6663966287543842
 50
82.0966257386641445
 51
89.8661354352171315
  0
ARC
  5
6A56
  8
0
 10
4286.7431357581572229
 20
151.9894975864553999
 30
0.0
 40
0.4715914572474712
 50
82.2321429928394991
 51
89.7306183006642897
  0
ARC
  5
6A57
  8
0
 10
4286.7178164943261436
 20
151.6273298116767876
 30
0.0
 40
0.8325549487015134
 50
84.0636768840894035
 51
88.3756846300792773
  0
ARC
  5
6A58
  8
0
 10
4286.729311633240286
 20
151.9989691304213864
 30
0.0
 40
0.4442301749310735
 50
84.4339461459678517
 51
88.4386167293830141
  0
ARC
  5
6A59
  8
0
 10
4286.8021463222657985
 20
152.1813599040324902
 30
0.0
 40
0.2901201456967818
 50
68.5615456455272749
 51
82.0551706565152017
  0
ARC
  5
6A5A
  8
0
 10
4286.7844982753749719
 20
152.252579332533287
 30
0.0
 40
0.2052374204367379
 50
68.7952708196174711
 51
81.8214452444292704
  0
ARC
  5
6A5B
  8
0
 10
4286.8541874339789501
 20
152.4169752365851878
 30
0.0
 40
0.0265493637629928
 50
19.8777272074072116
 51
71.3672760211077417
  0
ARC
  5
6A5C
  8
0
 10
4286.7811978036052096
 20
152.253085943277199
 30
0.0
 40
0.2034583016198415
 50
69.760674996932039
 51
81.6508345501300568
  0
ARC
  5
6A5D
  8
0
 10
4286.843976228046813
 20
152.4127746246331014
 30
0.0
 40
0.032120863072387
 50
24.3187324063921508
 51
76.3019219848386427
  0
ARC
  5
6A5E
  8
0
 10
4286.8444409308103786
 20
152.4366903942002978
 30
0.0
 40
0.0315025943557888
 50
283.6812573485752864
 51
336.120939328517693
  0
ARC
  5
6A5F
  8
0
 10
4286.7837458873500509
 20
152.5867348530549066
 30
0.0
 40
0.1930789167190674
 50
278.0370821578961795
 51
290.6674900163757229
  0
ARC
  5
6A60
  8
0
 10
4286.8992385320379981
 20
152.4123106394289948
 30
0.0
 40
0.039470393913091
 50
20.2970055796266706
 51
70.9479960724757603
  0
ARC
  5
6A61
  8
0
 10
4286.9003957447175708
 20
152.436447026456193
 30
0.0
 40
0.0379813908430677
 50
287.9842393929030777
 51
340.7707589549872864
  0
ARC
  5
6A62
  8
0
 10
4286.8022055857600208
 20
152.6683543623576895
 30
0.0
 40
0.2898880902987508
 50
277.9394034669546727
 51
291.443880393594327
  0
ARC
  5
6A63
  8
0
 10
4286.7441250508536541
 20
153.035596118769206
 30
0.0
 40
0.6617126023570351
 50
270.106323173999499
 51
277.9309157786556739
  0
ARC
  5
6A64
  8
0
 10
4286.7431356608758506
 20
152.8604440887195892
 30
0.0
 40
0.4715928315783042
 50
270.2693927333252191
 51
277.7678461584740148
  0
ARC
  5
6A65
  8
0
 10
4286.7860936580609632
 20
152.5912761154694977
 30
0.0
 40
0.1989887754911017
 50
277.9731027892898965
 51
291.4101811495190191
  0
ARC
  5
6A66
  8
0
 10
4286.8538182735928785
 20
152.4333423348693941
 30
0.0
 40
0.0270257792144763
 50
289.1187985853811142
 51
339.6361999292843166
  0
ARC
  5
6A67
  8
0
 10
4286.7784862593744037
 20
152.452627111286489
 30
0.0
 40
0.0427656087772394
 50
270.9804794834723225
 51
317.8674913459503273
  0
ARC
  5
6A68
  8
0
 10
4286.7742418043526413
 20
152.4528746391949028
 30
0.0
 40
0.0417124067709921
 50
272.773273245207406
 51
316.0746973049901953
  0
ARC
  5
6A69
  8
0
 10
4286.7742414488266149
 20
152.3970648792067095
 30
0.0
 40
0.0417132059417861
 50
43.9257384337992107
 51
87.2262910159652449
  0
ARC
  5
6A6A
  8
0
 10
4286.7780863732532453
 20
152.396432625882511
 30
0.0
 40
0.0436545823080789
 50
42.6375046398074389
 51
88.5145246986392209
  0
ARC
  5
6A6B
  8
0
 10
4286.7287352706343881
 20
153.0573620639092951
 30
0.0
 40
0.6670925161724791
 50
271.089196185138178
 51
276.4714424832491773
  0
ARC
  5
6A6C
  8
0
 10
4286.7294920509248186
 20
152.8480742195447135
 30
0.0
 40
0.4413293948770646
 50
271.5482170451675756
 51
275.5792204479004113
  0
ARC
  5
6A6D
  8
0
 10
4286.7377962537593703
 20
152.6958503013499069
 30
0.0
 40
0.2874187986038176
 50
270.721595991360175
 51
276.3210501093843732
  0
ARC
  5
6A6E
  8
0
 10
4286.7355032052555543
 20
152.6365411443921118
 30
0.0
 40
0.2188765586337422
 50
271.5479866454161879
 51
274.2292121507372826
  0
ARC
  5
6A6F
  8
0
 10
4286.7565400696075812
 20
152.4371132453754001
 30
0.0
 40
0.0179239442602072
 50
276.161016201032794
 51
312.6869538764735807
  0
ARC
  5
6A70
  8
0
 10
4286.7565787369458121
 20
152.4129122028220138
 30
0.0
 40
0.0178351633245511
 50
47.2189007102153226
 51
83.9331292122436139
  0
ARC
  5
6A71
  8
0
 10
4286.7262585171865794
 20
152.0301848404932912
 30
0.0
 40
0.4022966437385793
 50
86.3820635297443147
 51
87.8407376740526331
  0
ARC
  5
6A72
  8
0
 10
4286.7355149887707739
 20
152.1170180684279103
 30
0.0
 40
0.3245215911839331
 50
83.9992576424642436
 51
88.9580962568158355
  0
ARC
  5
6A73
  8
0
 10
4287.4854393261030054
 20
152.4854130594349044
 30
0.0
 40
0.1770317298921966
 50
93.5182490311898533
 51
130.1986278008936893
  0
ARC
  5
6A74
  8
0
 10
4287.6093156155302495
 20
152.3746213705703099
 30
0.0
 40
0.342391057109956
 50
134.068602383708793
 51
156.0111959673295985
  0
ARC
  5
6A75
  8
0
 10
4287.1542476822178287
 20
152.5984781896823961
 30
0.0
 40
0.1655348564068611
 50
289.1359883230998093
 51
329.2426994310602026
  0
ARC
  5
6A76
  8
0
 10
4286.9133920808590119
 20
153.1618817129671015
 30
0.0
 40
0.7779430808473379
 50
274.7491443009591876
 51
292.2939912847081132
  0
ARC
  5
6A77
  8
0
 10
4287.2280075785402005
 20
152.5215012238082863
 30
0.0
 40
0.0689200506966624
 50
353.6037281512096797
 51
53.5423627003817515
  0
ARC
  5
6A78
  8
0
 10
4287.0206951636146187
 20
152.0714827570859882
 30
0.0
 40
0.5631311218732277
 50
63.8407050540516607
 51
81.1898905762167828
  0
ARC
  5
6A79
  8
0
 10
4286.649323300181095
 20
148.614873936849591
 30
0.0
 40
4.0391032110025344
 50
83.4945507892113739
 51
88.6935270995783327
  0
ARC
  5
6A7A
  8
0
 10
4291.2678481008069866
 20
146.4447171485496142
 30
0.0
 40
0.4300185893712497
 50
90.8580631113926955
 51
147.4431265319655893
  0
ENDSEC
  0
EOF
