  0
SECTION
  2
HEADER
  9
$ACADVER
  1
AC1009
  9
$INSBASE
 10
4326.2826644347451293
 20
152.3290745052221951
 30
0.0
  9
$EXTMIN
 10
4317.089751048943981
 20
148.5402543616723108
 30
0.0
  9
$EXTMAX
 10
4326.3032964748390441
 20
153.9038776548721899
 30
0.0
  9
$LIMMIN
 10
0.0
 20
0.0
  9
$LIMMAX
 10
11.6929133858000007
 20
8.2677165353999982
  9
$ORTHOMODE
 70
     1
  9
$REGENMODE
 70
     1
  9
$FILLMODE
 70
     1
  9
$QTEXTMODE
 70
     0
  9
$MIRRTEXT
 70
     0
  9
$DRAGMODE
 70
     2
  9
$LTSCALE
 40
0.6431102362
  9
$OSMODE
 70
  4095
  9
$ATTMODE
 70
     1
  9
$TEXTSIZE
 40
0.2
  9
$TRACEWID
 40
0.05
  9
$TEXTSTYLE
  7
STANDARD
  9
$CLAYER
  8
0
  9
$CELTYPE
  6
BYLAYER
  9
$CECOLOR
 62
   256
  9
$DIMSCALE
 40
1.0
  9
$DIMASZ
 40
0.1875
  9
$DIMEXO
 40
0.0625
  9
$DIMDLI
 40
0.4443307087
  9
$DIMRND
 40
0.0
  9
$DIMDLE
 40
0.0
  9
$DIMEXE
 40
0.125
  9
$DIMTP
 40
0.01
  9
$DIMTM
 40
0.01
  9
$DIMTXT
 40
2.0
  9
$DIMCEN
 40
0.1052362205
  9
$DIMTSZ
 40
0.0
  9
$DIMTOL
 70
     1
  9
$DIMLIM
 70
     0
  9
$DIMTIH
 70
     1
  9
$DIMTOH
 70
     1
  9
$DIMSE1
 70
     0
  9
$DIMSE2
 70
     0
  9
$DIMTAD
 70
     0
  9
$DIMZIN
 70
     0
  9
$DIMBLK
  1

  9
$DIMASO
 70
     1
  9
$DIMSHO
 70
     1
  9
$DIMPOST
  1
\X
  9
$DIMAPOST
  1

  9
$DIMALT
 70
     1
  9
$DIMALTD
 70
     2
  9
$DIMALTF
 40
25.3999999999999986
  9
$DIMLFAC
 40
1.0
  9
$DIMTOFL
 70
     0
  9
$DIMTVP
 40
0.0
  9
$DIMTIX
 70
     0
  9
$DIMSOXD
 70
     0
  9
$DIMSAH
 70
     0
  9
$DIMBLK1
  1

  9
$DIMBLK2
  1

  9
$DIMSTYLE
  2
STANDARD
  9
$DIMCLRD
 70
     0
  9
$DIMCLRE
 70
     0
  9
$DIMCLRT
 70
     0
  9
$DIMTFAC
 40
1.0
  9
$DIMGAP
 40
0.09
  9
$LUNITS
 70
     2
  9
$LUPREC
 70
     4
  9
$SKETCHINC
 40
0.1
  9
$FILLETRAD
 40
0.0
  9
$AUNITS
 70
     0
  9
$AUPREC
 70
     0
  9
$MENU
  1
.
  9
$ELEVATION
 40
0.0
  9
$PELEVATION
 40
0.0
  9
$THICKNESS
 40
0.0
  9
$LIMCHECK
 70
     0
  9
$BLIPMODE
 70
     0
  9
$CHAMFERA
 40
0.0
  9
$CHAMFERB
 40
0.0
  9
$SKPOLY
 70
     0
  9
$TDCREATE
 40
2458060.468368056230247
  9
$TDUPDATE
 40
2458967.606597222853452
  9
$TDINDWG
 40
0.3088033565
  9
$TDUSRTIMER
 40
0.3088033565
  9
$USRTIMER
 70
     1
  9
$ANGBASE
 50
0.0
  9
$ANGDIR
 70
     0
  9
$PDMODE
 70
     0
  9
$PDSIZE
 40
0.3125
  9
$PLINEWID
 40
0.0
  9
$COORDS
 70
     1
  9
$SPLFRAME
 70
     0
  9
$SPLINETYPE
 70
     6
  9
$SPLINESEGS
 70
     8
  9
$ATTDIA
 70
     1
  9
$ATTREQ
 70
     1
  9
$HANDLING
 70
     1
  9
$HANDSEED
  5
6F44
  9
$SURFTAB1
 70
     6
  9
$SURFTAB2
 70
     6
  9
$SURFTYPE
 70
     6
  9
$SURFU
 70
     6
  9
$SURFV
 70
     6
  9
$UCSNAME
  2

  9
$UCSORG
 10
0.0
 20
0.0
 30
0.0
  9
$UCSXDIR
 10
1.0
 20
0.0
 30
0.0
  9
$UCSYDIR
 10
0.0
 20
1.0
 30
0.0
  9
$PUCSNAME
  2

  9
$PUCSORG
 10
0.0
 20
0.0
 30
0.0
  9
$PUCSXDIR
 10
1.0
 20
0.0
 30
0.0
  9
$PUCSYDIR
 10
0.0
 20
1.0
 30
0.0
  9
$USERI1
 70
     0
  9
$USERI2
 70
     0
  9
$USERI3
 70
     0
  9
$USERI4
 70
     0
  9
$USERI5
 70
     0
  9
$USERR1
 40
0.0
  9
$USERR2
 40
0.0
  9
$USERR3
 40
0.0
  9
$USERR4
 40
0.0
  9
$USERR5
 40
0.0
  9
$WORLDVIEW
 70
     1
  9
$SHADEDGE
 70
     3
  9
$SHADEDIF
 70
    70
  9
$TILEMODE
 70
     1
  9
$MAXACTVP
 70
    64
  9
$PLIMCHECK
 70
     0
  9
$PEXTMIN
 10
1.0000000000000000E+20
 20
1.0000000000000000E+20
 30
1.0000000000000000E+20
  9
$PEXTMAX
 10
-1.0000000000000000E+20
 20
-1.0000000000000000E+20
 30
-1.0000000000000000E+20
  9
$PLIMMIN
 10
0.0
 20
0.0
  9
$PLIMMAX
 10
12.0
 20
9.0
  9
$UNITMODE
 70
     0
  9
$VISRETAIN
 70
     1
  9
$PLINEGEN
 70
     0
  9
$PSLTSCALE
 70
     1
  0
ENDSEC
  0
SECTION
  2
TABLES
  0
TABLE
  2
VPORT
 70
     1
  0
VPORT
  2
*ACTIVE
 70
     0
 10
0.0
 20
0.0
 11
1.0
 21
1.0
 12
0.0
 22
0.0
 13
0.0
 23
0.0
 14
1.0
 24
1.0
 15
0.0
 25
0.0
 16
0.0
 26
0.0
 36
37.2868076122931669
 17
4321.6965701125773194
 27
151.2221298217772869
 37
0.0
 40
10.6712327483909508
 41
2.7303822937625748
 42
50.0
 43
0.0
 44
0.0
 50
0.0
 51
0.0
 71
     0
 72
   100
 73
     1
 74
     1
 75
     0
 76
     0
 77
     0
 78
     0
  0
ENDTAB
  0
TABLE
  2
LTYPE
 70
     2
  0
LTYPE
  2
CONTINUOUS
 70
     0
  3
Solid line
 72
    65
 73
     0
 40
0.0
  0
LTYPE
  2
PHANTOM2
 70
     0
  3
___ _ _ ___ _ _ ___ _ _ ___ _ _
 72
    65
 73
     6
 40
1.25
 49
0.625
 49
-0.125
 49
0.125
 49
-0.125
 49
0.125
 49
-0.125
  0
ENDTAB
  0
TABLE
  2
LAYER
 70
     2
  0
LAYER
  2
0
 70
     0
 62
   255
  6
CONTINUOUS
  0
LAYER
  2
DEFPOINTS
 70
     0
 62
     7
  6
CONTINUOUS
  0
ENDTAB
  0
TABLE
  2
STYLE
 70
     1
  0
STYLE
  2
STANDARD
 70
     0
 40
0.0
 41
0.8
 50
0.0
 71
     0
 42
0.2
  3
txt
  4

  0
ENDTAB
  0
TABLE
  2
VIEW
 70
     0
  0
ENDTAB
  0
TABLE
  2
UCS
 70
     0
  0
ENDTAB
  0
TABLE
  2
APPID
 70
     9
  0
APPID
  2
ACAD
 70
     0
  0
APPID
  2
ACAD_MLEADERVER
 70
     0
  0
APPID
  2
ACAD_EXEMPT_FROM_CAD_STANDARDS
 70
     0
  0
APPID
  2
ACAD_NAV_VCDISPLAY
 70
     0
  0
APPID
  2
ACAECLAYERSTANDARD
 70
     0
  0
APPID
  2
ACCMTRANSPARENCY
 70
     0
  0
APPID
  2
ACAD_DSTYLE_DIMJAG
 70
     0
  0
APPID
  2
ACAD_DSTYLE_DIMTALN
 70
     0
  0
APPID
  2
ACDBATTR
 70
     0
  0
ENDTAB
  0
TABLE
  2
DIMSTYLE
 70
     1
  0
DIMSTYLE
  2
STANDARD
 70
     0
  3

  4

  5

  6

  7

 40
1.0
 41
0.1875
 42
0.0625
 43
0.38
 44
0.125
 45
0.0
 46
0.0
 47
0.01
 48
0.01
140
0.15625
141
0.09
142
0.0
143
25.3999999999999986
144
1.0
145
0.0
146
1.0
147
0.09
 71
     1
 72
     0
 73
     1
 74
     1
 75
     0
 76
     0
 77
     0
 78
     4
170
     0
171
     2
172
     0
173
     0
174
     0
175
     0
176
     0
177
     0
178
     0
  0
ENDTAB
  0
ENDSEC
  0
SECTION
  2
BLOCKS
  0
BLOCK
  8
0
  2
$MODEL_SPACE
 70
     0
 10
0.0
 20
0.0
 30
0.0
  3
$MODEL_SPACE
  1

  0
ENDBLK
  5
21
  8
0
  0
BLOCK
 67
     1
  8
0
  2
$PAPER_SPACE
 70
     0
 10
0.0
 20
0.0
 30
0.0
  3
$PAPER_SPACE
  1

  0
ENDBLK
  5
1D
 67
     1
  8
0
  0
ENDSEC
  0
SECTION
  2
ENTITIES
  0
ATTDEF
  5
3930
  8
DEFPOINTS
 10
4326.2926298081711138
 20
152.3307411718888034
 30
0.0
 40
0.001
  1
K-22567T-4
  3

  2
MODELNUMBER
 70
     0
1001
ACDBATTR
1070
     0
1070
     1
  0
ATTDEF
  5
3931
  8
DEFPOINTS
 10
4326.2926298081711138
 20
152.3290745052221951
 30
0.0
 40
0.001
  1
PARALLEL
  3

  2
TRADENAME
 70
     0
1001
ACDBATTR
1070
     0
1070
     1
  0
ATTDEF
  5
3932
  8
DEFPOINTS
 10
4326.2926298081711138
 20
152.3274078385555015
 30
0.0
 40
0.001
  1
BATHROOM SINK FAUCET
  3

  2
PRODUCT
 70
     0
1001
ACDBATTR
1070
     0
1070
     1
  0
LINE
  5
6E43
  8
0
 10
4317.089751048943981
 20
152.1504130878722094
 30
0.0
 11
4317.089751048943981
 21
152.6952162374722093
 31
0.0
  0
LINE
  5
6E44
  8
0
 10
4324.0770784381438716
 20
148.5403903006721862
 30
0.0
 11
4323.967867357945579
 21
148.5509061316722068
 31
0.0
  0
LINE
  5
6E45
  8
0
 10
4326.2728219151449593
 20
150.7542713555722003
 30
0.0
 11
4326.1842392379448938
 21
150.7542713555722003
 31
0.0
  0
LINE
  5
6E46
  8
0
 10
4317.5299773951446696
 20
151.9811549797721
 30
0.0
 11
4318.0840717728451637
 21
151.8814576653722099
 31
0.0
  0
LINE
  5
6E47
  8
0
 10
4325.3082549859445862
 20
151.3448225366722113
 30
0.0
 11
4326.1448691592449904
 21
151.3448225366722113
 31
0.0
  0
LINE
  5
6E48
  8
0
 10
4324.1888265878451421
 20
151.3531316806721918
 30
0.0
 11
4325.1623412779454156
 21
151.3450691059721862
 31
0.0
  0
LINE
  5
6E49
  8
0
 10
4317.3001189906462969
 20
152.1105180739722016
 30
0.0
 11
4318.3574767902464373
 21
151.9202693775721968
 31
0.0
  0
LINE
  5
6E4A
  8
0
 10
4325.2397009125452314
 20
151.6542182340722036
 30
0.0
 11
4325.1921132536454024
 21
151.6546335252722031
 31
0.0
  0
LINE
  5
6E4B
  8
0
 10
4325.2787274269448972
 20
152.0346202669722118
 30
0.0
 11
4326.1448691592449904
 21
152.0346202669722118
 31
0.0
  0
LINE
  5
6E4C
  8
0
 10
4325.1921132536454024
 20
152.0437383742722091
 30
0.0
 11
4324.1888609167453978
 21
152.0437383742722091
 31
0.0
  0
LINE
  5
6E4D
  8
0
 10
4323.9322707340452325
 20
152.6194852398656963
 30
0.0
 11
4325.0565607130920398
 21
152.6197678665502053
 31
0.0
  0
LINE
  5
6E4E
  8
0
 10
4326.1448691592449904
 20
152.6235287434722068
 30
0.0
 11
4325.2787274269448972
 21
152.6235287434722068
 31
0.0
  0
LINE
  5
6E4F
  8
0
 10
4324.8788908885453566
 20
153.0007820349721896
 30
0.0
 11
4325.2397009125452314
 21
153.0039307763721865
 31
0.0
  0
LINE
  5
6E50
  8
0
 10
4317.1291211277439288
 20
152.7345863162722139
 30
0.0
 11
4323.9322707340452325
 21
152.7345863162722139
 31
0.0
  0
LINE
  5
6E51
  8
0
 10
4324.7685706848442351
 20
153.3130079146721982
 30
0.0
 11
4323.9712223835440454
 21
153.3044962734722105
 31
0.0
  0
LINE
  5
6E52
  8
0
 10
4325.3082549859445862
 20
153.3133264737722072
 30
0.0
 11
4326.1448691592449904
 21
153.3133264737722072
 31
0.0
  0
LINE
  5
6E53
  8
0
 10
4323.9322707340452325
 20
153.2651178730721995
 30
0.0
 11
4323.9322707340452325
 21
148.590094896472209
 31
0.0
  0
LINE
  5
6E54
  8
0
 10
4324.1094360883444097
 20
148.569781663372197
 30
0.0
 11
4324.1094360883444097
 21
151.7776885192722034
 31
0.0
  0
LINE
  5
6E55
  8
0
 10
4326.1842392379448938
 20
153.9038776548721899
 30
0.0
 11
4326.2728219151449593
 21
153.9038776548721899
 31
0.0
  0
LINE
  5
6E56
  8
0
 10
4324.7984123862452179
 20
153.2170078639722135
 30
0.0
 11
4324.7984124662452814
 21
153.2834690908721882
 31
0.0
  0
LINE
  5
6E57
  8
0
 10
4325.1921132536454024
 20
151.3745995900721937
 30
0.0
 11
4325.1921132536454024
 21
152.3247104345722107
 31
0.0
  0
LINE
  5
6E58
  8
0
 10
4325.2787274269448972
 20
151.374350583572209
 30
0.0
 11
4325.2787274269448972
 21
153.2837984268722096
 31
0.0
  0
LINE
  5
6E59
  8
0
 10
4325.1902689156449924
 20
152.3330297007721867
 30
0.0
 11
4324.8168559261448536
 21
153.1338164411722005
 31
0.0
  0
LINE
  5
6E5A
  8
0
 10
4326.1448691592449904
 20
150.7936414343722049
 30
0.0
 11
4326.1448691592449904
 21
153.8645075760722136
 31
0.0
  0
LINE
  5
6E5B
  8
0
 10
4326.2826644347451293
 20
150.7641138752721872
 30
0.0
 11
4326.2826644347451293
 21
153.8940351351722029
 31
0.0
  0
ARC
  5
6E5C
  8
0
 10
4324.9952644665709158
 20
153.2170097956872894
 30
0.0
 40
0.1968520803357212
 50
180.0005622451301974
 51
205.0000226421711034
  0
ARC
  5
6E5D
  8
0
 10
4317.9902993239447824
 20
152.0079755590722073
 30
0.0
 40
0.157480315
 50
306.5450784237787047
 51
342.0271807257004753
  0
ARC
  5
6E5E
  8
0
 10
4317.6619692238446078
 20
152.067051468372199
 30
0.0
 40
0.157480315
 50
177.5728192764991888
 51
213.0549215783869101
  0
ARC
  5
6E5F
  8
0
 10
4324.1931482062327632
 20
151.2693807972003128
 30
0.0
 40
0.0838623089821047
 50
92.953892159264754
 51
176.5704183168375039
  0
ARC
  5
6E60
  8
0
 10
4318.3645605212414011
 20
151.959636524532101
 30
0.0
 40
0.0399993938028525
 50
259.7993469068929926
 51
309.2691108190601881
  0
ARC
  5
6E61
  8
0
 10
4323.9716429130239703
 20
153.2651263394591865
 30
0.0
 40
0.0393721798892442
 50
90.6119809093513169
 51
180.0123205839171874
  0
ARC
  5
6E62
  8
0
 10
4326.1842392379448938
 20
150.7936414343722049
 30
0.0
 40
0.0393700787
 50
179.9999999997002931
 51
270.0
  0
ARC
  5
6E63
  8
0
 10
4326.1842392381158788
 20
153.8645075760015004
 30
0.0
 40
0.0393700788707117
 50
90.0000002484614754
 51
179.9999998973933089
  0
ARC
  5
6E64
  8
0
 10
4325.2393573481440399
 20
151.6148496543721933
 30
0.0
 40
0.0393700787
 50
0.0
 51
89.5000000010246453
  0
ARC
  5
6E65
  8
0
 10
4325.2393573858780655
 20
153.0432993187679074
 30
0.0
 40
0.0393700410678679
 50
270.4999455627360021
 51
0.0000542894763368
  0
ARC
  5
6E66
  8
0
 10
4317.1291211277439288
 20
152.6952162374722093
 30
0.0
 40
0.0393700787
 50
90.0000000006774314
 51
180.0
  0
ARC
  5
6E67
  8
0
 10
4323.9716408127451359
 20
148.5900949583723047
 30
0.0
 40
0.0393700787000977
 50
180.0000900839960138
 51
264.499999998949022
  0
ARC
  5
6E68
  8
0
 10
4317.1197510489446358
 20
152.1504130878722094
 30
0.0
 40
0.03
 50
180.0
 51
270.0000000004168896
  0
ARC
  5
6E69
  8
0
 10
4325.3105108831032339
 20
151.3766059555591994
 30
0.0
 40
0.0318633769104337
 50
184.0589371820275915
 51
265.9401160962847257
  0
ARC
  5
6E6A
  8
0
 10
4325.3107889615612294
 20
153.2812649810205983
 30
0.0
 40
0.0321614730677281
 50
94.5189703180779901
 51
175.4819764036244862
  0
ARC
  5
6E6B
  8
0
 10
4324.0799085292437667
 20
148.5697819207738917
 30
0.0
 40
0.0295275591017082
 50
264.5000000006767209
 51
359.9995005332065148
  0
ARC
  5
6E6C
  8
0
 10
4324.7688828144800937
 20
153.2834799105829973
 30
0.0
 40
0.0295296537467313
 50
359.9790067373364195
 51
90.6056299865118859
  0
ARC
  5
6E6D
  8
0
 10
4325.1594905601277787
 20
151.3777160992451059
 30
0.0
 40
0.0327712184957749
 50
274.9903788029087082
 51
354.5429837493717855
  0
ARC
  5
6E6E
  8
0
 10
4325.1591925564198391
 20
152.3217761610054879
 30
0.0
 40
0.0330512067423074
 50
5.093403403120587
 51
19.9066096751634802
  0
ARC
  5
6E6F
  8
0
 10
4326.2728219151449593
 20
153.8940351351722029
 30
0.0
 40
0.0098425197
 50
0.0
 51
90.0
  0
ARC
  5
6E70
  8
0
 10
4326.2728219151449593
 20
150.7641138752721872
 30
0.0
 40
0.0098425197
 50
270.0
 51
0.0
  0
ARC
  5
6E71
  8
0
 10
4324.7763718183196033
 20
151.7234661948465941
 30
0.0
 40
0.6691362554698191
 50
151.4036959809317864
 51
175.352037215440987
  0
ARC
  5
6E72
  8
0
 10
4321.4086016907849626
 20
143.0363474131237922
 30
0.0
 40
9.0869440424387662
 50
79.3862501127218962
 51
88.5578404723049317
  0
ARC
  5
6E73
  8
0
 10
4325.1956232970123892
 20
161.2903725642572113
 30
0.0
 40
9.5590812339502147
 50
257.2275201751314739
 51
262.4054241968734118
  0
LINE
  5
6E74
  8
0
 10
4317.1197510489446358
 20
152.1204130878722083
 30
0.0
 11
4323.9322707340452325
 21
152.1204130878722083
 31
0.0
  0
ARC
  5
6E75
  8
0
 10
4318.9052085171106228
 20
151.3362543095325066
 30
0.0
 40
0.785188430744471
 50
92.9345632458558697
 51
131.0193283328864879
  0
ARC
  5
6E76
  8
0
 10
4317.2112982686858231
 20
151.7168522795350896
 30
0.0
 40
0.4035614926615554
 50
77.2855537537064237
 51
90.1055149166133731
  0
ENDSEC
  0
EOF
