  0
SECTION
  2
HEADER
  9
$ACADVER
  1
AC1009
  9
$INSBASE
 10
4333.4654992641189892
 20
143.2494495904296059
 30
0.0
  9
$EXTMIN
 10
4327.0837893428697498
 20
135.8872448660295902
 30
0.0
  9
$EXTMAX
 10
4339.8472091853691381
 20
143.2552819727887083
 30
0.0
  9
$LIMMIN
 10
0.0
 20
0.0
  9
$LIMMAX
 10
11.6929133858000007
 20
8.2677165353999982
  9
$ORTHOMODE
 70
     1
  9
$REGENMODE
 70
     1
  9
$FILLMODE
 70
     1
  9
$QTEXTMODE
 70
     0
  9
$MIRRTEXT
 70
     0
  9
$DRAGMODE
 70
     2
  9
$LTSCALE
 40
0.6431102362
  9
$OSMODE
 70
  4095
  9
$ATTMODE
 70
     1
  9
$TEXTSIZE
 40
0.2
  9
$TRACEWID
 40
0.05
  9
$TEXTSTYLE
  7
STANDARD
  9
$CLAYER
  8
0
  9
$CELTYPE
  6
BYLAYER
  9
$CECOLOR
 62
   256
  9
$DIMSCALE
 40
1.0
  9
$DIMASZ
 40
0.1875
  9
$DIMEXO
 40
0.0625
  9
$DIMDLI
 40
0.4443307087
  9
$DIMRND
 40
0.0
  9
$DIMDLE
 40
0.0
  9
$DIMEXE
 40
0.125
  9
$DIMTP
 40
0.01
  9
$DIMTM
 40
0.01
  9
$DIMTXT
 40
2.0
  9
$DIMCEN
 40
0.1052362205
  9
$DIMTSZ
 40
0.0
  9
$DIMTOL
 70
     1
  9
$DIMLIM
 70
     0
  9
$DIMTIH
 70
     1
  9
$DIMTOH
 70
     1
  9
$DIMSE1
 70
     0
  9
$DIMSE2
 70
     0
  9
$DIMTAD
 70
     0
  9
$DIMZIN
 70
     0
  9
$DIMBLK
  1

  9
$DIMASO
 70
     1
  9
$DIMSHO
 70
     1
  9
$DIMPOST
  1
\X
  9
$DIMAPOST
  1

  9
$DIMALT
 70
     1
  9
$DIMALTD
 70
     2
  9
$DIMALTF
 40
25.3999999999999986
  9
$DIMLFAC
 40
1.0
  9
$DIMTOFL
 70
     0
  9
$DIMTVP
 40
0.0
  9
$DIMTIX
 70
     0
  9
$DIMSOXD
 70
     0
  9
$DIMSAH
 70
     0
  9
$DIMBLK1
  1

  9
$DIMBLK2
  1

  9
$DIMSTYLE
  2
STANDARD
  9
$DIMCLRD
 70
     0
  9
$DIMCLRE
 70
     0
  9
$DIMCLRT
 70
     0
  9
$DIMTFAC
 40
1.0
  9
$DIMGAP
 40
0.09
  9
$LUNITS
 70
     2
  9
$LUPREC
 70
     4
  9
$SKETCHINC
 40
0.1
  9
$FILLETRAD
 40
0.0
  9
$AUNITS
 70
     0
  9
$AUPREC
 70
     0
  9
$MENU
  1
.
  9
$ELEVATION
 40
0.0
  9
$PELEVATION
 40
0.0
  9
$THICKNESS
 40
0.0
  9
$LIMCHECK
 70
     0
  9
$BLIPMODE
 70
     0
  9
$CHAMFERA
 40
0.0
  9
$CHAMFERB
 40
0.0
  9
$SKPOLY
 70
     0
  9
$TDCREATE
 40
2458060.468368056230247
  9
$TDUPDATE
 40
2458967.6107291667722166
  9
$TDINDWG
 40
0.3085255787
  9
$TDUSRTIMER
 40
0.3085255787
  9
$USRTIMER
 70
     1
  9
$ANGBASE
 50
0.0
  9
$ANGDIR
 70
     0
  9
$PDMODE
 70
     0
  9
$PDSIZE
 40
0.3125
  9
$PLINEWID
 40
0.0
  9
$COORDS
 70
     1
  9
$SPLFRAME
 70
     0
  9
$SPLINETYPE
 70
     6
  9
$SPLINESEGS
 70
     8
  9
$ATTDIA
 70
     1
  9
$ATTREQ
 70
     1
  9
$HANDLING
 70
     1
  9
$HANDSEED
  5
6FCE
  9
$SURFTAB1
 70
     6
  9
$SURFTAB2
 70
     6
  9
$SURFTYPE
 70
     6
  9
$SURFU
 70
     6
  9
$SURFV
 70
     6
  9
$UCSNAME
  2

  9
$UCSORG
 10
0.0
 20
0.0
 30
0.0
  9
$UCSXDIR
 10
1.0
 20
0.0
 30
0.0
  9
$UCSYDIR
 10
0.0
 20
1.0
 30
0.0
  9
$PUCSNAME
  2

  9
$PUCSORG
 10
0.0
 20
0.0
 30
0.0
  9
$PUCSXDIR
 10
1.0
 20
0.0
 30
0.0
  9
$PUCSYDIR
 10
0.0
 20
1.0
 30
0.0
  9
$USERI1
 70
     0
  9
$USERI2
 70
     0
  9
$USERI3
 70
     0
  9
$USERI4
 70
     0
  9
$USERI5
 70
     0
  9
$USERR1
 40
0.0
  9
$USERR2
 40
0.0
  9
$USERR3
 40
0.0
  9
$USERR4
 40
0.0
  9
$USERR5
 40
0.0
  9
$WORLDVIEW
 70
     1
  9
$SHADEDGE
 70
     3
  9
$SHADEDIF
 70
    70
  9
$TILEMODE
 70
     1
  9
$MAXACTVP
 70
    64
  9
$PLIMCHECK
 70
     0
  9
$PEXTMIN
 10
1.0000000000000000E+20
 20
1.0000000000000000E+20
 30
1.0000000000000000E+20
  9
$PEXTMAX
 10
-1.0000000000000000E+20
 20
-1.0000000000000000E+20
 30
-1.0000000000000000E+20
  9
$PLIMMIN
 10
0.0
 20
0.0
  9
$PLIMMAX
 10
12.0
 20
9.0
  9
$UNITMODE
 70
     0
  9
$VISRETAIN
 70
     1
  9
$PLINEGEN
 70
     0
  9
$PSLTSCALE
 70
     1
  0
ENDSEC
  0
SECTION
  2
TABLES
  0
TABLE
  2
VPORT
 70
     1
  0
VPORT
  2
*ACTIVE
 70
     0
 10
0.0
 20
0.0
 11
1.0
 21
1.0
 12
0.0
 22
0.0
 13
0.0
 23
0.0
 14
1.0
 24
1.0
 15
0.0
 25
0.0
 16
0.0
 26
0.0
 36
51.54397025324797
 17
4333.465576171875
 27
139.5712597608082888
 37
0.0
 40
14.7435558937931699
 41
2.7303822937625748
 42
50.0
 43
0.0
 44
0.0
 50
0.0
 51
0.0
 71
     0
 72
   100
 73
     1
 74
     1
 75
     0
 76
     0
 77
     0
 78
     0
  0
ENDTAB
  0
TABLE
  2
LTYPE
 70
     2
  0
LTYPE
  2
CONTINUOUS
 70
     0
  3
Solid line
 72
    65
 73
     0
 40
0.0
  0
LTYPE
  2
PHANTOM2
 70
     0
  3
___ _ _ ___ _ _ ___ _ _ ___ _ _
 72
    65
 73
     6
 40
1.25
 49
0.625
 49
-0.125
 49
0.125
 49
-0.125
 49
0.125
 49
-0.125
  0
ENDTAB
  0
TABLE
  2
LAYER
 70
     2
  0
LAYER
  2
0
 70
     0
 62
   255
  6
CONTINUOUS
  0
LAYER
  2
DEFPOINTS
 70
     0
 62
     7
  6
CONTINUOUS
  0
ENDTAB
  0
TABLE
  2
STYLE
 70
     1
  0
STYLE
  2
STANDARD
 70
     0
 40
0.0
 41
0.8
 50
0.0
 71
     0
 42
0.2
  3
txt
  4

  0
ENDTAB
  0
TABLE
  2
VIEW
 70
     0
  0
ENDTAB
  0
TABLE
  2
UCS
 70
     0
  0
ENDTAB
  0
TABLE
  2
APPID
 70
     9
  0
APPID
  2
ACAD
 70
     0
  0
APPID
  2
ACAD_MLEADERVER
 70
     0
  0
APPID
  2
ACAD_EXEMPT_FROM_CAD_STANDARDS
 70
     0
  0
APPID
  2
ACAD_NAV_VCDISPLAY
 70
     0
  0
APPID
  2
ACAECLAYERSTANDARD
 70
     0
  0
APPID
  2
ACCMTRANSPARENCY
 70
     0
  0
APPID
  2
ACAD_DSTYLE_DIMJAG
 70
     0
  0
APPID
  2
ACAD_DSTYLE_DIMTALN
 70
     0
  0
APPID
  2
ACDBATTR
 70
     0
  0
ENDTAB
  0
TABLE
  2
DIMSTYLE
 70
     1
  0
DIMSTYLE
  2
STANDARD
 70
     0
  3

  4

  5

  6

  7

 40
1.0
 41
0.1875
 42
0.0625
 43
0.38
 44
0.125
 45
0.0
 46
0.0
 47
0.01
 48
0.01
140
0.15625
141
0.09
142
0.0
143
25.3999999999999986
144
1.0
145
0.0
146
1.0
147
0.09
 71
     1
 72
     0
 73
     1
 74
     1
 75
     0
 76
     0
 77
     0
 78
     4
170
     0
171
     2
172
     0
173
     0
174
     0
175
     0
176
     0
177
     0
178
     0
  0
ENDTAB
  0
ENDSEC
  0
SECTION
  2
BLOCKS
  0
BLOCK
  8
0
  2
$MODEL_SPACE
 70
     0
 10
0.0
 20
0.0
 30
0.0
  3
$MODEL_SPACE
  1

  0
ENDBLK
  5
21
  8
0
  0
BLOCK
 67
     1
  8
0
  2
$PAPER_SPACE
 70
     0
 10
0.0
 20
0.0
 30
0.0
  3
$PAPER_SPACE
  1

  0
ENDBLK
  5
1D
 67
     1
  8
0
  0
ENDSEC
  0
SECTION
  2
ENTITIES
  0
ATTDEF
  5
3930
  8
DEFPOINTS
 10
4333.4624591947258523
 20
143.2542819727885899
 30
0.0
 40
0.001
  1
K-22569T-4
  3

  2
MODELNUMBER
 70
     0
1001
ACDBATTR
1070
     0
1070
     1
  0
ATTDEF
  5
3931
  8
DEFPOINTS
 10
4333.4624591947258523
 20
143.2526153061218963
 30
0.0
 40
0.001
  1
PARALLEL
  3

  2
TRADENAME
 70
     0
1001
ACDBATTR
1070
     0
1070
     1
  0
ATTDEF
  5
3932
  8
DEFPOINTS
 10
4333.4624591947258523
 20
143.250948639455288
 30
0.0
 40
0.001
  1
BATHROOM SINK FAUCET
  3

  2
PRODUCT
 70
     0
1001
ACDBATTR
1070
     0
1070
     1
  0
LINE
  5
6EC0
  8
0
 10
4332.4615622563196666
 20
143.0132291179295976
 30
0.0
 11
4332.4615622563196666
 21
143.2297645510296036
 31
0.0
  0
LINE
  5
6EC1
  8
0
 10
4332.5304598940692813
 20
136.1864574644295942
 30
0.0
 11
4332.5304598940692813
 21
142.9541739998292087
 31
0.0
  0
LINE
  5
6EC2
  8
0
 10
4334.4300661932202274
 20
142.9738590392296942
 30
0.0
 11
4332.5009323350186605
 21
142.9738590392296942
 31
0.0
  0
LINE
  5
6EC3
  8
0
 10
4334.4497512326197466
 20
143.2494495904296059
 30
0.0
 11
4332.4812472956191414
 21
143.2494495904296059
 31
0.0
  0
ARC
  5
6EC4
  8
0
 10
4332.8467223805719186
 20
136.2035073525352118
 30
0.0
 40
0.3167217375762343
 50
183.0858604075698963
 51
266.9141396020297066
  0
ARC
  5
6EC5
  8
0
 10
4332.5042187722001472
 20
143.0165155551100895
 30
0.0
 40
0.042782929030213
 50
184.4056043625928112
 51
265.5943956376049186
  0
ARC
  5
6EC6
  8
0
 10
4332.4840823320218988
 20
143.226929514626903
 30
0.0
 40
0.0226978246880049
 50
97.1751796477173713
 51
172.8248203529911109
  0
ARC
  5
6EC7
  8
0
 10
4332.5523151417510235
 20
142.9520037915530963
 30
0.0
 40
0.0219627333273168
 50
95.6708343346385561
 51
174.329165812385412
  0
LINE
  5
6EC8
  8
0
 10
4327.1001274740692679
 20
140.6866430647295942
 30
0.0
 11
4327.0839252819696412
 21
140.8549092631295991
 31
0.0
  0
LINE
  5
6EC9
  8
0
 10
4328.5245543822693435
 20
143.2396070707295905
 30
0.0
 11
4328.5245543822693435
 21
143.0132291180296136
 31
0.0
  0
LINE
  5
6ECA
  8
0
 10
4329.3015116140686587
 20
141.0858285743296108
 30
0.0
 11
4329.3008964450427811
 21
142.9345110881442054
 31
0.0
  0
LINE
  5
6ECB
  8
0
 10
4328.9916256770693508
 20
141.0856332565296043
 30
0.0
 11
4328.9774638845692607
 21
142.9146734930295963
 31
0.0
  0
LINE
  5
6ECC
  8
0
 10
4330.5225858782687283
 20
143.2494495904296059
 30
0.0
 11
4328.5343969019695578
 21
143.2494495904296059
 31
0.0
  0
LINE
  5
6ECD
  8
0
 10
4330.4930583192690392
 20
142.9738590392296089
 30
0.0
 11
4328.5639244609692469
 21
142.9738590392296089
 31
0.0
  0
LINE
  5
6ECE
  8
0
 10
4329.7568252091323302
 20
142.9345112088637961
 30
0.0
 11
4329.7583854803333452
 21
140.6510464408295888
 31
0.0
  0
LINE
  5
6ECF
  8
0
 10
4330.059970070469717
 20
142.9345112891296026
 30
0.0
 11
4328.9971900805703626
 21
142.9345110077296113
 31
0.0
  0
LINE
  5
6ED0
  8
0
 10
4330.079672492469399
 20
142.914825943029598
 30
0.0
 11
4330.079672492469399
 21
140.6904164483295858
 31
0.0
  0
LINE
  5
6ED1
  8
0
 10
4330.5324283979698521
 20
143.0132291180296136
 30
0.0
 11
4330.5324283979698521
 21
143.2396070707295905
 31
0.0
  0
LINE
  5
6ED2
  8
0
 10
4327.1133169019703928
 20
140.8872669132296096
 30
0.0
 11
4328.9455068677698364
 21
140.8872669132296096
 31
0.0
  0
LINE
  5
6ED3
  8
0
 10
4330.0402704064690624
 20
140.6510464408295888
 30
0.0
 11
4327.139316300768769
 21
140.6510464408295888
 31
0.0
  0
ARC
  5
6ED4
  8
0
 10
4328.7837500502901094
 20
141.0950626345205876
 30
0.0
 40
0.2080893783396932
 50
273.0442756587465851
 51
357.4028053196183237
  0
ARC
  5
6ED5
  8
0
 10
4329.0757354845691225
 20
142.9344889605295918
 30
0.0
 40
0.0393700787
 50
0.0321310108874289
 51
90.0
  0
ARC
  5
6ED6
  8
0
 10
4329.9812472956691636
 20
142.9344889605295918
 30
0.0
 40
0.0393700787
 50
90.0
 51
179.9675504060170113
  0
ARC
  5
6ED7
  8
0
 10
4328.5667970015829269
 20
143.0161016586434073
 30
0.0
 40
0.0423401744926213
 50
183.8901817841943114
 51
266.1098182157870156
  0
ARC
  5
6ED8
  8
0
 10
4327.139316300768769
 20
140.6904165195296059
 30
0.0
 40
0.0393700787
 50
185.4999999999992042
 51
270.0
  0
ARC
  5
6ED9
  8
0
 10
4330.0383080078117928
 20
140.6924125375088863
 30
0.0
 40
0.0414126184027112
 50
272.7160630483779755
 51
357.2372716294239012
  0
ARC
  5
6EDA
  8
0
 10
4327.1133169019703928
 20
140.8577393542296079
 30
0.0
 40
0.0295275591
 50
90.0
 51
185.4999999999992042
  0
ARC
  5
6EDB
  8
0
 10
4328.9984565862423551
 20
142.9135251007508032
 30
0.0
 40
0.0210240892393042
 50
93.4536283616758539
 51
176.8687920962404121
  0
ARC
  5
6EDC
  8
0
 10
4330.0570683859450583
 20
142.9119046581554073
 30
0.0
 40
0.022792093740714
 50
7.3639127089740208
 51
82.6857665182223229
  0
ARC
  5
6EDD
  8
0
 10
4328.5352277830443199
 20
143.2387761896548
 30
0.0
 40
0.0107056922924308
 50
94.4512675997523274
 51
175.5487324002507989
  0
ARC
  5
6EDE
  8
0
 10
4330.4906553365199215
 20
143.0156321007794133
 30
0.0
 40
0.0418421197954576
 50
273.2922941192546773
 51
356.7077058807635126
  0
ARC
  5
6EDF
  8
0
 10
4330.5225858782687283
 20
143.2396070707295905
 30
0.0
 40
0.0098425197
 50
0.0
 51
90.0
  0
ARC
  5
6EE0
  8
0
 10
4328.9390671387109251
 20
141.3172372809231092
 30
0.0
 40
0.4300185893712497
 50
270.8580631113927097
 51
327.4431265319656177
  0
LINE
  5
6EE1
  8
0
 10
4339.83087105416962
 20
140.6866430647295942
 30
0.0
 11
4339.8470732462692467
 21
140.8549092631295991
 31
0.0
  0
LINE
  5
6EE2
  8
0
 10
4338.406444145968635
 20
143.2396070707295905
 30
0.0
 11
4338.406444145968635
 21
143.0132291180296136
 31
0.0
  0
LINE
  5
6EE3
  8
0
 10
4337.6294869141702293
 20
141.0858285743296108
 30
0.0
 11
4337.6301020831951973
 21
142.9345110881442054
 31
0.0
  0
LINE
  5
6EE4
  8
0
 10
4337.9393728511686277
 20
141.0856332565296043
 30
0.0
 11
4337.9535346436687178
 21
142.9146734930295963
 31
0.0
  0
LINE
  5
6EE5
  8
0
 10
4336.4084126499683407
 20
143.2494495904296059
 30
0.0
 11
4338.3966016262702396
 21
143.2494495904296059
 31
0.0
  0
LINE
  5
6EE6
  8
0
 10
4336.4379402089689393
 20
142.9738590392296089
 30
0.0
 11
4338.3670740672696411
 21
142.9738590392296089
 31
0.0
  0
LINE
  5
6EE7
  8
0
 10
4337.1741733191056483
 20
142.9345112088637961
 30
0.0
 11
4337.1726130479046333
 21
140.6510464408295888
 31
0.0
  0
LINE
  5
6EE8
  8
0
 10
4336.8710284577691709
 20
142.9345112891296026
 30
0.0
 11
4337.9338084476694348
 21
142.9345110077296113
 31
0.0
  0
LINE
  5
6EE9
  8
0
 10
4336.8513260357685795
 20
142.914825943029598
 30
0.0
 11
4336.8513260357685795
 21
140.6904164483295858
 31
0.0
  0
LINE
  5
6EEA
  8
0
 10
4336.3985701302690359
 20
143.0132291180296136
 30
0.0
 11
4336.3985701302690359
 21
143.2396070707295905
 31
0.0
  0
LINE
  5
6EEB
  8
0
 10
4339.8176816262703142
 20
140.8872669132296096
 30
0.0
 11
4337.9854916604690516
 21
140.8872669132296096
 31
0.0
  0
LINE
  5
6EEC
  8
0
 10
4336.8907281217698255
 20
140.6510464408295888
 30
0.0
 11
4339.791682227470119
 21
140.6510464408295888
 31
0.0
  0
ARC
  5
6EED
  8
0
 10
4338.1472484779469596
 20
141.0950626345205876
 30
0.0
 40
0.2080893783396932
 50
182.5971946803801131
 51
266.9557243412533012
  0
ARC
  5
6EEE
  8
0
 10
4337.8552630436697655
 20
142.9344889605295918
 30
0.0
 40
0.0393700787
 50
90.0
 51
179.9678689891125885
  0
ARC
  5
6EEF
  8
0
 10
4336.9497512325697244
 20
142.9344889605295918
 30
0.0
 40
0.0393700787
 50
0.0324495939829565
 51
90.0
  0
ARC
  5
6EF0
  8
0
 10
4338.3642015266559611
 20
143.0161016586434073
 30
0.0
 40
0.0423401744926213
 50
273.8901817842129844
 51
356.1098182158056034
  0
ARC
  5
6EF1
  8
0
 10
4339.791682227470119
 20
140.6904165195296059
 30
0.0
 40
0.0393700787
 50
270.0
 51
354.5000000000006821
  0
ARC
  5
6EF2
  8
0
 10
4336.8926905204261857
 20
140.6924125375088863
 30
0.0
 40
0.0414126184027112
 50
182.7627283705762125
 51
267.2839369516220245
  0
ARC
  5
6EF3
  8
0
 10
4339.8176816262703142
 20
140.8577393542296079
 30
0.0
 40
0.0295275591
 50
354.5000000000006821
 51
90.0
  0
ARC
  5
6EF4
  8
0
 10
4337.9325419419956233
 20
142.9135251007508032
 30
0.0
 40
0.0210240892393042
 50
3.131207903759571
 51
86.5463716383241746
  0
ARC
  5
6EF5
  8
0
 10
4336.8739301422938297
 20
142.9119046581554073
 30
0.0
 40
0.022792093740714
 50
97.3142334817777055
 51
172.6360872910260014
  0
ARC
  5
6EF6
  8
0
 10
4338.395770745194568
 20
143.2387761896548
 30
0.0
 40
0.0107056922924308
 50
4.4512675997491957
 51
85.5487324002476868
  0
ARC
  5
6EF7
  8
0
 10
4336.4403431917189664
 20
143.0156321007794133
 30
0.0
 40
0.0418421197954576
 50
183.2922941192364874
 51
266.7077058807453227
  0
ARC
  5
6EF8
  8
0
 10
4336.4084126499683407
 20
143.2396070707295905
 30
0.0
 40
0.0098425197
 50
90.0
 51
180.0
  0
ARC
  5
6EF9
  8
0
 10
4337.9919313895261439
 20
141.3172372809231092
 30
0.0
 40
0.4300185893712497
 50
212.5568734680344107
 51
269.1419368886072903
  0
LINE
  5
6EFA
  8
0
 10
4334.4694362719192213
 20
143.0132291179295976
 30
0.0
 11
4334.4694362719192213
 21
143.2297645510296036
 31
0.0
  0
LINE
  5
6EFB
  8
0
 10
4334.4005386341686972
 20
136.1864574644295942
 30
0.0
 11
4334.4005386341686972
 21
142.9541739998292087
 31
0.0
  0
ARC
  5
6EFC
  8
0
 10
4334.0842761476669693
 20
136.2035073525352118
 30
0.0
 40
0.3167217375762343
 50
273.0858603979701797
 51
356.9141395924301037
  0
ARC
  5
6EFD
  8
0
 10
4334.4267797560378312
 20
143.0165155551100895
 30
0.0
 40
0.042782929030213
 50
274.4056043623950814
 51
355.5943956374072172
  0
ARC
  5
6EFE
  8
0
 10
4334.4469161962169892
 20
143.226929514626903
 30
0.0
 40
0.0226978246880049
 50
7.1751796470088216
 51
82.8248203522826429
  0
ARC
  5
6EFF
  8
0
 10
4334.378683386486955
 20
142.9520037915530963
 30
0.0
 40
0.0219627333273168
 50
5.6708341876146173
 51
84.3291656653614581
  0
LINE
  5
6F00
  8
0
 10
4332.8296724925194212
 20
135.8872448660295902
 30
0.0
 11
4334.1013260357185573
 21
135.8872448660295902
 31
0.0
  0
ENDSEC
  0
EOF
