  0
SECTION
  2
HEADER
  9
$ACADVER
  1
AC1009
  9
$INSBASE
 10
3725.4276296520260985
 20
157.2970634549787974
 30
0.0
  9
$EXTMIN
 10
3715.9882555444291938
 20
156.2849164185969073
 30
-0.0000000000112498
  9
$EXTMAX
 10
3725.6522764485489461
 20
158.301947748439602
 30
0.0000000000002956
  9
$LIMMIN
 10
0.0
 20
0.0
  9
$LIMMAX
 10
11.6929133858000007
 20
8.2677165353999982
  9
$ORTHOMODE
 70
     0
  9
$REGENMODE
 70
     1
  9
$FILLMODE
 70
     1
  9
$QTEXTMODE
 70
     0
  9
$MIRRTEXT
 70
     0
  9
$DRAGMODE
 70
     2
  9
$LTSCALE
 40
0.6431102362
  9
$OSMODE
 70
   575
  9
$ATTMODE
 70
     1
  9
$TEXTSIZE
 40
0.2
  9
$TRACEWID
 40
0.05
  9
$TEXTSTYLE
  7
STANDARD
  9
$CLAYER
  8
0
  9
$CELTYPE
  6
BYLAYER
  9
$CECOLOR
 62
   256
  9
$DIMSCALE
 40
1.0
  9
$DIMASZ
 40
0.1875
  9
$DIMEXO
 40
0.0625
  9
$DIMDLI
 40
0.4443307087
  9
$DIMRND
 40
0.0
  9
$DIMDLE
 40
0.0
  9
$DIMEXE
 40
0.125
  9
$DIMTP
 40
0.01
  9
$DIMTM
 40
0.01
  9
$DIMTXT
 40
2.0
  9
$DIMCEN
 40
0.1052362205
  9
$DIMTSZ
 40
0.0
  9
$DIMTOL
 70
     1
  9
$DIMLIM
 70
     0
  9
$DIMTIH
 70
     1
  9
$DIMTOH
 70
     1
  9
$DIMSE1
 70
     0
  9
$DIMSE2
 70
     0
  9
$DIMTAD
 70
     0
  9
$DIMZIN
 70
     0
  9
$DIMBLK
  1

  9
$DIMASO
 70
     1
  9
$DIMSHO
 70
     1
  9
$DIMPOST
  1
\X
  9
$DIMAPOST
  1

  9
$DIMALT
 70
     1
  9
$DIMALTD
 70
     2
  9
$DIMALTF
 40
25.3999999999999986
  9
$DIMLFAC
 40
1.0
  9
$DIMTOFL
 70
     0
  9
$DIMTVP
 40
0.0
  9
$DIMTIX
 70
     0
  9
$DIMSOXD
 70
     0
  9
$DIMSAH
 70
     0
  9
$DIMBLK1
  1

  9
$DIMBLK2
  1

  9
$DIMSTYLE
  2
STANDARD
  9
$DIMCLRD
 70
     0
  9
$DIMCLRE
 70
     0
  9
$DIMCLRT
 70
     0
  9
$DIMTFAC
 40
1.0
  9
$DIMGAP
 40
0.09
  9
$LUNITS
 70
     2
  9
$LUPREC
 70
     4
  9
$SKETCHINC
 40
0.1
  9
$FILLETRAD
 40
0.0
  9
$AUNITS
 70
     0
  9
$AUPREC
 70
     0
  9
$MENU
  1
.
  9
$ELEVATION
 40
0.0
  9
$PELEVATION
 40
0.0
  9
$THICKNESS
 40
0.0
  9
$LIMCHECK
 70
     0
  9
$BLIPMODE
 70
     0
  9
$CHAMFERA
 40
0.0
  9
$CHAMFERB
 40
0.0
  9
$SKPOLY
 70
     0
  9
$TDCREATE
 40
2458060.468368056230247
  9
$TDUPDATE
 40
2459569.9835763890296221
  9
$TDINDWG
 40
0.7320672454
  9
$TDUSRTIMER
 40
0.7320672454
  9
$USRTIMER
 70
     1
  9
$ANGBASE
 50
0.0
  9
$ANGDIR
 70
     0
  9
$PDMODE
 70
     0
  9
$PDSIZE
 40
0.3125
  9
$PLINEWID
 40
0.0
  9
$COORDS
 70
     1
  9
$SPLFRAME
 70
     0
  9
$SPLINETYPE
 70
     6
  9
$SPLINESEGS
 70
     8
  9
$ATTDIA
 70
     1
  9
$ATTREQ
 70
     1
  9
$HANDLING
 70
     1
  9
$HANDSEED
  5
10173
  9
$SURFTAB1
 70
     6
  9
$SURFTAB2
 70
     6
  9
$SURFTYPE
 70
     6
  9
$SURFU
 70
     6
  9
$SURFV
 70
     6
  9
$UCSNAME
  2

  9
$UCSORG
 10
0.0
 20
0.0
 30
0.0
  9
$UCSXDIR
 10
1.0
 20
0.0
 30
0.0
  9
$UCSYDIR
 10
0.0
 20
1.0
 30
0.0
  9
$PUCSNAME
  2

  9
$PUCSORG
 10
0.0
 20
0.0
 30
0.0
  9
$PUCSXDIR
 10
1.0
 20
0.0
 30
0.0
  9
$PUCSYDIR
 10
0.0
 20
1.0
 30
0.0
  9
$USERI1
 70
     0
  9
$USERI2
 70
     0
  9
$USERI3
 70
     0
  9
$USERI4
 70
     0
  9
$USERI5
 70
     0
  9
$USERR1
 40
0.0
  9
$USERR2
 40
0.0
  9
$USERR3
 40
0.0
  9
$USERR4
 40
0.0
  9
$USERR5
 40
0.0
  9
$WORLDVIEW
 70
     1
  9
$SHADEDGE
 70
     3
  9
$SHADEDIF
 70
    70
  9
$TILEMODE
 70
     1
  9
$MAXACTVP
 70
    64
  9
$PLIMCHECK
 70
     0
  9
$PEXTMIN
 10
1.0000000000000000E+20
 20
1.0000000000000000E+20
 30
1.0000000000000000E+20
  9
$PEXTMAX
 10
-1.0000000000000000E+20
 20
-1.0000000000000000E+20
 30
-1.0000000000000000E+20
  9
$PLIMMIN
 10
0.0
 20
0.0
  9
$PLIMMAX
 10
12.0
 20
9.0
  9
$UNITMODE
 70
     0
  9
$VISRETAIN
 70
     1
  9
$PLINEGEN
 70
     0
  9
$PSLTSCALE
 70
     1
  0
ENDSEC
  0
SECTION
  2
TABLES
  0
TABLE
  2
VPORT
 70
     1
  0
VPORT
  2
*ACTIVE
 70
     0
 10
0.0
 20
0.0
 11
1.0
 21
1.0
 12
14.8955833600388203
 22
6.1581171411329514
 13
0.0
 23
0.0
 14
1.0
 24
1.0
 15
0.0
 25
0.0
 16
0.0
 26
0.0
 36
53.6396422917490412
 17
3705.9246826171879547
 27
151.1353149414061932
 37
0.0
 40
5.1961773754804339
 41
2.6138279932546369
 42
50.0
 43
0.0
 44
0.0
 50
0.0
 51
0.0
 71
     0
 72
   100
 73
     1
 74
     1
 75
     0
 76
     0
 77
     0
 78
     0
  0
ENDTAB
  0
TABLE
  2
LTYPE
 70
     2
  0
LTYPE
  2
CONTINUOUS
 70
     0
  3
Solid line
 72
    65
 73
     0
 40
0.0
  0
LTYPE
  2
PHANTOM2
 70
     0
  3
___ _ _ ___ _ _ ___ _ _ ___ _ _
 72
    65
 73
     6
 40
1.25
 49
0.625
 49
-0.125
 49
0.125
 49
-0.125
 49
0.125
 49
-0.125
  0
ENDTAB
  0
TABLE
  2
LAYER
 70
     2
  0
LAYER
  2
0
 70
     0
 62
   255
  6
CONTINUOUS
  0
LAYER
  2
DEFPOINTS
 70
     0
 62
     7
  6
CONTINUOUS
  0
ENDTAB
  0
TABLE
  2
STYLE
 70
     1
  0
STYLE
  2
STANDARD
 70
     0
 40
0.0
 41
0.8
 50
0.0
 71
     0
 42
0.2
  3
txt
  4

  0
ENDTAB
  0
TABLE
  2
VIEW
 70
     0
  0
ENDTAB
  0
TABLE
  2
UCS
 70
     0
  0
ENDTAB
  0
TABLE
  2
APPID
 70
    10
  0
APPID
  2
ACAD
 70
     0
  0
APPID
  2
ACAD_MLEADERVER
 70
     0
  0
APPID
  2
ACAD_EXEMPT_FROM_CAD_STANDARDS
 70
     0
  0
APPID
  2
ACAD_NAV_VCDISPLAY
 70
     0
  0
APPID
  2
ACAECLAYERSTANDARD
 70
     0
  0
APPID
  2
ACCMTRANSPARENCY
 70
     0
  0
APPID
  2
ACAD_DSTYLE_DIMJAG
 70
     0
  0
APPID
  2
ACAD_DSTYLE_DIMTALN
 70
     0
  0
APPID
  2
ACDBATTR
 70
     0
  0
APPID
  2
ACAD_PSEXT
 70
     0
  0
ENDTAB
  0
TABLE
  2
DIMSTYLE
 70
     1
  0
DIMSTYLE
  2
STANDARD
 70
     0
  3

  4

  5

  6

  7

 40
1.0
 41
0.1875
 42
0.0625
 43
0.38
 44
0.125
 45
0.0
 46
0.0
 47
0.01
 48
0.01
140
0.15625
141
0.09
142
0.0
143
25.3999999999999986
144
1.0
145
0.0
146
1.0
147
0.09
 71
     1
 72
     0
 73
     1
 74
     1
 75
     0
 76
     0
 77
     0
 78
     4
170
     0
171
     2
172
     0
173
     0
174
     0
175
     0
176
     0
177
     0
178
     0
  0
ENDTAB
  0
ENDSEC
  0
SECTION
  2
BLOCKS
  0
BLOCK
  8
0
  2
$MODEL_SPACE
 70
     0
 10
0.0
 20
0.0
 30
0.0
  3
$MODEL_SPACE
  1

  0
ENDBLK
  5
21
  8
0
  0
BLOCK
 67
     1
  8
0
  2
$PAPER_SPACE
 70
     0
 10
0.0
 20
0.0
 30
0.0
  3
$PAPER_SPACE
  1

  0
ENDBLK
  5
1D
 67
     1
  8
0
  0
ENDSEC
  0
SECTION
  2
ENTITIES
  0
ATTDEF
  5
AA11
  8
DEFPOINTS
 10
3725.4278166307108222
 20
157.3006149945180994
 30
0.0
 40
0.001
  1
K-22570T-B4
  3

  2
MODELNUMBER
 70
     0
1001
ACDBATTR
1070
     0
1070
     1
  0
ATTDEF
  5
AA12
  8
DEFPOINTS
 10
3725.4278166307108222
 20
157.2989483278514058
 30
0.0
 40
0.001
  1
PARALLEL
  3

  2
TRADENAME
 70
     0
1001
ACDBATTR
1070
     0
1070
     1
  0
ATTDEF
  5
AA13
  8
DEFPOINTS
 10
3725.4278166307108222
 20
157.2972816611847122
 30
0.0
 40
0.001
  1
BATHROOM SINK FAUCET
  3

  2
PRODUCT
 70
     0
1001
ACDBATTR
1070
     0
1070
     1
  0
LINE
  5
FF38
  8
0
 10
3716.1362910693260346
 20
157.7025752664702054
 30
0.0
 11
3722.8292265024260814
 21
157.7025752664702054
 31
0.0
  0
ARC
  5
FF39
  8
0
 10
3716.1362910693260346
 20
157.6632051877701883
 30
0.0
 40
0.0393700786999944
 50
90.0
 51
180.0000000000081002
  0
LINE
  5
FF3A
  8
0
 10
3716.0969209906261312
 20
157.6632051877701883
 30
0.0
 11
3716.0969209906261312
 21
157.1184020381701885
 31
0.0
  0
ARC
  5
FF3B
  8
0
 10
3716.1273313183501159
 20
157.1185720014782135
 30
0.0
 40
0.0304108026818487
 50
180.3202227516455878
 51
269.2268944552254197
  0
LINE
  5
FF3C
  8
0
 10
3716.1269209906267861
 20
157.0881639671630126
 30
0.0
 11
3722.8292265024260814
 21
157.0881639671630126
 31
0.0
  0
ARC
  5
FF3D
  8
0
 10
3717.8435569495532036
 20
156.525075532285399
 30
0.0
 40
0.5631329161410389
 50
90.7201510352650757
 51
115.9949203892714991
  0
ARC
  5
FF3E
  8
0
 10
3718.0906099754670322
 20
156.0829780427320941
 30
0.0
 40
1.0691603107067309
 50
117.5112429990763019
 51
130.4434568757586987
  0
ARC
  5
FF3F
  8
0
 10
3717.3717302143932102
 20
156.9276252853840106
 30
0.0
 40
0.0399992930901297
 50
259.7996490918533254
 51
309.2695583972317195
  0
LINE
  5
FF40
  8
0
 10
3717.3646467088587997
 20
156.8882582001849926
 30
0.0
 11
3716.3014352583268192
 21
157.0795752107702015
 31
0.0
  0
LINE
  5
FF41
  8
0
 10
3716.4802440994881181
 20
157.0441872950225104
 30
0.0
 11
3716.4799071442848799
 21
157.0474605193059858
 31
0.0
  0
ARC
  5
FF42
  8
0
 10
3716.2229293317350312
 20
156.7250760766254132
 30
0.0
 40
0.3630878910393759
 50
77.5130396145871572
 51
90.0030121987297633
  0
LINE
  5
FF43
  8
0
 10
3717.1791578338170439
 20
156.9216355467627011
 30
0.0
 11
3717.1777053941268605
 21
156.9186942002702096
 31
0.0
  0
LINE
  5
FF44
  8
0
 10
3717.1777053941268605
 20
156.9186942002702096
 30
0.0
 11
3716.4802440994881181
 21
157.0441872950225104
 31
0.0
  0
ARC
  5
FF45
  8
0
 10
3716.9969115187341231
 20
156.972864680464113
 30
0.0
 40
0.1574803145489766
 50
306.545078346320679
 51
342.0271807490088918
  0
LINE
  5
FF46
  8
0
 10
3717.0906839672270507
 20
156.8463467869702015
 30
0.0
 11
3716.5365895895270114
 21
156.9460442223841028
 31
0.0
  0
ARC
  5
FF47
  8
0
 10
3716.6685807191729509
 20
157.0319405108187141
 30
0.0
 40
0.1574796198628741
 50
177.5727795723782094
 51
213.0549992596328082
  0
LINE
  5
FF48
  8
0
 10
3722.8682543232262105
 20
156.8216533705189022
 30
0.0
 11
3723.0356627231258244
 21
156.8216533705189022
 31
0.0
  0
LINE
  5
FF49
  8
0
 10
3723.0406151390311607
 20
156.8223021475859014
 30
0.0
 11
3725.0928350950262029
 21
156.804691159328712
 31
0.0
  0
LINE
  5
FF4A
  8
0
 10
3723.0356627258261142
 20
157.7724771679633022
 30
0.0
 11
3722.8682543243248801
 21
157.7724771679633022
 31
0.0
  0
LINE
  5
FF4B
  8
0
 10
3725.0928350947260697
 20
157.7894357505788037
 30
0.0
 11
3723.0415902573390667
 21
157.7718316488549135
 31
0.0
  0
LINE
  5
FF4C
  8
0
 10
3722.8292265024260814
 20
156.8617803413281138
 30
0.0
 11
3722.8292265024260814
 21
157.7323464498280998
 31
0.0
  0
LINE
  5
FF4D
  8
0
 10
3723.0654469748260453
 20
156.8504706741281041
 30
0.0
 11
3723.0654469748260453
 21
157.7436562357281105
 31
0.0
  0
LINE
  5
FF4E
  8
0
 10
3725.112691069326047
 20
156.824202122628094
 30
0.0
 11
3725.112691069326047
 21
157.7699247895280905
 31
0.0
  0
ARC
  5
FF4F
  8
0
 10
3722.8699361739568303
 20
156.8623320269788053
 30
0.0
 40
0.0407134095018573
 50
180.7764082446896907
 51
267.6324661145898745
  0
ARC
  5
FF50
  8
0
 10
3722.8719135449650821
 20
157.7298755350759052
 30
0.0
 40
0.0427584964697696
 50
94.9093087054672537
 51
176.6871636659483897
  0
ARC
  5
FF51
  8
0
 10
3723.0340605732039876
 20
156.8531097540567032
 30
0.0
 40
0.0314971578027255
 50
272.9156935713692747
 51
355.1936734182229998
  0
ARC
  5
FF52
  8
0
 10
3723.0353850812348355
 20
157.7423898952739876
 30
0.0
 40
0.0300885537106367
 50
2.4121265937387402
 51
89.4712910044766829
  0
ARC
  5
FF53
  8
0
 10
3725.0924273950181487
 20
156.8249650933705084
 30
0.0
 40
0.0202780329624953
 50
271.152037966240016
 51
357.8437097682858052
  0
ARC
  5
FF54
  8
0
 10
3725.0924881613391335
 20
157.7692236573008131
 30
0.0
 40
0.0202150705532476
 50
1.9876248233424001
 51
89.016634907838295
  0
LINE
  5
FF55
  8
0
 10
3725.4177871323258842
 20
156.2931264471287989
 30
0.0
 11
3725.1914091796261346
 21
156.2931264471287989
 31
0.0
  0
LINE
  5
FF56
  8
0
 10
3725.4276296520260985
 20
158.2911579431286953
 30
0.0
 11
3725.4276296520260985
 21
156.3029689668287006
 31
0.0
  0
LINE
  5
FF57
  8
0
 10
3725.1520391008261868
 20
158.2616303841780905
 30
0.0
 11
3725.1520391008261868
 21
156.3324965258780992
 31
0.0
  0
LINE
  5
FF58
  8
0
 10
3725.1914091796261346
 20
158.3010004628287106
 30
0.0
 11
3725.4177871323258842
 21
158.3010004628287106
 31
0.0
  0
ARC
  5
FF59
  8
0
 10
3725.1126690221258286
 20
156.8443075494780885
 30
0.0
 40
0.0393700787
 50
0.0
 51
89.9679144259201422
  0
ARC
  5
FF5A
  8
0
 10
3725.1126690221258286
 20
157.7498193605781012
 30
0.0
 40
0.0393700787
 50
270.032085574079872
 51
0.0
  0
ARC
  5
FF5B
  8
0
 10
3725.194281720336221
 20
156.3353690665360034
 30
0.0
 40
0.042340174592483
 50
183.8901818348645918
 51
266.1098180933062167
  0
ARC
  5
FF5C
  8
0
 10
3725.4169562511478944
 20
156.3037998480064914
 30
0.0
 40
0.01070569240306
 50
274.4512681058096746
 51
355.5487318936055772
  0
ARC
  5
FF5D
  8
0
 10
3725.19381216228021
 20
158.2592274014710085
 30
0.0
 40
0.0418421196982355
 50
93.2922939966976941
 51
176.7077059314740097
  0
ARC
  5
FF5E
  8
0
 10
3725.4177871324091029
 20
158.2911579432116014
 30
0.0
 40
0.0098425196171128
 50
359.9999995173242837
 51
90.0000004872304231
  0
ARC
  5
FF5F
  8
0
 10
3725.1299643829638626
 20
156.7534640186443937
 30
0.0
 40
0.0221345270279512
 50
276.1983269968076797
 51
355.7870702272368817
  0
LINE
  5
FF60
  8
0
 10
3725.1323542550858292
 20
156.731458887470211
 30
0.0
 11
3723.7465274834858064
 21
156.731458887470211
 31
0.0
  0
ARC
  5
FF61
  8
0
 10
3723.8305773493320885
 20
164.3345614915270971
 30
0.0
 40
7.603567162047395
 50
256.7975522216698891
 51
269.3666392948316002
  0
ARC
  5
FF62
  8
0
 10
3720.6149545762082198
 20
149.5840474517501093
 30
0.0
 40
7.4952905435628434
 50
78.6192906546907722
 51
86.3235495761217919
  0
ARC
  5
FF63
  8
0
 10
3720.21753227479212
 20
143.0034810642175955
 30
0.0
 40
14.0878208934625704
 50
86.4266718863774628
 51
88.7906567229672987
  0
ENDSEC
  0
EOF
