  0
SECTION
  2
HEADER
  9
$ACADVER
  1
AC1009
  9
$INSBASE
 10
4307.8158007739857567
 20
149.8367806056400013
 30
0.0
  9
$EXTMIN
 10
4300.8866669157359865
 20
149.8309499190768861
 30
0.0
  9
$EXTMAX
 10
4308.996903136236142
 20
157.958821920040009
 30
0.0
  9
$LIMMIN
 10
0.0
 20
0.0
  9
$LIMMAX
 10
11.6929133858000007
 20
8.2677165353999982
  9
$ORTHOMODE
 70
     1
  9
$REGENMODE
 70
     1
  9
$FILLMODE
 70
     1
  9
$QTEXTMODE
 70
     0
  9
$MIRRTEXT
 70
     0
  9
$DRAGMODE
 70
     2
  9
$LTSCALE
 40
0.6431102362
  9
$OSMODE
 70
  4095
  9
$ATTMODE
 70
     1
  9
$TEXTSIZE
 40
0.2
  9
$TRACEWID
 40
0.05
  9
$TEXTSTYLE
  7
STANDARD
  9
$CLAYER
  8
0
  9
$CELTYPE
  6
BYLAYER
  9
$CECOLOR
 62
   256
  9
$DIMSCALE
 40
1.0
  9
$DIMASZ
 40
0.1875
  9
$DIMEXO
 40
0.0625
  9
$DIMDLI
 40
0.4443307087
  9
$DIMRND
 40
0.0
  9
$DIMDLE
 40
0.0
  9
$DIMEXE
 40
0.125
  9
$DIMTP
 40
0.01
  9
$DIMTM
 40
0.01
  9
$DIMTXT
 40
2.0
  9
$DIMCEN
 40
0.1052362205
  9
$DIMTSZ
 40
0.0
  9
$DIMTOL
 70
     1
  9
$DIMLIM
 70
     0
  9
$DIMTIH
 70
     1
  9
$DIMTOH
 70
     1
  9
$DIMSE1
 70
     0
  9
$DIMSE2
 70
     0
  9
$DIMTAD
 70
     0
  9
$DIMZIN
 70
     0
  9
$DIMBLK
  1

  9
$DIMASO
 70
     1
  9
$DIMSHO
 70
     1
  9
$DIMPOST
  1
\X
  9
$DIMAPOST
  1

  9
$DIMALT
 70
     1
  9
$DIMALTD
 70
     2
  9
$DIMALTF
 40
25.3999999999999986
  9
$DIMLFAC
 40
1.0
  9
$DIMTOFL
 70
     0
  9
$DIMTVP
 40
0.0
  9
$DIMTIX
 70
     0
  9
$DIMSOXD
 70
     0
  9
$DIMSAH
 70
     0
  9
$DIMBLK1
  1

  9
$DIMBLK2
  1

  9
$DIMSTYLE
  2
STANDARD
  9
$DIMCLRD
 70
     0
  9
$DIMCLRE
 70
     0
  9
$DIMCLRT
 70
     0
  9
$DIMTFAC
 40
1.0
  9
$DIMGAP
 40
0.09
  9
$LUNITS
 70
     2
  9
$LUPREC
 70
     4
  9
$SKETCHINC
 40
0.1
  9
$FILLETRAD
 40
0.0
  9
$AUNITS
 70
     0
  9
$AUPREC
 70
     0
  9
$MENU
  1
.
  9
$ELEVATION
 40
0.0
  9
$PELEVATION
 40
0.0
  9
$THICKNESS
 40
0.0
  9
$LIMCHECK
 70
     0
  9
$BLIPMODE
 70
     0
  9
$CHAMFERA
 40
0.0
  9
$CHAMFERB
 40
0.0
  9
$SKPOLY
 70
     0
  9
$TDCREATE
 40
2458060.468368056230247
  9
$TDUPDATE
 40
2458967.6147337961010635
  9
$TDINDWG
 40
0.3099028935
  9
$TDUSRTIMER
 40
0.3099028935
  9
$USRTIMER
 70
     1
  9
$ANGBASE
 50
0.0
  9
$ANGDIR
 70
     0
  9
$PDMODE
 70
     0
  9
$PDSIZE
 40
0.3125
  9
$PLINEWID
 40
0.0
  9
$COORDS
 70
     1
  9
$SPLFRAME
 70
     0
  9
$SPLINETYPE
 70
     6
  9
$SPLINESEGS
 70
     8
  9
$ATTDIA
 70
     1
  9
$ATTREQ
 70
     1
  9
$HANDLING
 70
     1
  9
$HANDSEED
  5
7652
  9
$SURFTAB1
 70
     6
  9
$SURFTAB2
 70
     6
  9
$SURFTYPE
 70
     6
  9
$SURFU
 70
     6
  9
$SURFV
 70
     6
  9
$UCSNAME
  2

  9
$UCSORG
 10
0.0
 20
0.0
 30
0.0
  9
$UCSXDIR
 10
1.0
 20
0.0
 30
0.0
  9
$UCSYDIR
 10
0.0
 20
1.0
 30
0.0
  9
$PUCSNAME
  2

  9
$PUCSORG
 10
0.0
 20
0.0
 30
0.0
  9
$PUCSXDIR
 10
1.0
 20
0.0
 30
0.0
  9
$PUCSYDIR
 10
0.0
 20
1.0
 30
0.0
  9
$USERI1
 70
     0
  9
$USERI2
 70
     0
  9
$USERI3
 70
     0
  9
$USERI4
 70
     0
  9
$USERI5
 70
     0
  9
$USERR1
 40
0.0
  9
$USERR2
 40
0.0
  9
$USERR3
 40
0.0
  9
$USERR4
 40
0.0
  9
$USERR5
 40
0.0
  9
$WORLDVIEW
 70
     1
  9
$SHADEDGE
 70
     3
  9
$SHADEDIF
 70
    70
  9
$TILEMODE
 70
     1
  9
$MAXACTVP
 70
    64
  9
$PLIMCHECK
 70
     0
  9
$PEXTMIN
 10
1.0000000000000000E+20
 20
1.0000000000000000E+20
 30
1.0000000000000000E+20
  9
$PEXTMAX
 10
-1.0000000000000000E+20
 20
-1.0000000000000000E+20
 30
-1.0000000000000000E+20
  9
$PLIMMIN
 10
0.0
 20
0.0
  9
$PLIMMAX
 10
12.0
 20
9.0
  9
$UNITMODE
 70
     0
  9
$VISRETAIN
 70
     1
  9
$PLINEGEN
 70
     0
  9
$PSLTSCALE
 70
     1
  0
ENDSEC
  0
SECTION
  2
TABLES
  0
TABLE
  2
VPORT
 70
     1
  0
VPORT
  2
*ACTIVE
 70
     0
 10
0.0
 20
0.0
 11
1.0
 21
1.0
 12
0.0
 22
0.0
 13
0.0
 23
0.0
 14
1.0
 24
1.0
 15
0.0
 25
0.0
 16
0.0
 26
0.0
 36
40.1591625106133634
 17
4304.94189453125
 27
153.8948832236985993
 37
0.0
 40
11.4932813392670994
 41
2.7303822937625748
 42
50.0
 43
0.0
 44
0.0
 50
0.0
 51
0.0
 71
     0
 72
   100
 73
     1
 74
     1
 75
     0
 76
     0
 77
     0
 78
     0
  0
ENDTAB
  0
TABLE
  2
LTYPE
 70
     2
  0
LTYPE
  2
CONTINUOUS
 70
     0
  3
Solid line
 72
    65
 73
     0
 40
0.0
  0
LTYPE
  2
PHANTOM2
 70
     0
  3
___ _ _ ___ _ _ ___ _ _ ___ _ _
 72
    65
 73
     6
 40
1.25
 49
0.625
 49
-0.125
 49
0.125
 49
-0.125
 49
0.125
 49
-0.125
  0
ENDTAB
  0
TABLE
  2
LAYER
 70
     2
  0
LAYER
  2
0
 70
     0
 62
   255
  6
CONTINUOUS
  0
LAYER
  2
DEFPOINTS
 70
     0
 62
     7
  6
CONTINUOUS
  0
ENDTAB
  0
TABLE
  2
STYLE
 70
     1
  0
STYLE
  2
STANDARD
 70
     0
 40
0.0
 41
0.8
 50
0.0
 71
     0
 42
0.2
  3
txt
  4

  0
ENDTAB
  0
TABLE
  2
VIEW
 70
     0
  0
ENDTAB
  0
TABLE
  2
UCS
 70
     0
  0
ENDTAB
  0
TABLE
  2
APPID
 70
     9
  0
APPID
  2
ACAD
 70
     0
  0
APPID
  2
ACAD_MLEADERVER
 70
     0
  0
APPID
  2
ACAD_EXEMPT_FROM_CAD_STANDARDS
 70
     0
  0
APPID
  2
ACAD_NAV_VCDISPLAY
 70
     0
  0
APPID
  2
ACAECLAYERSTANDARD
 70
     0
  0
APPID
  2
ACCMTRANSPARENCY
 70
     0
  0
APPID
  2
ACAD_DSTYLE_DIMJAG
 70
     0
  0
APPID
  2
ACAD_DSTYLE_DIMTALN
 70
     0
  0
APPID
  2
ACDBATTR
 70
     0
  0
ENDTAB
  0
TABLE
  2
DIMSTYLE
 70
     1
  0
DIMSTYLE
  2
STANDARD
 70
     0
  3

  4

  5

  6

  7

 40
1.0
 41
0.1875
 42
0.0625
 43
0.38
 44
0.125
 45
0.0
 46
0.0
 47
0.01
 48
0.01
140
0.15625
141
0.09
142
0.0
143
25.3999999999999986
144
1.0
145
0.0
146
1.0
147
0.09
 71
     1
 72
     0
 73
     1
 74
     1
 75
     0
 76
     0
 77
     0
 78
     4
170
     0
171
     2
172
     0
173
     0
174
     0
175
     0
176
     0
177
     0
178
     0
  0
ENDTAB
  0
ENDSEC
  0
SECTION
  2
BLOCKS
  0
BLOCK
  8
0
  2
$MODEL_SPACE
 70
     0
 10
0.0
 20
0.0
 30
0.0
  3
$MODEL_SPACE
  1

  0
ENDBLK
  5
21
  8
0
  0
BLOCK
 67
     1
  8
0
  2
$PAPER_SPACE
 70
     0
 10
0.0
 20
0.0
 30
0.0
  3
$PAPER_SPACE
  1

  0
ENDBLK
  5
1D
 67
     1
  8
0
  0
ENDSEC
  0
SECTION
  2
ENTITIES
  0
ATTDEF
  5
3930
  8
DEFPOINTS
 10
4307.810625088881352
 20
149.834283252410188
 30
0.0
 40
0.001
  1
K-22572T-9
  3

  2
MODELNUMBER
 70
     0
1001
ACDBATTR
1070
     0
1070
     1
  0
ATTDEF
  5
3931
  8
DEFPOINTS
 10
4307.810625088881352
 20
149.8326165857434944
 30
0.0
 40
0.001
  1
PARALLEL
  3

  2
TRADENAME
 70
     0
1001
ACDBATTR
1070
     0
1070
     1
  0
ATTDEF
  5
3932
  8
DEFPOINTS
 10
4307.810625088881352
 20
149.8309499190768861
 30
0.0
 40
0.001
  1
HANDSHOWER
  3

  2
PRODUCT
 70
     0
1001
ACDBATTR
1070
     0
1070
     1
  0
LINE
  5
704C
  8
0
 10
4300.8866669157359865
 20
149.8466231253399883
 30
0.0
 11
4300.8866669157359865
 21
150.0730010781400097
 31
0.0
  0
LINE
  5
704D
  8
0
 10
4303.239029120435589
 20
149.8367806056400013
 30
0.0
 11
4300.8965094354362009
 21
149.8367806056400013
 31
0.0
  0
LINE
  5
704E
  8
0
 10
4306.6445409314355857
 20
149.8367806056400013
 30
0.0
 11
4308.9870606165359277
 21
149.8367806056400013
 31
0.0
  0
LINE
  5
704F
  8
0
 10
4306.6740684905362286
 20
150.1123711568399983
 30
0.0
 11
4308.9575330574361942
 21
150.1123711568399983
 31
0.0
  0
LINE
  5
7050
  8
0
 10
4303.2095015614358999
 20
150.1123711568399983
 30
0.0
 11
4300.9260369944349804
 21
150.1123711568399983
 31
0.0
  0
LINE
  5
7051
  8
0
 10
4301.5165881755374357
 20
151.4903239127399956
 30
0.0
 11
4301.5165881755374357
 21
151.3672130208400119
 31
0.0
  0
LINE
  5
7052
  8
0
 10
4301.6445409314355857
 20
150.151741235539987
 30
0.0
 11
4302.4909976244352947
 21
150.151741235539987
 31
0.0
  0
LINE
  5
7053
  8
0
 10
4301.6346984118363252
 20
151.2147333629399952
 30
0.0
 11
4301.6346984118363252
 21
150.1615837552400023
 31
0.0
  0
LINE
  5
7054
  8
0
 10
4301.7331236086356512
 20
150.1320561962400006
 30
0.0
 11
4301.7331236086356512
 21
150.151741235539987
 31
0.0
  0
LINE
  5
7055
  8
0
 10
4302.579580297636312
 20
151.5296939914400127
 30
0.0
 11
4301.5559582582363873
 21
151.5296939914400127
 31
0.0
  0
LINE
  5
7056
  8
0
 10
4306.6346984118363252
 20
149.8466231253399883
 30
0.0
 11
4306.6346984118363252
 21
150.0730010781400097
 31
0.0
  0
LINE
  5
7057
  8
0
 10
4307.2646196716359555
 20
150.8877541082399887
 30
0.0
 11
4307.2646196716359555
 21
157.569078024940012
 31
0.0
  0
LINE
  5
7058
  8
0
 10
4307.8560148802353069
 20
156.3340489416399919
 30
0.0
 11
4307.8686923344357638
 21
156.3748310915399884
 31
0.0
  0
LINE
  5
7059
  8
0
 10
4307.5388962603356049
 20
153.322261510340013
 30
0.0
 11
4307.5401508891372941
 21
153.2206034448400089
 31
0.0
  0
LINE
  5
705A
  8
0
 10
4307.3630448684361909
 20
150.4339065899399941
 30
0.0
 11
4307.3630448684361909
 21
150.1123711568399983
 31
0.0
  0
LINE
  5
705B
  8
0
 10
4307.3630448684361909
 20
150.5317655684399938
 30
0.0
 11
4307.3630448684361909
 21
150.6659424193400127
 31
0.0
  0
LINE
  5
705C
  8
0
 10
4307.5126511676371592
 20
156.6893732637400092
 30
0.0
 11
4307.5126511676371592
 21
156.7263550176400031
 31
0.0
  0
LINE
  5
705D
  8
0
 10
4307.5126511677362942
 20
157.0067361498400089
 30
0.0
 11
4307.5126511677362942
 21
157.0437179036399868
 31
0.0
  0
LINE
  5
705E
  8
0
 10
4307.6701314826359521
 20
156.9894499951400064
 30
0.0
 11
4307.6701314826359521
 21
156.918677941540011
 31
0.0
  0
LINE
  5
705F
  8
0
 10
4307.6701314826359521
 20
156.7056554492399982
 30
0.0
 11
4307.6701314826359521
 21
156.640289445039997
 31
0.0
  0
LINE
  5
7060
  8
0
 10
4307.7333223440364236
 20
150.3132570660399949
 30
0.0
 11
4307.7333223440364236
 21
150.4840198625400092
 31
0.0
  0
LINE
  5
7061
  8
0
 10
4307.7751256331366676
 20
156.3357343856278021
 30
0.0
 11
4307.7629092135348401
 21
156.3748310915399884
 31
0.0
  0
ARC
  5
7062
  8
0
 10
4301.546705154414667
 20
151.2075659811335981
 30
0.0
 40
0.0882846799479191
 50
4.656676345133361
 51
70.8655020775897668
  0
ARC
  5
7063
  8
0
 10
4300.9290564144812379
 20
150.069981658095486
 30
0.0
 40
0.0424968999012178
 50
94.0743186516949379
 51
175.9256813485899897
  0
ARC
  5
7064
  8
0
 10
4301.5596885932736768
 20
151.4865935734318043
 30
0.0
 40
0.0432615468052425
 50
94.9466146359813337
 51
175.0533796883042896
  0
ARC
  5
7065
  8
0
 10
4301.713438569236132
 20
150.1320561962400006
 30
0.0
 40
0.0196850394
 50
270.0
 51
0.0
  0
ARC
  5
7066
  8
0
 10
4300.8971453804451812
 20
149.8472590703491107
 30
0.0
 40
0.0104977449347235
 50
183.4730590654747004
 51
266.5269409351020045
  0
ARC
  5
7067
  8
0
 10
4301.6453832408633389
 20
150.1624260646667892
 30
0.0
 40
0.0107179782906267
 50
184.5074350842218962
 51
265.4925649202929776
  0
ARC
  5
7068
  8
0
 10
4307.8061525282391813
 20
150.434355885651712
 30
0.0
 40
0.4431078874874204
 50
169.1516222198499122
 51
180.0580959020790885
  0
ARC
  5
7069
  8
0
 10
4306.6777063495255788
 20
150.0693632191508868
 30
0.0
 40
0.043161518999006
 50
94.8348980026784716
 51
175.1651019982153912
  0
ARC
  5
706A
  8
0
 10
4306.6451312893213981
 20
149.8472134832242091
 30
0.0
 40
0.0104495673173265
 50
183.2387020199155074
 51
266.7612979771909067
  0
ARC
  5
706B
  8
0
 10
4301.5984715255181072
 20
151.3696477409413035
 30
0.0
 40
0.0819195389767349
 50
181.7031313081070891
 51
253.8196669882341041
  0
LINE
  5
706C
  8
0
 10
4303.2488716401358033
 20
149.8466231253399883
 30
0.0
 11
4303.2488716401358033
 21
150.0730010781400097
 31
0.0
  0
LINE
  5
706D
  8
0
 10
4302.6189503803361731
 20
151.4903239127399956
 30
0.0
 11
4302.6189503803361731
 21
151.3672130208400119
 31
0.0
  0
LINE
  5
706E
  8
0
 10
4302.5008401440372836
 20
151.2147333629399952
 30
0.0
 11
4302.5008401440372836
 21
150.1615837552400023
 31
0.0
  0
LINE
  5
706F
  8
0
 10
4302.4024149472361387
 20
150.1320561962400006
 30
0.0
 11
4302.4024149472361387
 21
150.151741235539987
 31
0.0
  0
ARC
  5
7070
  8
0
 10
4302.5888334014571228
 20
151.2075659811335981
 30
0.0
 40
0.0882846799479191
 50
109.1344979224102048
 51
175.3433236548665946
  0
ARC
  5
7071
  8
0
 10
4303.206482141392371
 20
150.069981658095486
 30
0.0
 40
0.0424968999012178
 50
4.0743186514099907
 51
85.9256813483050479
  0
ARC
  5
7072
  8
0
 10
4302.5758499625972036
 20
151.4865935734318043
 30
0.0
 40
0.0432615468052425
 50
4.9466203116957059
 51
85.0533853640186663
  0
ARC
  5
7073
  8
0
 10
4302.4220999866356578
 20
150.1320561962400006
 30
0.0
 40
0.0196850394
 50
180.0
 51
270.0
  0
ARC
  5
7074
  8
0
 10
4303.2383931754266087
 20
149.8472590703491107
 30
0.0
 40
0.0104977449347235
 50
273.4730590648978819
 51
356.5269409345252143
  0
ARC
  5
7075
  8
0
 10
4302.4901553150093605
 20
150.1624260646667892
 30
0.0
 40
0.0107179782906267
 50
274.5074350797070224
 51
355.4925649157780754
  0
ARC
  5
7076
  8
0
 10
4302.5370670303536826
 20
151.3696477409413035
 30
0.0
 40
0.0819195389767349
 50
286.1803330117654127
 51
358.2968686918928825
  0
ARC
  5
7077
  8
0
 10
4307.6611624631814266
 20
150.6909983702554996
 30
0.0
 40
0.3379780843054167
 50
208.107900431839596
 51
230.3551405592235142
  0
ARC
  5
7078
  8
0
 10
4307.9966762132844451
 20
151.3695668072637091
 30
0.0
 40
1.088643894876574
 50
239.583990329033611
 51
256.0007010954004727
  0
ARC
  5
7079
  8
0
 10
4307.8156858379479672
 20
150.9858860518864105
 30
0.0
 40
0.6776529330934384
 50
263.0188787314176011
 51
270.0097178842560766
  0
ARC
  5
707A
  8
0
 10
4307.629564855928038
 20
150.9093194525682975
 30
0.0
 40
0.36558179879993
 50
183.3817901585578909
 51
206.9210074541036022
  0
ARC
  5
707B
  8
0
 10
4307.6131235802986339
 20
150.9185036820549044
 30
0.0
 40
0.3554244695451243
 50
209.4419083489252102
 51
225.2829829238002048
  0
ARC
  5
707C
  8
0
 10
4307.7716343524398326
 20
151.0956255041016902
 30
0.0
 40
0.5929358479368054
 50
226.4414396417012938
 51
261.9444554564875034
  0
ARC
  5
707D
  8
0
 10
4307.8292211650432364
 20
151.4344049819140992
 30
0.0
 40
0.9364909343239411
 50
261.3605067725677031
 51
269.1788942533738123
  0
ARC
  5
707E
  8
0
 10
4307.6615469722646594
 20
150.6140368395338101
 30
0.0
 40
0.3061195827006764
 50
198.3323521414963864
 51
225.5956155504337914
  0
ARC
  5
707F
  8
0
 10
4307.8158007740357789
 20
150.6584581972400088
 30
0.0
 40
0.4527559054999933
 50
215.5314606617270101
 51
270.0
  0
ARC
  5
7080
  8
0
 10
4307.8030868396599544
 20
150.800097931215106
 30
0.0
 40
0.5388679459807055
 50
228.6881797662285862
 51
271.351949743202681
  0
ARC
  5
7081
  8
0
 10
4307.8156858727088547
 20
151.1566494325365966
 30
0.0
 40
0.6776535171377864
 50
263.0188818172284186
 51
270.0097149326817885
  0
LINE
  5
7082
  8
0
 10
4307.6885444518557051
 20
150.5085403414628047
 30
0.0
 11
4307.7333223440364236
 21
150.4840198625400092
 31
0.0
  0
ARC
  5
7083
  8
0
 10
4307.6593771967800421
 20
157.5383862676094111
 30
0.0
 40
0.3959488447082413
 50
152.8867533402624019
 51
175.554289501255596
  0
ARC
  5
7084
  8
0
 10
4307.7402508859213413
 20
157.4245369200193068
 30
0.0
 40
0.5238058916259603
 50
100.5443906245717045
 51
145.81577231171579
  0
ARC
  5
7085
  8
0
 10
4307.8280590951562772
 20
157.0802600591009934
 30
0.0
 40
0.8786473751936078
 50
90.7993796750586171
 51
102.0654865749819038
  0
ARC
  5
7086
  8
0
 10
4307.7226602458449634
 20
157.5949466826587013
 30
0.0
 40
0.4587704819116747
 50
183.2324474080716072
 51
193.1487896954342034
  0
ARC
  5
7087
  8
0
 10
4307.6973607332010943
 20
157.6525913190953077
 30
0.0
 40
0.4515089443930622
 50
201.0271454978424117
 51
255.3287349046806014
  0
ARC
  5
7088
  8
0
 10
4307.8134441489492019
 20
157.925518799171698
 30
0.0
 40
0.7461883908078706
 50
252.0118305926218056
 51
270.1809528192218863
  0
ARC
  5
7089
  8
0
 10
4307.5759811944981266
 20
156.9454858124784948
 30
0.0
 40
0.0612536741581148
 50
39.5531555958909422
 51
104.2298471165043026
  0
ARC
  5
708A
  8
0
 10
4307.6001712778434012
 20
156.9647719028316999
 30
0.0
 40
0.0303257305966675
 50
355.9946016018124055
 51
40.5618562964867593
  0
ARC
  5
708B
  8
0
 10
4307.6091502977433265
 20
156.968985972911895
 30
0.0
 40
0.0221951271023157
 50
263.6941506608756072
 51
343.4230385909484085
  0
ARC
  5
708C
  8
0
 10
4307.6078514736627767
 20
157.0061321454938934
 30
0.0
 40
0.0592179682581168
 50
202.5427540426358064
 51
268.8979082001786196
  0
ARC
  5
708D
  8
0
 10
4307.5679911558872845
 20
156.9901766955894118
 30
0.0
 40
0.0162954613614594
 50
115.7007691490049979
 51
204.4593814527679001
  0
ARC
  5
708E
  8
0
 10
4307.6050009900291116
 20
157.0342274118646912
 30
0.0
 40
0.0529641104415159
 50
213.6746529757577946
 51
290.1083497379173082
  0
ARC
  5
708F
  8
0
 10
4307.5469709805038292
 20
157.0438449964175049
 30
0.0
 40
0.0343200480913256
 50
167.5717892859676112
 51
180.2121761711800048
  0
ARC
  5
7090
  8
0
 10
4307.5394150759266267
 20
157.0131985772638927
 30
0.0
 40
0.0460477894705456
 50
90.2760482039975045
 51
124.3162284869317062
  0
ARC
  5
7091
  8
0
 10
4307.5379445416510862
 20
156.8846790417231887
 30
0.0
 40
0.1745712564212611
 50
58.3981225686838812
 51
89.5901693165710782
  0
ARC
  5
7092
  8
0
 10
4307.5729511666258986
 20
156.9324562299401862
 30
0.0
 40
0.1156338247509572
 50
33.2841535227003504
 51
60.7670458971872094
  0
ARC
  5
7093
  8
0
 10
4307.6285225285218985
 20
156.9893875492724931
 30
0.0
 40
0.0416090009725955
 50
0.0859882697921045
 51
9.0257576540480908
  0
ARC
  5
7094
  8
0
 10
4307.563661199093076
 20
157.0074805646106029
 30
0.0
 40
0.0510154628763783
 50
180.8360864708232896
 51
197.9735859936396025
  0
ARC
  5
7095
  8
0
 10
4307.6266355626848963
 20
157.0361368565220914
 30
0.0
 40
0.1200147101147995
 50
201.7120843724025008
 51
251.6970118128805041
  0
ARC
  5
7096
  8
0
 10
4307.7974990997499845
 20
157.5893271806681923
 30
0.0
 40
0.6989716617677842
 50
252.6401847028292025
 51
257.3328286154264219
  0
ARC
  5
7097
  8
0
 10
4307.652532681190678
 20
156.9322987227743909
 30
0.0
 40
0.0262787059979425
 50
251.5671732221697141
 51
296.0582868143064275
  0
ARC
  5
7098
  8
0
 10
4307.6587346501610227
 20
156.9187590148632125
 30
0.0
 40
0.0113971208362537
 50
297.950220889632476
 51
359.5924235168212135
  0
ARC
  5
7099
  8
0
 10
4307.5464216214586486
 20
157.0251092387545953
 30
0.0
 40
0.0420612043610562
 50
141.6073629707339023
 51
218.1204978068485048
  0
ARC
  5
709A
  8
0
 10
4307.5762325601190241
 20
156.6286236975327881
 30
0.0
 40
0.0607474773234328
 50
39.3371701782883108
 51
104.8837958520379061
  0
ARC
  5
709B
  8
0
 10
4307.6012153960318756
 20
156.6477998881649967
 30
0.0
 40
0.0292868078664219
 50
354.5862726560520173
 51
41.3032448798719329
  0
ARC
  5
709C
  8
0
 10
4307.6093096995473388
 20
156.6516111808383016
 30
0.0
 40
0.0220641139506081
 50
266.1958403504386865
 51
342.6643744468123032
  0
ARC
  5
709D
  8
0
 10
4307.6086639574050423
 20
156.6908869582570958
 30
0.0
 40
0.0612967365611995
 50
210.057211592211587
 51
269.2352472287478804
  0
ARC
  5
709E
  8
0
 10
4307.5701922797488805
 20
156.6715273336305074
 30
0.0
 40
0.0184736621993194
 50
121.1761766018326938
 51
217.8749969825761923
  0
ARC
  5
709F
  8
0
 10
4307.5813936009353711
 20
156.6931305018115097
 30
0.0
 40
0.0688450359415453
 50
183.1284883342410978
 51
218.9626696421721874
  0
ARC
  5
70A0
  8
0
 10
4307.6257584096019855
 20
156.7200310906985123
 30
0.0
 40
0.1204590430256536
 50
215.6405665943294991
 51
267.2473407528852931
  0
ARC
  5
70A1
  8
0
 10
4307.6252506193586669
 20
156.6444768448205878
 30
0.0
 40
0.0450757829147409
 50
263.276746348823508
 51
354.6697152063513272
  0
ARC
  5
70A2
  8
0
 10
4307.6323927335379267
 20
156.6642734739315017
 30
0.0
 40
0.0560060805976185
 50
47.6364033570837577
 51
75.4007557615126842
  0
ARC
  5
70A3
  8
0
 10
4307.8086368164113082
 20
157.4213753868511958
 30
0.0
 40
0.7213594818829412
 50
252.2722396440130979
 51
257.0116725221097909
  0
ARC
  5
70A4
  8
0
 10
4307.5442766072010272
 20
156.6055419090976102
 30
0.0
 40
0.1362718050578153
 50
70.8467893917778468
 51
94.2732983268255964
  0
ARC
  5
70A5
  8
0
 10
4307.5371581686958962
 20
156.7011753174595015
 30
0.0
 40
0.0403738466248577
 50
94.3121521830220786
 51
125.9700134555186963
  0
ARC
  5
70A6
  8
0
 10
4307.5469119330937247
 20
156.7265206070904071
 30
0.0
 40
0.0342611656207545
 50
167.6459337621994052
 51
180.2769203383735999
  0
ARC
  5
70A7
  8
0
 10
4307.538552326415811
 20
156.7111573644262137
 30
0.0
 40
0.033844010827545
 50
137.8918519291555072
 51
220.0654241387238983
  0
ARC
  5
70A8
  8
0
 10
4307.6048121616895514
 20
156.7171632290607022
 30
0.0
 40
0.0533103501534172
 50
214.0252025705906931
 51
290.1957628886112843
  0
ARC
  5
70A9
  8
0
 10
4307.8244826301342982
 20
153.3544393668439909
 30
0.0
 40
0.6415905099414614
 50
90.7753370566658901
 51
108.1250956387943063
  0
ARC
  5
70AA
  8
0
 10
4307.6648653688125705
 20
153.8446413071372945
 30
0.0
 40
0.1260593812839926
 50
108.4892890929178009
 51
172.1390349255715932
  0
ARC
  5
70AB
  8
0
 10
4307.731194557713934
 20
153.8548797725864006
 30
0.0
 40
0.1913321631388791
 50
177.9025419246310946
 51
202.6966709937852045
  0
ARC
  5
70AC
  8
0
 10
4307.8102702149699326
 20
153.8859585113513901
 30
0.0
 40
0.276282172935638
 50
202.3151863367124008
 51
221.9556913248746071
  0
ARC
  5
70AD
  8
0
 10
4307.8244919151156864
 20
153.8928280750656086
 30
0.0
 40
0.2914841995010325
 50
221.0908944948745898
 51
255.0314902625082993
  0
ARC
  5
70AE
  8
0
 10
4307.8150879153708956
 20
153.8628000190890077
 30
0.0
 40
0.2600495122300155
 50
255.3243080658733959
 51
270.1570617871780087
  0
ARC
  5
70AF
  8
0
 10
4307.8146704662558477
 20
153.2271026548125121
 30
0.0
 40
0.2535116929014583
 50
256.4307497775521938
 51
270.2554599211426876
  0
ARC
  5
70B0
  8
0
 10
4307.8235346089513769
 20
153.2619860012127901
 30
0.0
 40
0.2895013744276422
 50
227.3362876489815108
 51
256.3451781186132052
  0
ARC
  5
70B1
  8
0
 10
4307.8068097198402029
 20
153.2521399851422075
 30
0.0
 40
0.2709852145778707
 50
194.1889945989900923
 51
228.525898236137607
  0
ARC
  5
70B2
  8
0
 10
4307.668297818566316
 20
153.2185807033258129
 30
0.0
 40
0.1285789085665008
 50
161.0170840751194987
 51
194.1326289342777898
  0
ARC
  5
70B3
  8
0
 10
4307.678507792162236
 20
153.2025346050643009
 30
0.0
 40
0.1439419855339519
 50
104.6716847303341069
 51
156.2939646567662066
  0
ARC
  5
70B4
  8
0
 10
4307.8278093729295506
 20
152.6678778167492112
 30
0.0
 40
0.6990384691110644
 50
90.9843176212572473
 51
105.4106485415993006
  0
ARC
  5
70B5
  8
0
 10
4307.6407538535286221
 20
153.3242826551376936
 30
0.0
 40
0.1019163436360023
 50
130.2397725761634888
 51
182.1159334128103922
  0
ARC
  5
70B6
  8
0
 10
4307.7389009330318004
 20
153.0927282646453023
 30
0.0
 40
0.3501276142702925
 50
95.0541886967712486
 51
117.9275259873730022
  0
ARC
  5
70B7
  8
0
 10
4307.8130250890890238
 20
152.6002873386580063
 30
0.0
 40
0.8477311790051526
 50
89.8123988854708983
 51
97.112861260592652
  0
LINE
  5
70B8
  8
0
 10
4308.9969031361360976
 20
149.8466231253399883
 30
0.0
 11
4308.9969031361360976
 21
150.0730010781400097
 31
0.0
  0
LINE
  5
70B9
  8
0
 10
4308.3669818763373769
 20
150.8877541082399887
 30
0.0
 11
4308.3669818763373769
 21
157.569078024940012
 31
0.0
  0
LINE
  5
70BA
  8
0
 10
4308.0927052876359085
 20
153.322261510340013
 30
0.0
 11
4308.0914506588360382
 21
153.2206034448400089
 31
0.0
  0
LINE
  5
70BB
  8
0
 10
4308.268556679536232
 20
150.4339065899399941
 30
0.0
 11
4308.268556679536232
 21
150.1123711568399983
 31
0.0
  0
LINE
  5
70BC
  8
0
 10
4308.268556679536232
 20
150.5317655684399938
 30
0.0
 11
4308.268556679536232
 21
150.6659424193400127
 31
0.0
  0
LINE
  5
70BD
  8
0
 10
4308.1189503803361731
 20
156.6893732637400092
 30
0.0
 11
4308.1189503803361731
 21
156.7263550176400031
 31
0.0
  0
LINE
  5
70BE
  8
0
 10
4308.1189503802361287
 20
157.0067361498400089
 30
0.0
 11
4308.1189503802361287
 21
157.0437179036399868
 31
0.0
  0
LINE
  5
70BF
  8
0
 10
4307.9614700653355612
 20
156.9894499951400064
 30
0.0
 11
4307.9614700653355612
 21
156.918677941540011
 31
0.0
  0
LINE
  5
70C0
  8
0
 10
4307.9614700653355612
 20
156.7056554492399982
 30
0.0
 11
4307.9614700653355612
 21
156.640289445039997
 31
0.0
  0
LINE
  5
70C1
  8
0
 10
4307.8982792039359992
 20
150.3132570660399949
 30
0.0
 11
4307.8982792039359992
 21
150.4840198625400092
 31
0.0
  0
ARC
  5
70C2
  8
0
 10
4307.8254490197341511
 20
150.434355885651712
 30
0.0
 40
0.4431078874874204
 50
359.9419040979208262
 51
10.8483777801500292
  0
ARC
  5
70C3
  8
0
 10
4308.953895198446844
 20
150.0693632191508868
 30
0.0
 40
0.043161518999006
 50
4.8348980017845777
 51
85.1651019973215142
  0
ARC
  5
70C4
  8
0
 10
4308.9864702586510248
 20
149.8472134832242091
 30
0.0
 40
0.0104495673173265
 50
273.2387020228089796
 51
356.7612979800844073
  0
ARC
  5
70C5
  8
0
 10
4307.9704390847900868
 20
150.6909983702554996
 30
0.0
 40
0.3379780843054167
 50
309.6448594407764858
 51
331.892099568160404
  0
ARC
  5
70C6
  8
0
 10
4307.6349253346879777
 20
151.3695668072637091
 30
0.0
 40
1.088643894876574
 50
283.9992989045995273
 51
300.416009670966389
  0
ARC
  5
70C7
  8
0
 10
4307.8159157100226366
 20
150.9858860518864105
 30
0.0
 40
0.6776529330934384
 50
269.9902821157439234
 51
276.9811212685825126
  0
ARC
  5
70C8
  8
0
 10
4308.0020366920443848
 20
150.9093194525682975
 30
0.0
 40
0.36558179879993
 50
333.0789925458963125
 51
356.6182098414420807
  0
ARC
  5
70C9
  8
0
 10
4308.0184779676728795
 20
150.9185036820549044
 30
0.0
 40
0.3554244695451243
 50
314.7170170761996815
 51
330.5580916510747898
  0
ARC
  5
70CA
  8
0
 10
4307.8599671955316808
 20
151.0956255041016902
 30
0.0
 40
0.5929358479368054
 50
278.0555445435123829
 51
313.5585603582986778
  0
ARC
  5
70CB
  8
0
 10
4307.8023803829291865
 20
151.4344049819140992
 30
0.0
 40
0.9364909343239411
 50
270.8211057466261877
 51
278.6394932274322969
  0
ARC
  5
70CC
  8
0
 10
4307.9700545757068539
 20
150.6140368395338101
 30
0.0
 40
0.3061195827006764
 50
314.4043844495661801
 51
341.6676478585035852
  0
ARC
  5
70CD
  8
0
 10
4307.8158007739357345
 20
150.6584581972400088
 30
0.0
 40
0.4527559054999933
 50
270.0
 51
324.4685393382729899
  0
ARC
  5
70CE
  8
0
 10
4307.8285147083133779
 20
150.800097931215106
 30
0.0
 40
0.5388679459807055
 50
268.6480502567972053
 51
311.3118202337715275
  0
ARC
  5
70CF
  8
0
 10
4307.8159156752626586
 20
151.1566494325365966
 30
0.0
 40
0.6776535171377864
 50
269.9902850673182115
 51
276.9811181827715814
  0
LINE
  5
70D0
  8
0
 10
4307.9430570961148987
 20
150.5085403414628047
 30
0.0
 11
4307.8982792039359992
 21
150.4840198625400092
 31
0.0
  0
ARC
  5
70D1
  8
0
 10
4307.9722243511923807
 20
157.5383862676094111
 30
0.0
 40
0.3959488447082413
 50
4.4457104987444058
 51
27.1132466597376087
  0
ARC
  5
70D2
  8
0
 10
4307.8913506620510816
 20
157.4245369200193068
 30
0.0
 40
0.5238058916259603
 50
34.1842276882842029
 51
79.4556093754283239
  0
ARC
  5
70D3
  8
0
 10
4307.90894130212655
 20
157.5949466826587013
 30
0.0
 40
0.4587704819116747
 50
346.851210304565825
 51
356.7675525919283928
  0
ARC
  5
70D4
  8
0
 10
4307.9342408147722381
 20
157.6525913190953077
 30
0.0
 40
0.4515089443930622
 50
284.671265095319427
 51
338.9728545021575883
  0
ARC
  5
70D5
  8
0
 10
4307.8181573990232209
 20
157.925518799171698
 30
0.0
 40
0.7461883908078706
 50
269.8190471807781137
 51
287.9881694073781091
  0
ARC
  5
70D6
  8
0
 10
4308.0556203534733868
 20
156.9454858124784948
 30
0.0
 40
0.0612536741581148
 50
75.7701528834956548
 51
140.4468444041091004
  0
ARC
  5
70D7
  8
0
 10
4308.0314302701290217
 20
156.9647719028316999
 30
0.0
 40
0.0303257305966675
 50
139.438143703513191
 51
184.0053983981875945
  0
ARC
  5
70D8
  8
0
 10
4308.0224512502290963
 20
156.968985972911895
 30
0.0
 40
0.0221951271023157
 50
196.5769614090515915
 51
276.3058493391243928
  0
ARC
  5
70D9
  8
0
 10
4308.0237500743078272
 20
157.0061321454938934
 30
0.0
 40
0.0592179682581168
 50
271.1020917998213804
 51
337.4572459573640799
  0
ARC
  5
70DA
  8
0
 10
4308.0636103920851383
 20
156.9901766955894118
 30
0.0
 40
0.0162954613614594
 50
335.5406185472320999
 51
64.2992308509949453
  0
ARC
  5
70DB
  8
0
 10
4308.0266005579442208
 20
157.0342274118646912
 30
0.0
 40
0.0529641104415159
 50
249.8916502620826918
 51
326.3253470242422054
  0
ARC
  5
70DC
  8
0
 10
4308.0846305674685937
 20
157.0438449964175049
 30
0.0
 40
0.0343200480913256
 50
359.78782382881991
 51
12.4282107140323994
  0
ARC
  5
70DD
  8
0
 10
4308.0921864720448866
 20
157.0131985772638927
 30
0.0
 40
0.0460477894705456
 50
55.6837715130683293
 51
89.7239517960024955
  0
ARC
  5
70DE
  8
0
 10
4308.0936570063204272
 20
156.8846790417231887
 30
0.0
 40
0.1745712564212611
 50
90.4098306834289218
 51
121.6018774313160975
  0
ARC
  5
70DF
  8
0
 10
4308.0586503813456147
 20
156.9324562299401862
 30
0.0
 40
0.1156338247509572
 50
119.2329541028127977
 51
146.7158464772996069
  0
ARC
  5
70E0
  8
0
 10
4308.0030790194496149
 20
156.9893875492724931
 30
0.0
 40
0.0416090009725955
 50
170.9742423459518932
 51
179.9140117302079034
  0
ARC
  5
70E1
  8
0
 10
4308.0679403488793469
 20
157.0074805646106029
 30
0.0
 40
0.0510154628763783
 50
342.0264140063603122
 51
359.1639135291766252
  0
ARC
  5
70E2
  8
0
 10
4308.0049659852857076
 20
157.0361368565220914
 30
0.0
 40
0.1200147101147995
 50
288.3029881871195244
 51
338.2879156275973855
  0
ARC
  5
70E3
  8
0
 10
4307.8341024482224384
 20
157.5893271806681923
 30
0.0
 40
0.6989716617677842
 50
282.6671713845735781
 51
287.3598152971708828
  0
ARC
  5
70E4
  8
0
 10
4307.9790688667808354
 20
156.9322987227743909
 30
0.0
 40
0.0262787059979425
 50
243.941713185693601
 51
288.4328267778303143
  0
ARC
  5
70E5
  8
0
 10
4307.9728668978114001
 20
156.9187590148632125
 30
0.0
 40
0.0113971208362537
 50
180.4075764831787865
 51
242.0497791103674956
  0
ARC
  5
70E6
  8
0
 10
4308.0851799265119553
 20
157.0251092387545953
 30
0.0
 40
0.0420612043610562
 50
321.8795021931513816
 51
38.3926370292661332
  0
ARC
  5
70E7
  8
0
 10
4308.0553689878533987
 20
156.6286236975327881
 30
0.0
 40
0.0607474773234328
 50
75.1162041479621223
 51
140.6628298217117106
  0
ARC
  5
70E8
  8
0
 10
4308.0303861519396378
 20
156.6477998881649967
 30
0.0
 40
0.0292868078664219
 50
138.6967551201279889
 51
185.4137273439480111
  0
ARC
  5
70E9
  8
0
 10
4308.022291848425084
 20
156.6516111808383016
 30
0.0
 40
0.0220641139506081
 50
197.3356255531876968
 51
273.8041596495613135
  0
ARC
  5
70EA
  8
0
 10
4308.0229375905673805
 20
156.6908869582570958
 30
0.0
 40
0.0612967365611995
 50
270.7647527712520059
 51
329.9427884077883846
  0
ARC
  5
70EB
  8
0
 10
4308.0614092682217233
 20
156.6715273336305074
 30
0.0
 40
0.0184736621993194
 50
322.1250030174238077
 51
58.8238233981673133
  0
ARC
  5
70EC
  8
0
 10
4308.0502079470370518
 20
156.6931305018115097
 30
0.0
 40
0.0688450359415453
 50
321.0373303578278978
 51
356.8715116657588737
  0
ARC
  5
70ED
  8
0
 10
4308.0058431383704374
 20
156.7200310906985123
 30
0.0
 40
0.1204590430256536
 50
272.7526592471147069
 51
324.3594334056704724
  0
ARC
  5
70EE
  8
0
 10
4308.0063509286128465
 20
156.6444768448205878
 30
0.0
 40
0.0450757829147409
 50
185.3302847936485875
 51
276.7232536511766057
  0
ARC
  5
70EF
  8
0
 10
4307.9992088144335867
 20
156.6642734739315017
 30
0.0
 40
0.0560060805976185
 50
104.5992442384873016
 51
132.3635966429162067
  0
ARC
  5
70F0
  8
0
 10
4307.8229647315611146
 20
157.4213753868511958
 30
0.0
 40
0.7213594818829412
 50
282.9883274778900955
 51
287.7277603559869021
  0
ARC
  5
70F1
  8
0
 10
4308.0873249407713956
 20
156.6055419090976102
 30
0.0
 40
0.1362718050578153
 50
85.7267016731744036
 51
109.1532106082220963
  0
ARC
  5
70F2
  8
0
 10
4308.0944433792756172
 20
156.7011753174595015
 30
0.0
 40
0.0403738466248577
 50
54.0299865444812966
 51
85.6878478169259665
  0
ARC
  5
70F3
  8
0
 10
4308.0846896148777887
 20
156.7265206070904071
 30
0.0
 40
0.0342611656207545
 50
359.7230796616262865
 51
12.3540662378005592
  0
ARC
  5
70F4
  8
0
 10
4308.0930492215557024
 20
156.7111573644262137
 30
0.0
 40
0.033844010827545
 50
319.9345758612760733
 51
42.1081480708444928
  0
ARC
  5
70F5
  8
0
 10
4308.0267893862828714
 20
156.7171632290607022
 30
0.0
 40
0.0533103501534172
 50
249.8042371113886873
 51
325.9747974294078858
  0
ARC
  5
70F6
  8
0
 10
4307.8203061726289889
 20
153.4336661194307965
 30
0.0
 40
0.5623230634009098
 50
70.6405018563810074
 51
90.4590654481911969
  0
ARC
  5
70F7
  8
0
 10
4307.9667361791589428
 20
153.8446413071372945
 30
0.0
 40
0.1260593812839926
 50
7.8609650744284139
 51
71.5107109070821565
  0
ARC
  5
70F8
  8
0
 10
4307.9004069902593983
 20
153.8548797725864006
 30
0.0
 40
0.1913321631388791
 50
337.3033290062148239
 51
2.0974580753689049
  0
ARC
  5
70F9
  8
0
 10
4307.8213313330015808
 20
153.8859585113513901
 30
0.0
 40
0.276282172935638
 50
318.0443086751242276
 51
337.6848136632876276
  0
ARC
  5
70FA
  8
0
 10
4307.8071096328558269
 20
153.8928280750656086
 30
0.0
 40
0.2914841995010325
 50
284.9685097374916722
 51
318.9091055051255239
  0
ARC
  5
70FB
  8
0
 10
4307.8165136326006177
 20
153.8628000190890077
 30
0.0
 40
0.2600495122300155
 50
269.8429382128219913
 51
284.6756919341265757
  0
ARC
  5
70FC
  8
0
 10
4307.8169310817156656
 20
153.2271026548125121
 30
0.0
 40
0.2535116929014583
 50
269.7445400788573124
 51
283.5692502224479199
  0
ARC
  5
70FD
  8
0
 10
4307.808066939021046
 20
153.2619860012127901
 30
0.0
 40
0.2895013744276422
 50
283.6548218813867948
 51
312.6637123510184892
  0
ARC
  5
70FE
  8
0
 10
4307.82479182813222
 20
153.2521399851422075
 30
0.0
 40
0.2709852145778707
 50
311.4741017638625067
 51
345.8110054010098793
  0
ARC
  5
70FF
  8
0
 10
4307.9633037294061069
 20
153.2185807033258129
 30
0.0
 40
0.1285789085665008
 50
345.867371065722125
 51
18.98291592488048
  0
ARC
  5
7100
  8
0
 10
4307.9530937558101868
 20
153.2025346050643009
 30
0.0
 40
0.1439419855339519
 50
23.7060353432337685
 51
75.3283152696659073
  0
ARC
  5
7101
  8
0
 10
4307.8186806767243979
 20
152.7712290206488888
 30
0.0
 40
0.5955910740481472
 50
73.3279865098197234
 51
90.2770473273093756
  0
ARC
  5
7102
  8
0
 10
4307.9908476944428912
 20
153.3242826551376936
 30
0.0
 40
0.1019163436360023
 50
357.8840665871895794
 51
49.7602274238364899
  0
ARC
  5
7103
  8
0
 10
4307.892700614939713
 20
153.0927282646453023
 30
0.0
 40
0.3501276142702925
 50
62.0724740126269765
 51
84.9458113032287656
  0
ARC
  5
7104
  8
0
 10
4307.8185764588843085
 20
152.6002873386580063
 30
0.0
 40
0.8477311790051633
 50
82.8871387394073622
 51
90.1876011145291159
  0
ARC
  5
7105
  8
0
 10
4307.8035424528152362
 20
157.0802600591009934
 30
0.0
 40
0.8786473751936078
 50
77.9345134250180678
 51
89.2006203249413829
  0
ARC
  5
7106
  8
0
 10
4307.8077683895508017
 20
156.3455094094786944
 30
0.0
 40
0.0340749268182839
 50
196.670571476717214
 51
251.6206832576075954
  0
ARC
  5
7107
  8
0
 10
4307.8157549116758673
 20
156.362215505854806
 30
0.0
 40
0.0524979622474823
 50
249.0970216637269914
 51
291.3689840103854749
  0
ARC
  5
7108
  8
0
 10
4307.8241918826515757
 20
156.3453645706499913
 30
0.0
 40
0.0337749409340208
 50
288.4551209644200185
 51
340.4256187685655846
  0
ARC
  5
7109
  8
0
 10
4307.800625035009034
 20
156.3412907391119973
 30
0.0
 40
0.0260977500931332
 50
137.7134470536975925
 51
192.2926741820745065
  0
ARC
  5
710A
  8
0
 10
4307.8160673620841408
 20
156.3234407623453137
 30
0.0
 40
0.0496119006512895
 50
52.8030090089287825
 51
134.4606922279490107
  0
ARC
  5
710B
  8
0
 10
4307.829785651550992
 20
156.341187001062508
 30
0.0
 40
0.0271831626139409
 50
344.7761292064145096
 51
53.2221331890121476
  0
ARC
  5
710C
  8
0
 10
4307.7887039129991535
 20
156.3831263572913883
 30
0.0
 40
0.0270957183748196
 50
166.6475781966603904
 51
197.8271676173716003
  0
ARC
  5
710D
  8
0
 10
4307.8427659700691947
 20
156.3831312980825032
 30
0.0
 40
0.0272225971928186
 50
342.247771216871115
 51
13.339430460829
  0
ARC
  5
710E
  8
0
 10
4307.8158161263845614
 20
156.3184112838169995
 30
0.0
 40
0.088863553654815
 50
53.0334463836912207
 51
126.9968178245077013
  0
ARC
  5
710F
  8
0
 10
4307.8158007730244208
 20
156.3315255608696077
 30
0.0
 40
0.0264467708704205
 50
53.5673926465389698
 51
126.4326024396383019
  0
ARC
  5
7110
  8
0
 10
4307.8158007753172569
 20
156.3519376710708002
 30
0.0
 40
0.027140492330754
 50
241.9031434379922985
 51
298.0968507100224087
  0
ARC
  5
7111
  8
0
 10
4307.823116770249726
 20
156.3412161170898003
 30
0.0
 40
0.0143059757579295
 50
292.4632593730516987
 51
54.0925866903601715
  0
ARC
  5
7112
  8
0
 10
4307.8084029954861762
 20
156.3412064793417073
 30
0.0
 40
0.0142660008963758
 50
125.6186686887676984
 51
247.8254866589066978
  0
ARC
  5
7113
  8
0
 10
4307.7826821551252579
 20
156.3676042094980971
 30
0.0
 40
0.0298015004300157
 50
133.0445327829008022
 51
202.8236383131317098
  0
ARC
  5
7114
  8
0
 10
4307.7870116879357738
 20
156.3673028478042113
 30
0.0
 40
0.0337319744883368
 50
199.4973929686703116
 51
249.3678035105849062
  0
ARC
  5
7115
  8
0
 10
4307.8496846730740799
 20
156.3678929849876056
 30
0.0
 40
0.0290866691053433
 50
343.6313832191660254
 51
47.7166563392677219
  0
ARC
  5
7116
  8
0
 10
4307.8400946252695576
 20
156.3693435024009943
 30
0.0
 40
0.0387189945307875
 50
294.2786230381325936
 51
345.5716080277397282
  0
LINE
  5
7117
  8
0
 10
4307.7233086127953356
 20
156.4345023661645939
 30
0.0
 11
4307.7359860669957925
 21
156.4752845160645904
 31
0.0
  0
LINE
  5
7118
  8
0
 10
4307.6424193656957868
 20
156.4361878101524042
 30
0.0
 11
4307.6302029460948688
 21
156.4752845160645904
 31
0.0
  0
ARC
  5
7119
  8
0
 10
4307.6750621221099209
 20
156.4459628340032964
 30
0.0
 40
0.0340749268182839
 50
196.670571476717214
 51
251.6206832576075954
  0
ARC
  5
711A
  8
0
 10
4307.6830486442349866
 20
156.462668930379408
 30
0.0
 40
0.0524979622474823
 50
249.0970216637269914
 51
291.3689840103854749
  0
ARC
  5
711B
  8
0
 10
4307.691485615210695
 20
156.4458179951745933
 30
0.0
 40
0.0337749409340208
 50
288.4551209644200185
 51
340.4256187685655846
  0
ARC
  5
711C
  8
0
 10
4307.6679187675690628
 20
156.4417441636365993
 30
0.0
 40
0.0260977500931332
 50
137.7134470536975925
 51
192.2926741820745065
  0
ARC
  5
711D
  8
0
 10
4307.68336109464326
 20
156.4238941868698873
 30
0.0
 40
0.0496119006512895
 50
52.8030090089287825
 51
134.4606922279490107
  0
ARC
  5
711E
  8
0
 10
4307.6970793841110208
 20
156.44164042558711
 30
0.0
 40
0.0271831626139409
 50
344.7761292064145096
 51
53.2221331890121476
  0
ARC
  5
711F
  8
0
 10
4307.6559976455582728
 20
156.4835797818159051
 30
0.0
 40
0.0270957183748196
 50
166.6475781966603904
 51
197.8271676173716003
  0
ARC
  5
7120
  8
0
 10
4307.7100597026292235
 20
156.4835847226071053
 30
0.0
 40
0.0272225971928186
 50
342.247771216871115
 51
13.339430460829
  0
ARC
  5
7121
  8
0
 10
4307.6831098589445901
 20
156.4188647083416015
 30
0.0
 40
0.088863553654815
 50
53.0334463836912207
 51
126.9968178245077013
  0
ARC
  5
7122
  8
0
 10
4307.6830945055826305
 20
156.4319789853942098
 30
0.0
 40
0.0264467708704205
 50
53.5673926465389698
 51
126.4326024396383019
  0
ARC
  5
7123
  8
0
 10
4307.6830945078763762
 20
156.4523910955952886
 30
0.0
 40
0.027140492330754
 50
241.9031434379922985
 51
298.0968507100224087
  0
ARC
  5
7124
  8
0
 10
4307.6904105028097547
 20
156.4416695416144023
 30
0.0
 40
0.0143059757579295
 50
292.4632593730516987
 51
54.0925866903601715
  0
ARC
  5
7125
  8
0
 10
4307.675696728046205
 20
156.4416599038663094
 30
0.0
 40
0.0142660008963758
 50
125.6186686887676984
 51
247.8254866589066978
  0
ARC
  5
7126
  8
0
 10
4307.6499758876852866
 20
156.4680576340226992
 30
0.0
 40
0.0298015004300157
 50
133.0445327829008022
 51
202.8236383131317098
  0
ARC
  5
7127
  8
0
 10
4307.6543054204958025
 20
156.4677562723288133
 30
0.0
 40
0.0337319744883368
 50
199.4973929686703116
 51
249.3678035105849062
  0
ARC
  5
7128
  8
0
 10
4307.7169784056331991
 20
156.4683464095120939
 30
0.0
 40
0.0290866691053433
 50
343.6313832191660254
 51
47.7166563392677219
  0
ARC
  5
7129
  8
0
 10
4307.7073883578295863
 20
156.4697969269255111
 30
0.0
 40
0.0387189945307875
 50
294.2786230381325936
 51
345.5716080277397282
  0
LINE
  5
712A
  8
0
 10
4307.9886951016778767
 20
156.4343992814600028
 30
0.0
 11
4308.0013725558783335
 21
156.4751814313599994
 31
0.0
  0
LINE
  5
712B
  8
0
 10
4307.9078058545783279
 20
156.4360847254478131
 30
0.0
 11
4307.8955894349783193
 21
156.4751814313599994
 31
0.0
  0
ARC
  5
712C
  8
0
 10
4307.9404486109942809
 20
156.4458597492987053
 30
0.0
 40
0.0340749268182839
 50
196.670571476717214
 51
251.6206832576075954
  0
ARC
  5
712D
  8
0
 10
4307.9484351331166181
 20
156.4625658456747885
 30
0.0
 40
0.0524979622474823
 50
249.0970216637269914
 51
291.3689840103854749
  0
ARC
  5
712E
  8
0
 10
4307.9568721040941455
 20
156.4457149104700875
 30
0.0
 40
0.0337749409340208
 50
288.4551209644200185
 51
340.4256187685655846
  0
ARC
  5
712F
  8
0
 10
4307.9333052564506943
 20
156.4416410789320082
 30
0.0
 40
0.0260977500931332
 50
137.7134470536975925
 51
192.2926741820745065
  0
ARC
  5
7130
  8
0
 10
4307.948747583525801
 20
156.4237911021652963
 30
0.0
 40
0.0496119006512895
 50
52.8030090089287825
 51
134.4606922279490107
  0
ARC
  5
7131
  8
0
 10
4307.9624658729926523
 20
156.4415373408824905
 30
0.0
 40
0.0271831626139409
 50
344.7761292064145096
 51
53.2221331890121476
  0
ARC
  5
7132
  8
0
 10
4307.9213841344408138
 20
156.4834766971113993
 30
0.0
 40
0.0270957183748196
 50
166.6475781966603904
 51
197.8271676173716003
  0
ARC
  5
7133
  8
0
 10
4307.975446191510855
 20
156.4834816379025142
 30
0.0
 40
0.0272225971928186
 50
342.247771216871115
 51
13.339430460829
  0
ARC
  5
7134
  8
0
 10
4307.9484963478271311
 20
156.4187616236370957
 30
0.0
 40
0.088863553654815
 50
53.0334463836912207
 51
126.9968178245077013
  0
ARC
  5
7135
  8
0
 10
4307.948480994466081
 20
156.4318759006895903
 30
0.0
 40
0.0264467708704205
 50
53.5673926465389698
 51
126.4326024396383019
  0
ARC
  5
7136
  8
0
 10
4307.9484809967589172
 20
156.4522880108908112
 30
0.0
 40
0.027140492330754
 50
241.9031434379922985
 51
298.0968507100224087
  0
ARC
  5
7137
  8
0
 10
4307.9557969916932052
 20
156.4415664569098112
 30
0.0
 40
0.0143059757579295
 50
292.4632593730516987
 51
54.0925866903601715
  0
ARC
  5
7138
  8
0
 10
4307.9410832169278365
 20
156.4415568191618036
 30
0.0
 40
0.0142660008963758
 50
125.6186686887676984
 51
247.8254866589066978
  0
ARC
  5
7139
  8
0
 10
4307.9153623765669181
 20
156.4679545493181081
 30
0.0
 40
0.0298015004300157
 50
133.0445327829008022
 51
202.8236383131317098
  0
ARC
  5
713A
  8
0
 10
4307.9196919093774341
 20
156.4676531876241938
 30
0.0
 40
0.0337319744883368
 50
199.4973929686703116
 51
249.3678035105849062
  0
ARC
  5
713B
  8
0
 10
4307.9823648945157402
 20
156.4682433248075881
 30
0.0
 40
0.0290866691053433
 50
343.6313832191660254
 51
47.7166563392677219
  0
ARC
  5
713C
  8
0
 10
4307.9727748467121273
 20
156.4696938422210053
 30
0.0
 40
0.0387189945307875
 50
294.2786230381325936
 51
345.5716080277397282
  0
LINE
  5
713D
  8
0
 10
4307.5893586251368106
 20
156.3775573930155929
 30
0.0
 11
4307.6020360793372674
 21
156.4183395429155894
 31
0.0
  0
LINE
  5
713E
  8
0
 10
4307.5084693780381713
 20
156.3792428370032894
 30
0.0
 11
4307.4962529584372533
 21
156.4183395429155894
 31
0.0
  0
ARC
  5
713F
  8
0
 10
4307.5411121344532148
 20
156.3890178608542953
 30
0.0
 40
0.0340749268182839
 50
196.670571476717214
 51
251.6206832576075954
  0
ARC
  5
7140
  8
0
 10
4307.549098656577371
 20
156.405723957230407
 30
0.0
 40
0.0524979622474823
 50
249.0970216637269914
 51
291.3689840103854749
  0
ARC
  5
7141
  8
0
 10
4307.5575356275539889
 20
156.3888730220255923
 30
0.0
 40
0.0337749409340208
 50
288.4551209644200185
 51
340.4256187685655846
  0
ARC
  5
7142
  8
0
 10
4307.5339687799096282
 20
156.3847991904875983
 30
0.0
 40
0.0260977500931332
 50
137.7134470536975925
 51
192.2926741820745065
  0
ARC
  5
7143
  8
0
 10
4307.5494111069847349
 20
156.3669492137208863
 30
0.0
 40
0.0496119006512895
 50
52.8030090089287825
 51
134.4606922279490107
  0
ARC
  5
7144
  8
0
 10
4307.5631293964534052
 20
156.384695452438109
 30
0.0
 40
0.0271831626139409
 50
344.7761292064145096
 51
53.2221331890121476
  0
ARC
  5
7145
  8
0
 10
4307.5220476578997477
 20
156.4266348086669041
 30
0.0
 40
0.0270957183748196
 50
166.6475781966603904
 51
197.8271676173716003
  0
ARC
  5
7146
  8
0
 10
4307.5761097149706984
 20
156.4266397494581042
 30
0.0
 40
0.0272225971928186
 50
342.247771216871115
 51
13.339430460829
  0
ARC
  5
7147
  8
0
 10
4307.5491598712869745
 20
156.3619197351926005
 30
0.0
 40
0.088863553654815
 50
53.0334463836912207
 51
126.9968178245077013
  0
ARC
  5
7148
  8
0
 10
4307.5491445179259244
 20
156.3750340122452087
 30
0.0
 40
0.0264467708704205
 50
53.5673926465389698
 51
126.4326024396383019
  0
ARC
  5
7149
  8
0
 10
4307.5491445202178511
 20
156.3954461224462875
 30
0.0
 40
0.027140492330754
 50
241.9031434379922985
 51
298.0968507100224087
  0
ARC
  5
714A
  8
0
 10
4307.5564605151521391
 20
156.3847245684654013
 30
0.0
 40
0.0143059757579295
 50
292.4632593730516987
 51
54.0925866903601715
  0
ARC
  5
714B
  8
0
 10
4307.5417467403876799
 20
156.3847149307173083
 30
0.0
 40
0.0142660008963758
 50
125.6186686887676984
 51
247.8254866589066978
  0
ARC
  5
714C
  8
0
 10
4307.5160259000267615
 20
156.4111126608736981
 30
0.0
 40
0.0298015004300157
 50
133.0445327829008022
 51
202.8236383131317098
  0
ARC
  5
714D
  8
0
 10
4307.520355432838187
 20
156.4108112991798123
 30
0.0
 40
0.0337319744883368
 50
199.4973929686703116
 51
249.3678035105849062
  0
ARC
  5
714E
  8
0
 10
4307.5830284179737646
 20
156.4114014363632066
 30
0.0
 40
0.0290866691053433
 50
343.6313832191660254
 51
47.7166563392677219
  0
ARC
  5
714F
  8
0
 10
4307.5734383701719707
 20
156.4128519537765101
 30
0.0
 40
0.0387189945307875
 50
294.2786230381325936
 51
345.5716080277397282
  0
LINE
  5
7150
  8
0
 10
4307.7259763668243977
 20
156.2556694659488983
 30
0.0
 11
4307.7386538210239451
 21
156.2964516158490085
 31
0.0
  0
LINE
  5
7151
  8
0
 10
4307.6450871197230299
 20
156.2573549099367085
 30
0.0
 11
4307.6328707001239309
 21
156.2964516158490085
 31
0.0
  0
ARC
  5
7152
  8
0
 10
4307.6777298761389829
 20
156.2671299337876007
 30
0.0
 40
0.0340749268182839
 50
196.670571476717214
 51
251.6206832576075954
  0
ARC
  5
7153
  8
0
 10
4307.6857163982640486
 20
156.2838360301637977
 30
0.0
 40
0.0524979622474823
 50
249.0970216637269914
 51
291.3689840103854749
  0
ARC
  5
7154
  8
0
 10
4307.694153369239757
 20
156.2669850949588977
 30
0.0
 40
0.0337749409340208
 50
288.4551209644200185
 51
340.4256187685655846
  0
ARC
  5
7155
  8
0
 10
4307.6705865215972153
 20
156.2629112634209037
 30
0.0
 40
0.0260977500931332
 50
137.7134470536975925
 51
192.2926741820745065
  0
ARC
  5
7156
  8
0
 10
4307.6860288486714126
 20
156.2450612866541917
 30
0.0
 40
0.0496119006512895
 50
52.8030090089287825
 51
134.4606922279490107
  0
ARC
  5
7157
  8
0
 10
4307.6997471381391733
 20
156.262807525371386
 30
0.0
 40
0.0271831626139409
 50
344.7761292064145096
 51
53.2221331890121476
  0
ARC
  5
7158
  8
0
 10
4307.6586653995864253
 20
156.3047468816002947
 30
0.0
 40
0.0270957183748196
 50
166.6475781966603904
 51
197.8271676173716003
  0
ARC
  5
7159
  8
0
 10
4307.712727456657376
 20
156.3047518223914949
 30
0.0
 40
0.0272225971928186
 50
342.247771216871115
 51
13.339430460829
  0
ARC
  5
715A
  8
0
 10
4307.6857776129727426
 20
156.2400318081259911
 30
0.0
 40
0.088863553654815
 50
53.0334463836912207
 51
126.9968178245077013
  0
ARC
  5
715B
  8
0
 10
4307.6857622596116926
 20
156.2531460851785141
 30
0.0
 40
0.0264467708704205
 50
53.5673926465389698
 51
126.4326024396383019
  0
ARC
  5
715C
  8
0
 10
4307.6857622619036192
 20
156.2735581953797066
 30
0.0
 40
0.027140492330754
 50
241.9031434379922985
 51
298.0968507100224087
  0
ARC
  5
715D
  8
0
 10
4307.6930782568379072
 20
156.2628366413987067
 30
0.0
 40
0.0143059757579295
 50
292.4632593730516987
 51
54.0925866903601715
  0
ARC
  5
715E
  8
0
 10
4307.6783644820743575
 20
156.262827003650699
 30
0.0
 40
0.0142660008963758
 50
125.6186686887676984
 51
247.8254866589066978
  0
ARC
  5
715F
  8
0
 10
4307.6526436417134391
 20
156.2892247338070035
 30
0.0
 40
0.0298015004300157
 50
133.0445327829008022
 51
202.8236383131317098
  0
ARC
  5
7160
  8
0
 10
4307.6569731745230456
 20
156.2889233721130893
 30
0.0
 40
0.0337319744883368
 50
199.4973929686703116
 51
249.3678035105849062
  0
ARC
  5
7161
  8
0
 10
4307.7196461596613517
 20
156.289513509296512
 30
0.0
 40
0.0290866691053433
 50
343.6313832191660254
 51
47.7166563392677219
  0
ARC
  5
7162
  8
0
 10
4307.7100561118577389
 20
156.2909640267099007
 30
0.0
 40
0.0387189945307875
 50
294.2786230381325936
 51
345.5716080277397282
  0
LINE
  5
7163
  8
0
 10
4307.9893280362239238
 20
156.2560283651664008
 30
0.0
 11
4308.0020054904252902
 21
156.2968105150663973
 31
0.0
  0
LINE
  5
7164
  8
0
 10
4307.908438789124375
 20
156.257713809154211
 30
0.0
 11
4307.8962223695243665
 21
156.2968105150663973
 31
0.0
  0
ARC
  5
7165
  8
0
 10
4307.9410815455403281
 20
156.2674888330051033
 30
0.0
 40
0.0340749268182839
 50
196.670571476717214
 51
251.6206832576075954
  0
ARC
  5
7166
  8
0
 10
4307.9490680676653938
 20
156.2841949293811865
 30
0.0
 40
0.0524979622474823
 50
249.0970216637269914
 51
291.3689840103854749
  0
ARC
  5
7167
  8
0
 10
4307.9575050386411021
 20
156.2673439941764002
 30
0.0
 40
0.0337749409340208
 50
288.4551209644200185
 51
340.4256187685655846
  0
ARC
  5
7168
  8
0
 10
4307.933938190997651
 20
156.2632701626384062
 30
0.0
 40
0.0260977500931332
 50
137.7134470536975925
 51
192.2926741820745065
  0
ARC
  5
7169
  8
0
 10
4307.9493805180709387
 20
156.2454201858716942
 30
0.0
 40
0.0496119006512895
 50
52.8030090089287825
 51
134.4606922279490107
  0
ARC
  5
716A
  8
0
 10
4307.9630988075386995
 20
156.2631664245888885
 30
0.0
 40
0.0271831626139409
 50
344.7761292064145096
 51
53.2221331890121476
  0
ARC
  5
716B
  8
0
 10
4307.922017068986861
 20
156.305105780817712
 30
0.0
 40
0.0270957183748196
 50
166.6475781966603904
 51
197.8271676173716003
  0
ARC
  5
716C
  8
0
 10
4307.9760791260569022
 20
156.3051107216089122
 30
0.0
 40
0.0272225971928186
 50
342.247771216871115
 51
13.339430460829
  0
ARC
  5
716D
  8
0
 10
4307.9491292823731783
 20
156.2403907073434084
 30
0.0
 40
0.088863553654815
 50
53.0334463836912207
 51
126.9968178245077013
  0
ARC
  5
716E
  8
0
 10
4307.9491139290130377
 20
156.2535049843959882
 30
0.0
 40
0.0264467708704205
 50
53.5673926465389698
 51
126.4326024396383019
  0
ARC
  5
716F
  8
0
 10
4307.9491139313049644
 20
156.2739170945972091
 30
0.0
 40
0.027140492330754
 50
241.9031434379922985
 51
298.0968507100224087
  0
ARC
  5
7170
  8
0
 10
4307.9564299262392524
 20
156.2631955406162092
 30
0.0
 40
0.0143059757579295
 50
292.4632593730516987
 51
54.0925866903601715
  0
ARC
  5
7171
  8
0
 10
4307.9417161514738837
 20
156.2631859028680879
 30
0.0
 40
0.0142660008963758
 50
125.6186686887676984
 51
247.8254866589066978
  0
ARC
  5
7172
  8
0
 10
4307.9159953111129653
 20
156.2895836330245061
 30
0.0
 40
0.0298015004300157
 50
133.0445327829008022
 51
202.8236383131317098
  0
ARC
  5
7173
  8
0
 10
4307.9203248439243907
 20
156.2892822713305918
 30
0.0
 40
0.0337319744883368
 50
199.4973929686703116
 51
249.3678035105849062
  0
ARC
  5
7174
  8
0
 10
4307.9829978290617873
 20
156.2898724085139861
 30
0.0
 40
0.0290866691053433
 50
343.6313832191660254
 51
47.7166563392677219
  0
ARC
  5
7175
  8
0
 10
4307.973407781259084
 20
156.2913229259272896
 30
0.0
 40
0.0387189945307875
 50
294.2786230381325936
 51
345.5716080277397282
  0
LINE
  5
7176
  8
0
 10
4308.113842450015909
 20
156.375796944885991
 30
0.0
 11
4308.1265199042172753
 21
156.4165790947859875
 31
0.0
  0
LINE
  5
7177
  8
0
 10
4308.0329532029172697
 20
156.3774823888736876
 30
0.0
 11
4308.0207367833172611
 21
156.4165790947859875
 31
0.0
  0
ARC
  5
7178
  8
0
 10
4308.0655959593323132
 20
156.3872574127246935
 30
0.0
 40
0.0340749268182839
 50
196.670571476717214
 51
251.6206832576075954
  0
ARC
  5
7179
  8
0
 10
4308.0735824814573789
 20
156.4039635091008051
 30
0.0
 40
0.0524979622474823
 50
249.0970216637269914
 51
291.3689840103854749
  0
ARC
  5
717A
  8
0
 10
4308.0820194524330873
 20
156.3871125738959904
 30
0.0
 40
0.0337749409340208
 50
288.4551209644200185
 51
340.4256187685655846
  0
ARC
  5
717B
  8
0
 10
4308.0584526047896361
 20
156.3830387423579964
 30
0.0
 40
0.0260977500931332
 50
137.7134470536975925
 51
192.2926741820745065
  0
ARC
  5
717C
  8
0
 10
4308.0738949318638333
 20
156.3651887655913129
 30
0.0
 40
0.0496119006512895
 50
52.8030090089287825
 51
134.4606922279490107
  0
ARC
  5
717D
  8
0
 10
4308.0876132213315941
 20
156.3829350043085071
 30
0.0
 40
0.0271831626139409
 50
344.7761292064145096
 51
53.2221331890121476
  0
ARC
  5
717E
  8
0
 10
4308.0465314827788461
 20
156.4248743605373022
 30
0.0
 40
0.0270957183748196
 50
166.6475781966603904
 51
197.8271676173716003
  0
ARC
  5
717F
  8
0
 10
4308.1005935398497968
 20
156.4248793013285024
 30
0.0
 40
0.0272225971928186
 50
342.247771216871115
 51
13.339430460829
  0
ARC
  5
7180
  8
0
 10
4308.0736436961669824
 20
156.3601592870631123
 30
0.0
 40
0.088863553654815
 50
53.0334463836912207
 51
126.9968178245077013
  0
ARC
  5
7181
  8
0
 10
4308.0736283428050228
 20
156.3732735641156069
 30
0.0
 40
0.0264467708704205
 50
53.5673926465389698
 51
126.4326024396383019
  0
ARC
  5
7182
  8
0
 10
4308.0736283450969495
 20
156.3936856743167993
 30
0.0
 40
0.027140492330754
 50
241.9031434379922985
 51
298.0968507100224087
  0
ARC
  5
7183
  8
0
 10
4308.080944340032147
 20
156.3829641203357994
 30
0.0
 40
0.0143059757579295
 50
292.4632593730516987
 51
54.0925866903601715
  0
ARC
  5
7184
  8
0
 10
4308.0662305652676878
 20
156.3829544825877065
 30
0.0
 40
0.0142660008963758
 50
125.6186686887676984
 51
247.8254866589066978
  0
ARC
  5
7185
  8
0
 10
4308.0405097249058599
 20
156.4093522127440963
 30
0.0
 40
0.0298015004300157
 50
133.0445327829008022
 51
202.8236383131317098
  0
ARC
  5
7186
  8
0
 10
4308.0448392577172854
 20
156.4090508510502104
 30
0.0
 40
0.0337319744883368
 50
199.4973929686703116
 51
249.3678035105849062
  0
ARC
  5
7187
  8
0
 10
4308.1075122428537725
 20
156.4096409882336047
 30
0.0
 40
0.0290866691053433
 50
343.6313832191660254
 51
47.7166563392677219
  0
ARC
  5
7188
  8
0
 10
4308.0979221950510691
 20
156.4110915056469935
 30
0.0
 40
0.0387189945307875
 50
294.2786230381325936
 51
345.5716080277397282
  0
LINE
  5
7189
  8
0
 10
4307.5902295182422677
 20
156.1985831763007866
 30
0.0
 11
4307.602906972441815
 21
156.2393653262008115
 31
0.0
  0
LINE
  5
718A
  8
0
 10
4307.5093402711427188
 20
156.2002686202885116
 30
0.0
 11
4307.4971238515418008
 21
156.2393653262008115
 31
0.0
  0
ARC
  5
718B
  8
0
 10
4307.5419830275568529
 20
156.2100436441394038
 30
0.0
 40
0.0340749268182839
 50
196.670571476717214
 51
251.6206832576075954
  0
ARC
  5
718C
  8
0
 10
4307.5499695496819186
 20
156.2267497405156007
 30
0.0
 40
0.0524979622474823
 50
249.0970216637269914
 51
291.3689840103854749
  0
ARC
  5
718D
  8
0
 10
4307.558406520657627
 20
156.209898805310786
 30
0.0
 40
0.0337749409340208
 50
288.4551209644200185
 51
340.4256187685655846
  0
ARC
  5
718E
  8
0
 10
4307.5348396730159948
 20
156.205824973772792
 30
0.0
 40
0.0260977500931332
 50
137.7134470536975925
 51
192.2926741820745065
  0
ARC
  5
718F
  8
0
 10
4307.5502820000892825
 20
156.1879749970061084
 30
0.0
 40
0.0496119006512895
 50
52.8030090089287825
 51
134.4606922279490107
  0
ARC
  5
7190
  8
0
 10
4307.5640002895579528
 20
156.205721235723189
 30
0.0
 40
0.0271831626139409
 50
344.7761292064145096
 51
53.2221331890121476
  0
ARC
  5
7191
  8
0
 10
4307.5229185510052048
 20
156.2476605919520978
 30
0.0
 40
0.0270957183748196
 50
166.6475781966603904
 51
197.8271676173716003
  0
ARC
  5
7192
  8
0
 10
4307.5769806080743365
 20
156.2476655327432979
 30
0.0
 40
0.0272225971928186
 50
342.247771216871115
 51
13.339430460829
  0
ARC
  5
7193
  8
0
 10
4307.5500307643906126
 20
156.1829455184777942
 30
0.0
 40
0.088863553654815
 50
53.0334463836912207
 51
126.9968178245077013
  0
ARC
  5
7194
  8
0
 10
4307.5500154110295625
 20
156.1960597955302887
 30
0.0
 40
0.0264467708704205
 50
53.5673926465389698
 51
126.4326024396383019
  0
ARC
  5
7195
  8
0
 10
4307.5500154133233082
 20
156.2164719057315949
 30
0.0
 40
0.027140492330754
 50
241.9031434379922985
 51
298.0968507100224087
  0
ARC
  5
7196
  8
0
 10
4307.5573314082566867
 20
156.205750351750595
 30
0.0
 40
0.0143059757579295
 50
292.4632593730516987
 51
54.0925866903601715
  0
ARC
  5
7197
  8
0
 10
4307.5426176334922275
 20
156.205740714002502
 30
0.0
 40
0.0142660008963758
 50
125.6186686887676984
 51
247.8254866589066978
  0
ARC
  5
7198
  8
0
 10
4307.5168967931303996
 20
156.2321384441588918
 30
0.0
 40
0.0298015004300157
 50
133.0445327829008022
 51
202.8236383131317098
  0
ARC
  5
7199
  8
0
 10
4307.5212263259409156
 20
156.231837082465006
 30
0.0
 40
0.0337319744883368
 50
199.4973929686703116
 51
249.3678035105849062
  0
ARC
  5
719A
  8
0
 10
4307.5838993110792217
 20
156.2324272196482866
 30
0.0
 40
0.0290866691053433
 50
343.6313832191660254
 51
47.7166563392677219
  0
ARC
  5
719B
  8
0
 10
4307.5743092632756088
 20
156.2338777370617038
 30
0.0
 40
0.0387189945307875
 50
294.2786230381325936
 51
345.5716080277397282
  0
LINE
  5
719C
  8
0
 10
4307.8560607425461058
 20
156.1553049341727046
 30
0.0
 11
4307.8687381967465626
 21
156.1960870840727011
 31
0.0
  0
LINE
  5
719D
  8
0
 10
4307.7751714954456475
 20
156.1569903781604864
 30
0.0
 11
4307.7629550758465484
 21
156.1960870840727011
 31
0.0
  0
ARC
  5
719E
  8
0
 10
4307.8078142518616005
 20
156.1667654020114071
 30
0.0
 40
0.0340749268182839
 50
196.670571476717214
 51
251.6206832576075954
  0
ARC
  5
719F
  8
0
 10
4307.8158007739857567
 20
156.1834714983874903
 30
0.0
 40
0.0524979622474823
 50
249.0970216637269914
 51
291.3689840103854749
  0
ARC
  5
71A0
  8
0
 10
4307.8242377449632841
 20
156.166620563182704
 30
0.0
 40
0.0337749409340208
 50
288.4551209644200185
 51
340.4256187685655846
  0
ARC
  5
71A1
  8
0
 10
4307.8006708973198329
 20
156.16254673164471
 30
0.0
 40
0.0260977500931332
 50
137.7134470536975925
 51
192.2926741820745065
  0
ARC
  5
71A2
  8
0
 10
4307.8161132243940301
 20
156.144696754877998
 30
0.0
 40
0.0496119006512895
 50
52.8030090089287825
 51
134.4606922279490107
  0
ARC
  5
71A3
  8
0
 10
4307.8298315138617909
 20
156.1624429935951923
 30
0.0
 40
0.0271831626139409
 50
344.7761292064145096
 51
53.2221331890121476
  0
ARC
  5
71A4
  8
0
 10
4307.7887497753081334
 20
156.2043823498241011
 30
0.0
 40
0.0270957183748196
 50
166.6475781966603904
 51
197.8271676173716003
  0
ARC
  5
71A5
  8
0
 10
4307.8428118323790841
 20
156.2043872906151876
 30
0.0
 40
0.0272225971928186
 50
342.247771216871115
 51
13.339430460829
  0
ARC
  5
71A6
  8
0
 10
4307.8158619886962697
 20
156.1396672763497975
 30
0.0
 40
0.088863553654815
 50
53.0334463836912207
 51
126.9968178245077013
  0
ARC
  5
71A7
  8
0
 10
4307.8158466353343101
 20
156.152781553402292
 30
0.0
 40
0.0264467708704205
 50
53.5673926465389698
 51
126.4326024396383019
  0
ARC
  5
71A8
  8
0
 10
4307.8158466376271463
 20
156.173193663603513
 30
0.0
 40
0.027140492330754
 50
241.9031434379922985
 51
298.0968507100224087
  0
ARC
  5
71A9
  8
0
 10
4307.8231626325614343
 20
156.162472109622513
 30
0.0
 40
0.0143059757579295
 50
292.4632593730516987
 51
54.0925866903601715
  0
ARC
  5
71AA
  8
0
 10
4307.8084488577969751
 20
156.1624624718743917
 30
0.0
 40
0.0142660008963758
 50
125.6186686887676984
 51
247.8254866589066978
  0
ARC
  5
71AB
  8
0
 10
4307.7827280174360567
 20
156.1888602020308099
 30
0.0
 40
0.0298015004300157
 50
133.0445327829008022
 51
202.8236383131317098
  0
ARC
  5
71AC
  8
0
 10
4307.7870575502456632
 20
156.1885588403368956
 30
0.0
 40
0.0337319744883368
 50
199.4973929686703116
 51
249.3678035105849062
  0
ARC
  5
71AD
  8
0
 10
4307.8497305353839693
 20
156.1891489775202899
 30
0.0
 40
0.0290866691053433
 50
343.6313832191660254
 51
47.7166563392677219
  0
ARC
  5
71AE
  8
0
 10
4307.8401404875812659
 20
156.1905994949337071
 30
0.0
 40
0.0387189945307875
 50
294.2786230381325936
 51
345.5716080277397282
  0
LINE
  5
71AF
  8
0
 10
4308.1100530429939681
 20
156.1967574211670069
 30
0.0
 11
4308.1227304971953345
 21
156.2375395710670034
 31
0.0
  0
LINE
  5
71B0
  8
0
 10
4308.0291637958944193
 20
156.1984428651547887
 30
0.0
 11
4308.0169473762944108
 21
156.2375395710670034
 31
0.0
  0
ARC
  5
71B1
  8
0
 10
4308.0618065523085534
 20
156.2082178890057094
 30
0.0
 40
0.0340749268182839
 50
196.670571476717214
 51
251.6206832576075954
  0
ARC
  5
71B2
  8
0
 10
4308.0697930744327095
 20
156.2249239853817926
 30
0.0
 40
0.0524979622474823
 50
249.0970216637269914
 51
291.3689840103854749
  0
ARC
  5
71B3
  8
0
 10
4308.0782300454102369
 20
156.2080730501770063
 30
0.0
 40
0.0337749409340208
 50
288.4551209644200185
 51
340.4256187685655846
  0
ARC
  5
71B4
  8
0
 10
4308.0546631977676952
 20
156.2039992186390123
 30
0.0
 40
0.0260977500931332
 50
137.7134470536975925
 51
192.2926741820745065
  0
ARC
  5
71B5
  8
0
 10
4308.0701055248418925
 20
156.1861492418723003
 30
0.0
 40
0.0496119006512895
 50
52.8030090089287825
 51
134.4606922279490107
  0
ARC
  5
71B6
  8
0
 10
4308.0838238143087437
 20
156.2038954805894946
 30
0.0
 40
0.0271831626139409
 50
344.7761292064145096
 51
53.2221331890121476
  0
ARC
  5
71B7
  8
0
 10
4308.0427420757569053
 20
156.2458348368182897
 30
0.0
 40
0.0270957183748196
 50
166.6475781966603904
 51
197.8271676173716003
  0
ARC
  5
71B8
  8
0
 10
4308.0968041328260369
 20
156.2458397776094898
 30
0.0
 40
0.0272225971928186
 50
342.247771216871115
 51
13.339430460829
  0
ARC
  5
71B9
  8
0
 10
4308.0698542891441321
 20
156.1811197633439861
 30
0.0
 40
0.088863553654815
 50
53.0334463836912207
 51
126.9968178245077013
  0
ARC
  5
71BA
  8
0
 10
4308.069838935781263
 20
156.1942340403965943
 30
0.0
 40
0.0264467708704205
 50
53.5673926465389698
 51
126.4326024396383019
  0
ARC
  5
71BB
  8
0
 10
4308.0698389380750086
 20
156.2146461505977868
 30
0.0
 40
0.027140492330754
 50
241.9031434379922985
 51
298.0968507100224087
  0
ARC
  5
71BC
  8
0
 10
4308.0771549330092967
 20
156.2039245966167869
 30
0.0
 40
0.0143059757579295
 50
292.4632593730516987
 51
54.0925866903601715
  0
ARC
  5
71BD
  8
0
 10
4308.0624411582439279
 20
156.2039149588686939
 30
0.0
 40
0.0142660008963758
 50
125.6186686887676984
 51
247.8254866589066978
  0
ARC
  5
71BE
  8
0
 10
4308.0367203178830096
 20
156.2303126890251121
 30
0.0
 40
0.0298015004300157
 50
133.0445327829008022
 51
202.8236383131317098
  0
ARC
  5
71BF
  8
0
 10
4308.041049850692616
 20
156.2300113273311979
 30
0.0
 40
0.0337319744883368
 50
199.4973929686703116
 51
249.3678035105849062
  0
ARC
  5
71C0
  8
0
 10
4308.1037228358318316
 20
156.2306014645145922
 30
0.0
 40
0.0290866691053433
 50
343.6313832191660254
 51
47.7166563392677219
  0
ARC
  5
71C1
  8
0
 10
4308.0941327880282188
 20
156.2320519819280094
 30
0.0
 40
0.0387189945307875
 50
294.2786230381325936
 51
345.5716080277397282
  0
LINE
  5
71C2
  8
0
 10
4307.7185545385445948
 20
156.0781768846655098
 30
0.0
 11
4307.7312319927450517
 21
156.1189590345653926
 31
0.0
  0
LINE
  5
71C3
  8
0
 10
4307.637665291445046
 20
156.0798623286532063
 30
0.0
 11
4307.6254488718450375
 21
156.1189590345653926
 31
0.0
  0
ARC
  5
71C4
  8
0
 10
4307.6703080478591801
 20
156.0896373525040985
 30
0.0
 40
0.0340749268182839
 50
196.670571476717214
 51
251.6206832576075954
  0
ARC
  5
71C5
  8
0
 10
4307.6782945699842458
 20
156.1063434488802955
 30
0.0
 40
0.0524979622474823
 50
249.0970216637269914
 51
291.3689840103854749
  0
ARC
  5
71C6
  8
0
 10
4307.6867315409599541
 20
156.0894925136753955
 30
0.0
 40
0.0337749409340208
 50
288.4551209644200185
 51
340.4256187685655846
  0
ARC
  5
71C7
  8
0
 10
4307.6631646933192314
 20
156.0854186821374014
 30
0.0
 40
0.0260977500931332
 50
137.7134470536975925
 51
192.2926741820745065
  0
ARC
  5
71C8
  8
0
 10
4307.6786070203916097
 20
156.0675687053706895
 30
0.0
 40
0.0496119006512895
 50
52.8030090089287825
 51
134.4606922279490107
  0
ARC
  5
71C9
  8
0
 10
4307.6923253098611895
 20
156.0853149440879122
 30
0.0
 40
0.0271831626139409
 50
344.7761292064145096
 51
53.2221331890121476
  0
ARC
  5
71CA
  8
0
 10
4307.6512435713066225
 20
156.1272543003167925
 30
0.0
 40
0.0270957183748196
 50
166.6475781966603904
 51
197.8271676173716003
  0
ARC
  5
71CB
  8
0
 10
4307.7053056283775732
 20
156.1272592411079074
 30
0.0
 40
0.0272225971928186
 50
342.247771216871115
 51
13.339430460829
  0
ARC
  5
71CC
  8
0
 10
4307.6783557846947588
 20
156.0625392268424889
 30
0.0
 40
0.088863553654815
 50
53.0334463836912207
 51
126.9968178245077013
  0
ARC
  5
71CD
  8
0
 10
4307.6783404313327992
 20
156.0756535038950119
 30
0.0
 40
0.0264467708704205
 50
53.5673926465389698
 51
126.4326024396383019
  0
ARC
  5
71CE
  8
0
 10
4307.6783404336247258
 20
156.0960656140962044
 30
0.0
 40
0.027140492330754
 50
241.9031434379922985
 51
298.0968507100224087
  0
ARC
  5
71CF
  8
0
 10
4307.6856564285590139
 20
156.0853440601152045
 30
0.0
 40
0.0143059757579295
 50
292.4632593730516987
 51
54.0925866903601715
  0
ARC
  5
71D0
  8
0
 10
4307.6709426537945546
 20
156.0853344223671115
 30
0.0
 40
0.0142660008963758
 50
125.6186686887676984
 51
247.8254866589066978
  0
ARC
  5
71D1
  8
0
 10
4307.6452218134345458
 20
156.1117321525235013
 30
0.0
 40
0.0298015004300157
 50
133.0445327829008022
 51
202.8236383131317098
  0
ARC
  5
71D2
  8
0
 10
4307.6495513462450617
 20
156.1114307908295871
 30
0.0
 40
0.0337319744883368
 50
199.4973929686703116
 51
249.3678035105849062
  0
ARC
  5
71D3
  8
0
 10
4307.7122243313815488
 20
156.1120209280130098
 30
0.0
 40
0.0290866691053433
 50
343.6313832191660254
 51
47.7166563392677219
  0
ARC
  5
71D4
  8
0
 10
4307.702634283579755
 20
156.1134714454263985
 30
0.0
 40
0.0387189945307875
 50
294.2786230381325936
 51
345.5716080277397282
  0
LINE
  5
71D5
  8
0
 10
4307.9935669483193124
 20
156.0781768851329048
 30
0.0
 11
4308.0062444025188597
 21
156.1189590350329013
 31
0.0
  0
LINE
  5
71D6
  8
0
 10
4307.9126777012197635
 20
156.0798623291206866
 30
0.0
 11
4307.9004612816188455
 21
156.1189590350329013
 31
0.0
  0
ARC
  5
71D7
  8
0
 10
4307.9453204576338976
 20
156.0896373529716072
 30
0.0
 40
0.0340749268182839
 50
196.670571476717214
 51
251.6206832576075954
  0
ARC
  5
71D8
  8
0
 10
4307.9533069797589633
 20
156.1063434493476905
 30
0.0
 40
0.0524979622474823
 50
249.0970216637269914
 51
291.3689840103854749
  0
ARC
  5
71D9
  8
0
 10
4307.9617439507355812
 20
156.0894925141429042
 30
0.0
 40
0.0337749409340208
 50
288.4551209644200185
 51
340.4256187685655846
  0
ARC
  5
71DA
  8
0
 10
4307.93817710309213
 20
156.0854186826049101
 30
0.0
 40
0.0260977500931332
 50
137.7134470536975925
 51
192.2926741820745065
  0
ARC
  5
71DB
  8
0
 10
4307.9536194301672367
 20
156.0675687058381982
 30
0.0
 40
0.0496119006512895
 50
52.8030090089287825
 51
134.4606922279490107
  0
ARC
  5
71DC
  8
0
 10
4307.9673377196349975
 20
156.0853149445553925
 30
0.0
 40
0.0271831626139409
 50
344.7761292064145096
 51
53.2221331890121476
  0
ARC
  5
71DD
  8
0
 10
4307.92625598108134
 20
156.1272543007841875
 30
0.0
 40
0.0270957183748196
 50
166.6475781966603904
 51
197.8271676173716003
  0
ARC
  5
71DE
  8
0
 10
4307.9803180381522907
 20
156.1272592415753877
 30
0.0
 40
0.0272225971928186
 50
342.247771216871115
 51
13.339430460829
  0
ARC
  5
71DF
  8
0
 10
4307.9533681944685668
 20
156.0625392273099123
 30
0.0
 40
0.088863553654815
 50
53.0334463836912207
 51
126.9968178245077013
  0
ARC
  5
71E0
  8
0
 10
4307.9533528411066072
 20
156.0756535043624922
 30
0.0
 40
0.0264467708704205
 50
53.5673926465389698
 51
126.4326024396383019
  0
ARC
  5
71E1
  8
0
 10
4307.9533528434003529
 20
156.0960656145637131
 30
0.0
 40
0.027140492330754
 50
241.9031434379922985
 51
298.0968507100224087
  0
ARC
  5
71E2
  8
0
 10
4307.9606688383328219
 20
156.0853440605827132
 30
0.0
 40
0.0143059757579295
 50
292.4632593730516987
 51
54.0925866903601715
  0
ARC
  5
71E3
  8
0
 10
4307.9459550635692722
 20
156.0853344228345918
 30
0.0
 40
0.0142660008963758
 50
125.6186686887676984
 51
247.8254866589066978
  0
ARC
  5
71E4
  8
0
 10
4307.9202342232092633
 20
156.11173215299101
 30
0.0
 40
0.0298015004300157
 50
133.0445327829008022
 51
202.8236383131317098
  0
ARC
  5
71E5
  8
0
 10
4307.9245637560188698
 20
156.1114307912970958
 30
0.0
 40
0.0337319744883368
 50
199.4973929686703116
 51
249.3678035105849062
  0
ARC
  5
71E6
  8
0
 10
4307.9872367411562664
 20
156.1120209284804901
 30
0.0
 40
0.0290866691053433
 50
343.6313832191660254
 51
47.7166563392677219
  0
ARC
  5
71E7
  8
0
 10
4307.977646693353563
 20
156.1134714458939072
 30
0.0
 40
0.0387189945307875
 50
294.2786230381325936
 51
345.5716080277397282
  0
LINE
  5
71E8
  8
0
 10
4307.5904870864924305
 20
156.019790327659905
 30
0.0
 11
4307.6031645406919779
 21
156.0605724775599015
 31
0.0
  0
LINE
  5
71E9
  8
0
 10
4307.5095978393910627
 20
156.0214757716476015
 30
0.0
 11
4307.4973814197919637
 21
156.0605724775599015
 31
0.0
  0
ARC
  5
71EA
  8
0
 10
4307.5422405958070158
 20
156.0312507954986074
 30
0.0
 40
0.0340749268182839
 50
196.670571476717214
 51
251.6206832576075954
  0
ARC
  5
71EB
  8
0
 10
4307.5502271179320815
 20
156.0479568918746907
 30
0.0
 40
0.0524979622474823
 50
249.0970216637269914
 51
291.3689840103854749
  0
ARC
  5
71EC
  8
0
 10
4307.5586640889077898
 20
156.0311059566699043
 30
0.0
 40
0.0337749409340208
 50
288.4551209644200185
 51
340.4256187685655846
  0
ARC
  5
71ED
  8
0
 10
4307.5350972412652482
 20
156.0270321251319103
 30
0.0
 40
0.0260977500931332
 50
137.7134470536975925
 51
192.2926741820745065
  0
ARC
  5
71EE
  8
0
 10
4307.5505395683412644
 20
156.0091821483651984
 30
0.0
 40
0.0496119006512895
 50
52.8030090089287825
 51
134.4606922279490107
  0
ARC
  5
71EF
  8
0
 10
4307.5642578578081157
 20
156.0269283870823074
 30
0.0
 40
0.0271831626139409
 50
344.7761292064145096
 51
53.2221331890121476
  0
ARC
  5
71F0
  8
0
 10
4307.5231761192535487
 20
156.0688677433111877
 30
0.0
 40
0.0270957183748196
 50
166.6475781966603904
 51
197.8271676173716003
  0
ARC
  5
71F1
  8
0
 10
4307.5772381763254089
 20
156.0688726841023879
 30
0.0
 40
0.0272225971928186
 50
342.247771216871115
 51
13.339430460829
  0
ARC
  5
71F2
  8
0
 10
4307.5502883326407755
 20
156.0041526698369125
 30
0.0
 40
0.088863553654815
 50
53.0334463836912207
 51
126.9968178245077013
  0
ARC
  5
71F3
  8
0
 10
4307.5502729792797254
 20
156.0172669468894924
 30
0.0
 40
0.0264467708704205
 50
53.5673926465389698
 51
126.4326024396383019
  0
ARC
  5
71F4
  8
0
 10
4307.5502729815716521
 20
156.0376790570905996
 30
0.0
 40
0.027140492330754
 50
241.9031434379922985
 51
298.0968507100224087
  0
ARC
  5
71F5
  8
0
 10
4307.5575889765059401
 20
156.0269575031097133
 30
0.0
 40
0.0143059757579295
 50
292.4632593730516987
 51
54.0925866903601715
  0
ARC
  5
71F6
  8
0
 10
4307.5428752017423903
 20
156.026947865361592
 30
0.0
 40
0.0142660008963758
 50
125.6186686887676984
 51
247.8254866589066978
  0
ARC
  5
71F7
  8
0
 10
4307.5171543613805625
 20
156.0533455955180102
 30
0.0
 40
0.0298015004300157
 50
133.0445327829008022
 51
202.8236383131317098
  0
ARC
  5
71F8
  8
0
 10
4307.5214838941910784
 20
156.053044233824096
 30
0.0
 40
0.0337319744883368
 50
199.4973929686703116
 51
249.3678035105849062
  0
ARC
  5
71F9
  8
0
 10
4307.5841568793293845
 20
156.053634371007405
 30
0.0
 40
0.0290866691053433
 50
343.6313832191660254
 51
47.7166563392677219
  0
ARC
  5
71FA
  8
0
 10
4307.5745668315266812
 20
156.0550848884207937
 30
0.0
 40
0.0387189945307875
 50
294.2786230381325936
 51
345.5716080277397282
  0
LINE
  5
71FB
  8
0
 10
4307.8560607425461058
 20
155.9765704101727124
 30
0.0
 11
4307.8687381967465626
 21
156.0173525600727089
 31
0.0
  0
LINE
  5
71FC
  8
0
 10
4307.7751714954456475
 20
155.9782558541604942
 30
0.0
 11
4307.7629550758465484
 21
156.0173525600727089
 31
0.0
  0
ARC
  5
71FD
  8
0
 10
4307.8078142518616005
 20
155.9880308780113864
 30
0.0
 40
0.0340749268182839
 50
196.670571476717214
 51
251.6206832576075954
  0
ARC
  5
71FE
  8
0
 10
4307.8158007739857567
 20
156.0047369743874981
 30
0.0
 40
0.0524979622474823
 50
249.0970216637269914
 51
291.3689840103854749
  0
ARC
  5
71FF
  8
0
 10
4307.8242377449632841
 20
155.9878860391827118
 30
0.0
 40
0.0337749409340208
 50
288.4551209644200185
 51
340.4256187685655846
  0
ARC
  5
7200
  8
0
 10
4307.8006708973198329
 20
155.9838122076446894
 30
0.0
 40
0.0260977500931332
 50
137.7134470536975925
 51
192.2926741820745065
  0
ARC
  5
7201
  8
0
 10
4307.8161132243940301
 20
155.9659622308780058
 30
0.0
 40
0.0496119006512895
 50
52.8030090089287825
 51
134.4606922279490107
  0
ARC
  5
7202
  8
0
 10
4307.8298315138617909
 20
155.9837084695952001
 30
0.0
 40
0.0271831626139409
 50
344.7761292064145096
 51
53.2221331890121476
  0
ARC
  5
7203
  8
0
 10
4307.7887497753081334
 20
156.0256478258241088
 30
0.0
 40
0.0270957183748196
 50
166.6475781966603904
 51
197.8271676173716003
  0
ARC
  5
7204
  8
0
 10
4307.8428118323790841
 20
156.0256527666151953
 30
0.0
 40
0.0272225971928186
 50
342.247771216871115
 51
13.339430460829
  0
ARC
  5
7205
  8
0
 10
4307.8158619886962697
 20
155.9609327523498052
 30
0.0
 40
0.088863553654815
 50
53.0334463836912207
 51
126.9968178245077013
  0
ARC
  5
7206
  8
0
 10
4307.8158466353343101
 20
155.9740470294022998
 30
0.0
 40
0.0264467708704205
 50
53.5673926465389698
 51
126.4326024396383019
  0
ARC
  5
7207
  8
0
 10
4307.8158466376271463
 20
155.9944591396034923
 30
0.0
 40
0.027140492330754
 50
241.9031434379922985
 51
298.0968507100224087
  0
ARC
  5
7208
  8
0
 10
4307.8231626325614343
 20
155.9837375856224924
 30
0.0
 40
0.0143059757579295
 50
292.4632593730516987
 51
54.0925866903601715
  0
ARC
  5
7209
  8
0
 10
4307.8084488577969751
 20
155.9837279478743994
 30
0.0
 40
0.0142660008963758
 50
125.6186686887676984
 51
247.8254866589066978
  0
ARC
  5
720A
  8
0
 10
4307.7827280174360567
 20
156.0101256780307892
 30
0.0
 40
0.0298015004300157
 50
133.0445327829008022
 51
202.8236383131317098
  0
ARC
  5
720B
  8
0
 10
4307.7870575502456632
 20
156.0098243163369034
 30
0.0
 40
0.0337319744883368
 50
199.4973929686703116
 51
249.3678035105849062
  0
ARC
  5
720C
  8
0
 10
4307.8497305353839693
 20
156.0104144535202977
 30
0.0
 40
0.0290866691053433
 50
343.6313832191660254
 51
47.7166563392677219
  0
ARC
  5
720D
  8
0
 10
4307.8401404875812659
 20
156.0118649709336864
 30
0.0
 40
0.0387189945307875
 50
294.2786230381325936
 51
345.5716080277397282
  0
LINE
  5
720E
  8
0
 10
4308.1137529235420516
 20
156.0183076070736092
 30
0.0
 11
4308.1264303777434179
 21
156.059089756973691
 31
0.0
  0
LINE
  5
720F
  8
0
 10
4308.0328636764443218
 20
156.019993051061391
 30
0.0
 11
4308.0206472568434037
 21
156.059089756973691
 31
0.0
  0
ARC
  5
7210
  8
0
 10
4308.0655064328593653
 20
156.0297680749123117
 30
0.0
 40
0.0340749268182839
 50
196.670571476717214
 51
251.6206832576075954
  0
ARC
  5
7211
  8
0
 10
4308.0734929549817025
 20
156.0464741712883949
 30
0.0
 40
0.0524979622474823
 50
249.0970216637269914
 51
291.3689840103854749
  0
ARC
  5
7212
  8
0
 10
4308.0819299259592299
 20
156.0296232360836939
 30
0.0
 40
0.0337749409340208
 50
288.4551209644200185
 51
340.4256187685655846
  0
ARC
  5
7213
  8
0
 10
4308.0583630783157787
 20
156.0255494045455862
 30
0.0
 40
0.0260977500931332
 50
137.7134470536975925
 51
192.2926741820745065
  0
ARC
  5
7214
  8
0
 10
4308.0738054053908854
 20
156.0076994277789026
 30
0.0
 40
0.0496119006512895
 50
52.8030090089287825
 51
134.4606922279490107
  0
ARC
  5
7215
  8
0
 10
4308.0875236948577367
 20
156.0254456664960969
 30
0.0
 40
0.0271831626139409
 50
344.7761292064145096
 51
53.2221331890121476
  0
ARC
  5
7216
  8
0
 10
4308.0464419563058982
 20
156.0673850227250057
 30
0.0
 40
0.0270957183748196
 50
166.6475781966603904
 51
197.8271676173716003
  0
ARC
  5
7217
  8
0
 10
4308.1005040133759394
 20
156.0673899635162059
 30
0.0
 40
0.0272225971928186
 50
342.247771216871115
 51
13.339430460829
  0
ARC
  5
7218
  8
0
 10
4308.0735541696922155
 20
156.0026699492507021
 30
0.0
 40
0.088863553654815
 50
53.0334463836912207
 51
126.9968178245077013
  0
ARC
  5
7219
  8
0
 10
4308.0735388163311654
 20
156.0157842263031966
 30
0.0
 40
0.0264467708704205
 50
53.5673926465389698
 51
126.4326024396383019
  0
ARC
  5
721A
  8
0
 10
4308.0735388186240016
 20
156.0361963365043891
 30
0.0
 40
0.027140492330754
 50
241.9031434379922985
 51
298.0968507100224087
  0
ARC
  5
721B
  8
0
 10
4308.0808548135582896
 20
156.0254747825235029
 30
0.0
 40
0.0143059757579295
 50
292.4632593730516987
 51
54.0925866903601715
  0
ARC
  5
721C
  8
0
 10
4308.0661410387938304
 20
156.0254651447752963
 30
0.0
 40
0.0142660008963758
 50
125.6186686887676984
 51
247.8254866589066978
  0
ARC
  5
721D
  8
0
 10
4308.0404201984320025
 20
156.0518628749317998
 30
0.0
 40
0.0298015004300157
 50
133.0445327829008022
 51
202.8236383131317098
  0
ARC
  5
721E
  8
0
 10
4308.044749731243428
 20
156.0515615132379139
 30
0.0
 40
0.0337319744883368
 50
199.4973929686703116
 51
249.3678035105849062
  0
ARC
  5
721F
  8
0
 10
4308.1074227163808246
 20
156.0521516504211945
 30
0.0
 40
0.0290866691053433
 50
343.6313832191660254
 51
47.7166563392677219
  0
ARC
  5
7220
  8
0
 10
4308.0978326685772117
 20
156.0536021678346117
 30
0.0
 40
0.0387189945307875
 50
294.2786230381325936
 51
345.5716080277397282
  0
LINE
  5
7221
  8
0
 10
4307.7210862554111372
 20
155.8992213114198933
 30
0.0
 11
4307.7337637096097751
 21
155.9400034613198898
 31
0.0
  0
LINE
  5
7222
  8
0
 10
4307.6401970083115884
 20
155.9009067554077035
 30
0.0
 11
4307.6279805887097609
 21
155.9400034613198898
 31
0.0
  0
ARC
  5
7223
  8
0
 10
4307.6728397647257225
 20
155.9106817792585957
 30
0.0
 40
0.0340749268182839
 50
196.670571476717214
 51
251.6206832576075954
  0
ARC
  5
7224
  8
0
 10
4307.6808262868498787
 20
155.9273878756347074
 30
0.0
 40
0.0524979622474823
 50
249.0970216637269914
 51
291.3689840103854749
  0
ARC
  5
7225
  8
0
 10
4307.6892632578255871
 20
155.9105369404298926
 30
0.0
 40
0.0337749409340208
 50
288.4551209644200185
 51
340.4256187685655846
  0
ARC
  5
7226
  8
0
 10
4307.6656964101839549
 20
155.9064631088918986
 30
0.0
 40
0.0260977500931332
 50
137.7134470536975925
 51
192.2926741820745065
  0
ARC
  5
7227
  8
0
 10
4307.6811387372590616
 20
155.8886131321251867
 30
0.0
 40
0.0496119006512895
 50
52.8030090089287825
 51
134.4606922279490107
  0
ARC
  5
7228
  8
0
 10
4307.6948570267268224
 20
155.9063593708424094
 30
0.0
 40
0.0271831626139409
 50
344.7761292064145096
 51
53.2221331890121476
  0
ARC
  5
7229
  8
0
 10
4307.6537752881731649
 20
155.9482987270712897
 30
0.0
 40
0.0270957183748196
 50
166.6475781966603904
 51
197.8271676173716003
  0
ARC
  5
722A
  8
0
 10
4307.7078373452441156
 20
155.9483036678624046
 30
0.0
 40
0.0272225971928186
 50
342.247771216871115
 51
13.339430460829
  0
ARC
  5
722B
  8
0
 10
4307.6808875015603917
 20
155.8835836535969861
 30
0.0
 40
0.088863553654815
 50
53.0334463836912207
 51
126.9968178245077013
  0
ARC
  5
722C
  8
0
 10
4307.6808721481993416
 20
155.8966979306495091
 30
0.0
 40
0.0264467708704205
 50
53.5673926465389698
 51
126.4326024396383019
  0
ARC
  5
722D
  8
0
 10
4307.6808721504903588
 20
155.9171100408507016
 30
0.0
 40
0.027140492330754
 50
241.9031434379922985
 51
298.0968507100224087
  0
ARC
  5
722E
  8
0
 10
4307.6881881454255563
 20
155.9063884868697016
 30
0.0
 40
0.0143059757579295
 50
292.4632593730516987
 51
54.0925866903601715
  0
ARC
  5
722F
  8
0
 10
4307.6734743706610971
 20
155.9063788491216087
 30
0.0
 40
0.0142660008963758
 50
125.6186686887676984
 51
247.8254866589066978
  0
ARC
  5
7230
  8
0
 10
4307.6477535303001787
 20
155.9327765792779985
 30
0.0
 40
0.0298015004300157
 50
133.0445327829008022
 51
202.8236383131317098
  0
ARC
  5
7231
  8
0
 10
4307.6520830631106946
 20
155.9324752175841127
 30
0.0
 40
0.0337319744883368
 50
199.4973929686703116
 51
249.3678035105849062
  0
ARC
  5
7232
  8
0
 10
4307.7147560482471818
 20
155.933065354767507
 30
0.0
 40
0.0290866691053433
 50
343.6313832191660254
 51
47.7166563392677219
  0
ARC
  5
7233
  8
0
 10
4307.7051660004453879
 20
155.9345158721808957
 30
0.0
 40
0.0387189945307875
 50
294.2786230381325936
 51
345.5716080277397282
  0
LINE
  5
7234
  8
0
 10
4307.9814115856961507
 20
155.8985226710726977
 30
0.0
 11
4307.9940890398966076
 21
155.9393048209726942
 31
0.0
  0
LINE
  5
7235
  8
0
 10
4307.9005223385966019
 20
155.9002081150605079
 30
0.0
 11
4307.8883059189956839
 21
155.9393048209726942
 31
0.0
  0
ARC
  5
7236
  8
0
 10
4307.9331650950116455
 20
155.9099831389114001
 30
0.0
 40
0.0340749268182839
 50
196.670571476717214
 51
251.6206832576075954
  0
ARC
  5
7237
  8
0
 10
4307.9411516171358016
 20
155.9266892352875118
 30
0.0
 40
0.0524979622474823
 50
249.0970216637269914
 51
291.3689840103854749
  0
ARC
  5
7238
  8
0
 10
4307.9495885881142385
 20
155.9098383000826971
 30
0.0
 40
0.0337749409340208
 50
288.4551209644200185
 51
340.4256187685655846
  0
ARC
  5
7239
  8
0
 10
4307.9260217404698778
 20
155.905764468544703
 30
0.0
 40
0.0260977500931332
 50
137.7134470536975925
 51
192.2926741820745065
  0
ARC
  5
723A
  8
0
 10
4307.9414640675440751
 20
155.8879144917779911
 30
0.0
 40
0.0496119006512895
 50
52.8030090089287825
 51
134.4606922279490107
  0
ARC
  5
723B
  8
0
 10
4307.9551823570109264
 20
155.9056607304952138
 30
0.0
 40
0.0271831626139409
 50
344.7761292064145096
 51
53.2221331890121476
  0
ARC
  5
723C
  8
0
 10
4307.9141006184590879
 20
155.9476000867240941
 30
0.0
 40
0.0270957183748196
 50
166.6475781966603904
 51
197.8271676173716003
  0
ARC
  5
723D
  8
0
 10
4307.9681626755300385
 20
155.947605027515209
 30
0.0
 40
0.0272225971928186
 50
342.247771216871115
 51
13.339430460829
  0
ARC
  5
723E
  8
0
 10
4307.9412128318463147
 20
155.8828850132497053
 30
0.0
 40
0.088863553654815
 50
53.0334463836912207
 51
126.9968178245077013
  0
ARC
  5
723F
  8
0
 10
4307.9411974784852646
 20
155.8959992903023135
 30
0.0
 40
0.0264467708704205
 50
53.5673926465389698
 51
126.4326024396383019
  0
ARC
  5
7240
  8
0
 10
4307.9411974807771912
 20
155.9164114005033923
 30
0.0
 40
0.027140492330754
 50
241.9031434379922985
 51
298.0968507100224087
  0
ARC
  5
7241
  8
0
 10
4307.9485134757105698
 20
155.9056898465225061
 30
0.0
 40
0.0143059757579295
 50
292.4632593730516987
 51
54.0925866903601715
  0
ARC
  5
7242
  8
0
 10
4307.9337997009461105
 20
155.9056802087744131
 30
0.0
 40
0.0142660008963758
 50
125.6186686887676984
 51
247.8254866589066978
  0
ARC
  5
7243
  8
0
 10
4307.9080788605861017
 20
155.9320779389308029
 30
0.0
 40
0.0298015004300157
 50
133.0445327829008022
 51
202.8236383131317098
  0
ARC
  5
7244
  8
0
 10
4307.9124083933966176
 20
155.9317765772368887
 30
0.0
 40
0.0337319744883368
 50
199.4973929686703116
 51
249.3678035105849062
  0
ARC
  5
7245
  8
0
 10
4307.9750813785340142
 20
155.9323667144203114
 30
0.0
 40
0.0290866691053433
 50
343.6313832191660254
 51
47.7166563392677219
  0
ARC
  5
7246
  8
0
 10
4307.9654913307313109
 20
155.9338172318337001
 30
0.0
 40
0.0387189945307875
 50
294.2786230381325936
 51
345.5716080277397282
  0
LINE
  5
7247
  8
0
 10
4307.5907380668877522
 20
155.8410091080554025
 30
0.0
 11
4307.6034155210882091
 21
155.881791257955399
 31
0.0
  0
LINE
  5
7248
  8
0
 10
4307.5098488197900224
 20
155.8426945520430991
 30
0.0
 11
4307.4976324001891044
 21
155.881791257955399
 31
0.0
  0
ARC
  5
7249
  8
0
 10
4307.5424915762041564
 20
155.8524695758939913
 30
0.0
 40
0.0340749268182839
 50
196.670571476717214
 51
251.6206832576075954
  0
ARC
  5
724A
  8
0
 10
4307.5504780983283126
 20
155.8691756722701882
 30
0.0
 40
0.0524979622474823
 50
249.0970216637269914
 51
291.3689840103854749
  0
ARC
  5
724B
  8
0
 10
4307.558915069304021
 20
155.8523247370654019
 30
0.0
 40
0.0337749409340208
 50
288.4551209644200185
 51
340.4256187685655846
  0
ARC
  5
724C
  8
0
 10
4307.5353482216623888
 20
155.8482509055274079
 30
0.0
 40
0.0260977500931332
 50
137.7134470536975925
 51
192.2926741820745065
  0
ARC
  5
724D
  8
0
 10
4307.5507905487356766
 20
155.8304009287606959
 30
0.0
 40
0.0496119006512895
 50
52.8030090089287825
 51
134.4606922279490107
  0
ARC
  5
724E
  8
0
 10
4307.5645088382043468
 20
155.8481471674778049
 30
0.0
 40
0.0271831626139409
 50
344.7761292064145096
 51
53.2221331890121476
  0
ARC
  5
724F
  8
0
 10
4307.5234270996515988
 20
155.8900865237067137
 30
0.0
 40
0.0270957183748196
 50
166.6475781966603904
 51
197.8271676173716003
  0
ARC
  5
7250
  8
0
 10
4307.5774891567207305
 20
155.8900914644978002
 30
0.0
 40
0.0272225971928186
 50
342.247771216871115
 51
13.339430460829
  0
ARC
  5
7251
  8
0
 10
4307.5505393130388256
 20
155.8253714502324101
 30
0.0
 40
0.088863553654815
 50
53.0334463836912207
 51
126.9968178245077013
  0
ARC
  5
7252
  8
0
 10
4307.5505239596768661
 20
155.8384857272849899
 30
0.0
 40
0.0264467708704205
 50
53.5673926465389698
 51
126.4326024396383019
  0
ARC
  5
7253
  8
0
 10
4307.5505239619687927
 20
155.8588978374860972
 30
0.0
 40
0.027140492330754
 50
241.9031434379922985
 51
298.0968507100224087
  0
ARC
  5
7254
  8
0
 10
4307.5578399569039902
 20
155.8481762835052109
 30
0.0
 40
0.0143059757579295
 50
292.4632593730516987
 51
54.0925866903601715
  0
ARC
  5
7255
  8
0
 10
4307.5431261821386215
 20
155.8481666457570896
 30
0.0
 40
0.0142660008963758
 50
125.6186686887676984
 51
247.8254866589066978
  0
ARC
  5
7256
  8
0
 10
4307.5174053417767936
 20
155.8745643759135078
 30
0.0
 40
0.0298015004300157
 50
133.0445327829008022
 51
202.8236383131317098
  0
ARC
  5
7257
  8
0
 10
4307.5217348745882191
 20
155.8742630142195935
 30
0.0
 40
0.0337319744883368
 50
199.4973929686703116
 51
249.3678035105849062
  0
ARC
  5
7258
  8
0
 10
4307.5844078597256157
 20
155.8748531514029025
 30
0.0
 40
0.0290866691053433
 50
343.6313832191660254
 51
47.7166563392677219
  0
ARC
  5
7259
  8
0
 10
4307.5748178119220029
 20
155.8763036688162913
 30
0.0
 40
0.0387189945307875
 50
294.2786230381325936
 51
345.5716080277397282
  0
LINE
  5
725A
  8
0
 10
4307.7224383730927002
 20
155.720529586396907
 30
0.0
 11
4307.7351158272931571
 21
155.7613117362969035
 31
0.0
  0
LINE
  5
725B
  8
0
 10
4307.6415491259922419
 20
155.7222150303846888
 30
0.0
 11
4307.6293327063931429
 21
155.7613117362969035
 31
0.0
  0
ARC
  5
725C
  8
0
 10
4307.6741918824081949
 20
155.7319900542356095
 30
0.0
 40
0.0340749268182839
 50
196.670571476717214
 51
251.6206832576075954
  0
ARC
  5
725D
  8
0
 10
4307.6821784045323511
 20
155.7486961506116927
 30
0.0
 40
0.0524979622474823
 50
249.0970216637269914
 51
291.3689840103854749
  0
ARC
  5
725E
  8
0
 10
4307.6906153755080595
 20
155.7318452154069064
 30
0.0
 40
0.0337749409340208
 50
288.4551209644200185
 51
340.4256187685655846
  0
ARC
  5
725F
  8
0
 10
4307.6670485278664273
 20
155.7277713838689124
 30
0.0
 40
0.0260977500931332
 50
137.7134470536975925
 51
192.2926741820745065
  0
ARC
  5
7260
  8
0
 10
4307.6824908549397151
 20
155.7099214071022004
 30
0.0
 40
0.0496119006512895
 50
52.8030090089287825
 51
134.4606922279490107
  0
ARC
  5
7261
  8
0
 10
4307.6962091444092948
 20
155.7276676458193947
 30
0.0
 40
0.0271831626139409
 50
344.7761292064145096
 51
53.2221331890121476
  0
ARC
  5
7262
  8
0
 10
4307.6551274058556373
 20
155.7696070020481898
 30
0.0
 40
0.0270957183748196
 50
166.6475781966603904
 51
197.8271676173716003
  0
ARC
  5
7263
  8
0
 10
4307.709189462924769
 20
155.7696119428393899
 30
0.0
 40
0.0272225971928186
 50
342.247771216871115
 51
13.339430460829
  0
ARC
  5
7264
  8
0
 10
4307.6822396192419546
 20
155.7048919285738862
 30
0.0
 40
0.088863553654815
 50
53.0334463836912207
 51
126.9968178245077013
  0
ARC
  5
7265
  8
0
 10
4307.6822242658809046
 20
155.7180062056264944
 30
0.0
 40
0.0264467708704205
 50
53.5673926465389698
 51
126.4326024396383019
  0
ARC
  5
7266
  8
0
 10
4307.6822242681728312
 20
155.7384183158276869
 30
0.0
 40
0.027140492330754
 50
241.9031434379922985
 51
298.0968507100224087
  0
ARC
  5
7267
  8
0
 10
4307.6895402631071192
 20
155.727696761846687
 30
0.0
 40
0.0143059757579295
 50
292.4632593730516987
 51
54.0925866903601715
  0
ARC
  5
7268
  8
0
 10
4307.67482648834266
 20
155.727687124098594
 30
0.0
 40
0.0142660008963758
 50
125.6186686887676984
 51
247.8254866589066978
  0
ARC
  5
7269
  8
0
 10
4307.6491056479808321
 20
155.7540848542550123
 30
0.0
 40
0.0298015004300157
 50
133.0445327829008022
 51
202.8236383131317098
  0
ARC
  5
726A
  8
0
 10
4307.6534351807922576
 20
155.753783492561098
 30
0.0
 40
0.0337319744883368
 50
199.4973929686703116
 51
249.3678035105849062
  0
ARC
  5
726B
  8
0
 10
4307.7161081659296542
 20
155.7543736297444923
 30
0.0
 40
0.0290866691053433
 50
343.6313832191660254
 51
47.7166563392677219
  0
ARC
  5
726C
  8
0
 10
4307.7065181181260414
 20
155.7558241471579095
 30
0.0
 40
0.0387189945307875
 50
294.2786230381325936
 51
345.5716080277397282
  0
LINE
  5
726D
  8
0
 10
4307.8560607425461058
 20
155.7978452438727004
 30
0.0
 11
4307.8687381967465626
 21
155.8386273937726969
 31
0.0
  0
LINE
  5
726E
  8
0
 10
4307.7751714954456475
 20
155.7995306878605106
 30
0.0
 11
4307.7629550758465484
 21
155.8386273937726969
 31
0.0
  0
ARC
  5
726F
  8
0
 10
4307.8078142518616005
 20
155.8093057117114029
 30
0.0
 40
0.0340749268182839
 50
196.670571476717214
 51
251.6206832576075954
  0
ARC
  5
7270
  8
0
 10
4307.8158007739857567
 20
155.8260118080874861
 30
0.0
 40
0.0524979622474823
 50
249.0970216637269914
 51
291.3689840103854749
  0
ARC
  5
7271
  8
0
 10
4307.8242377449632841
 20
155.8091608728826998
 30
0.0
 40
0.0337749409340208
 50
288.4551209644200185
 51
340.4256187685655846
  0
ARC
  5
7272
  8
0
 10
4307.8006708973198329
 20
155.8050870413447058
 30
0.0
 40
0.0260977500931332
 50
137.7134470536975925
 51
192.2926741820745065
  0
ARC
  5
7273
  8
0
 10
4307.8161132243940301
 20
155.7872370645779938
 30
0.0
 40
0.0496119006512895
 50
52.8030090089287825
 51
134.4606922279490107
  0
ARC
  5
7274
  8
0
 10
4307.8298315138617909
 20
155.8049833032951881
 30
0.0
 40
0.0271831626139409
 50
344.7761292064145096
 51
53.2221331890121476
  0
ARC
  5
7275
  8
0
 10
4307.7887497753081334
 20
155.8469226595240116
 30
0.0
 40
0.0270957183748196
 50
166.6475781966603904
 51
197.8271676173716003
  0
ARC
  5
7276
  8
0
 10
4307.8428118323790841
 20
155.8469276003152117
 30
0.0
 40
0.0272225971928186
 50
342.247771216871115
 51
13.339430460829
  0
ARC
  5
7277
  8
0
 10
4307.8158619886962697
 20
155.782207586049708
 30
0.0
 40
0.088863553654815
 50
53.0334463836912207
 51
126.9968178245077013
  0
ARC
  5
7278
  8
0
 10
4307.8158466353343101
 20
155.7953218631022878
 30
0.0
 40
0.0264467708704205
 50
53.5673926465389698
 51
126.4326024396383019
  0
ARC
  5
7279
  8
0
 10
4307.8158466376271463
 20
155.8157339733035087
 30
0.0
 40
0.027140492330754
 50
241.9031434379922985
 51
298.0968507100224087
  0
ARC
  5
727A
  8
0
 10
4307.8231626325614343
 20
155.8050124193225088
 30
0.0
 40
0.0143059757579295
 50
292.4632593730516987
 51
54.0925866903601715
  0
ARC
  5
727B
  8
0
 10
4307.8084488577969751
 20
155.8050027815743874
 30
0.0
 40
0.0142660008963758
 50
125.6186686887676984
 51
247.8254866589066978
  0
ARC
  5
727C
  8
0
 10
4307.7827280174360567
 20
155.8314005117308056
 30
0.0
 40
0.0298015004300157
 50
133.0445327829008022
 51
202.8236383131317098
  0
ARC
  5
727D
  8
0
 10
4307.7870575502456632
 20
155.8310991500368914
 30
0.0
 40
0.0337319744883368
 50
199.4973929686703116
 51
249.3678035105849062
  0
ARC
  5
727E
  8
0
 10
4307.8497305353839693
 20
155.8316892872203141
 30
0.0
 40
0.0290866691053433
 50
343.6313832191660254
 51
47.7166563392677219
  0
ARC
  5
727F
  8
0
 10
4307.8401404875812659
 20
155.8331398046335892
 30
0.0
 40
0.0387189945307875
 50
294.2786230381325936
 51
345.5716080277397282
  0
LINE
  5
7280
  8
0
 10
4308.1126538543476272
 20
155.8394645912198087
 30
0.0
 11
4308.1253313085489935
 21
155.8802467411198052
 31
0.0
  0
LINE
  5
7281
  8
0
 10
4308.0317646072489879
 20
155.8411500352075905
 30
0.0
 11
4308.0195481876489794
 21
155.8802467411198052
 31
0.0
  0
ARC
  5
7282
  8
0
 10
4308.0644073636640314
 20
155.8509250590585111
 30
0.0
 40
0.0340749268182839
 50
196.670571476717214
 51
251.6206832576075954
  0
ARC
  5
7283
  8
0
 10
4308.0723938857881876
 20
155.8676311554345943
 30
0.0
 40
0.0524979622474823
 50
249.0970216637269914
 51
291.3689840103854749
  0
ARC
  5
7284
  8
0
 10
4308.0808308567648055
 20
155.850780220229808
 30
0.0
 40
0.0337749409340208
 50
288.4551209644200185
 51
340.4256187685655846
  0
ARC
  5
7285
  8
0
 10
4308.0572640091222638
 20
155.846706388691814
 30
0.0
 40
0.0260977500931332
 50
137.7134470536975925
 51
192.2926741820745065
  0
ARC
  5
7286
  8
0
 10
4308.0727063361955516
 20
155.8288564119251021
 30
0.0
 40
0.0496119006512895
 50
52.8030090089287825
 51
134.4606922279490107
  0
ARC
  5
7287
  8
0
 10
4308.0864246256642218
 20
155.8466026506422963
 30
0.0
 40
0.0271831626139409
 50
344.7761292064145096
 51
53.2221331890121476
  0
ARC
  5
7288
  8
0
 10
4308.0453428871105643
 20
155.8885420068712051
 30
0.0
 40
0.0270957183748196
 50
166.6475781966603904
 51
197.8271676173716003
  0
ARC
  5
7289
  8
0
 10
4308.0994049441806055
 20
155.8885469476622916
 30
0.0
 40
0.0272225971928186
 50
342.247771216871115
 51
13.339430460829
  0
ARC
  5
728A
  8
0
 10
4308.0724551004968816
 20
155.8238269333967878
 30
0.0
 40
0.088863553654815
 50
53.0334463836912207
 51
126.9968178245077013
  0
ARC
  5
728B
  8
0
 10
4308.0724397471367411
 20
155.8369412104493961
 30
0.0
 40
0.0264467708704205
 50
53.5673926465389698
 51
126.4326024396383019
  0
ARC
  5
728C
  8
0
 10
4308.0724397494286677
 20
155.8573533206505886
 30
0.0
 40
0.027140492330754
 50
241.9031434379922985
 51
298.0968507100224087
  0
ARC
  5
728D
  8
0
 10
4308.0797557443629557
 20
155.8466317666695886
 30
0.0
 40
0.0143059757579295
 50
292.4632593730516987
 51
54.0925866903601715
  0
ARC
  5
728E
  8
0
 10
4308.065041969599406
 20
155.8466221289214957
 30
0.0
 40
0.0142660008963758
 50
125.6186686887676984
 51
247.8254866589066978
  0
ARC
  5
728F
  8
0
 10
4308.0393211292366686
 20
155.8730198590779139
 30
0.0
 40
0.0298015004300157
 50
133.0445327829008022
 51
202.8236383131317098
  0
ARC
  5
7290
  8
0
 10
4308.0436506620480941
 20
155.8727184973839996
 30
0.0
 40
0.0337319744883368
 50
199.4973929686703116
 51
249.3678035105849062
  0
ARC
  5
7291
  8
0
 10
4308.1063236471864002
 20
155.8733086345673939
 30
0.0
 40
0.0290866691053433
 50
343.6313832191660254
 51
47.7166563392677219
  0
ARC
  5
7292
  8
0
 10
4308.0967335993818779
 20
155.8747591519808111
 30
0.0
 40
0.0387189945307875
 50
294.2786230381325936
 51
345.5716080277397282
  0
LINE
  5
7293
  8
0
 10
4307.9896831135265529
 20
155.7205295875751858
 30
0.0
 11
4308.0023605677261003
 21
155.7613117374752107
 31
0.0
  0
LINE
  5
7294
  8
0
 10
4307.9087938664270041
 20
155.7222150315629108
 30
0.0
 11
4307.8965774468269956
 21
155.7613117374752107
 31
0.0
  0
ARC
  5
7295
  8
0
 10
4307.9414366228429571
 20
155.731990055413803
 30
0.0
 40
0.0340749268182839
 50
196.670571476717214
 51
251.6206832576075954
  0
ARC
  5
7296
  8
0
 10
4307.9494231449671133
 20
155.7486961517898862
 30
0.0
 40
0.0524979622474823
 50
249.0970216637269914
 51
291.3689840103854749
  0
ARC
  5
7297
  8
0
 10
4307.9578601159428217
 20
155.7318452165852136
 30
0.0
 40
0.0337749409340208
 50
288.4551209644200185
 51
340.4256187685655846
  0
ARC
  5
7298
  8
0
 10
4307.93429326830028
 20
155.7277713850471059
 30
0.0
 40
0.0260977500931332
 50
137.7134470536975925
 51
192.2926741820745065
  0
ARC
  5
7299
  8
0
 10
4307.9497355953753868
 20
155.709921408280394
 30
0.0
 40
0.0496119006512895
 50
52.8030090089287825
 51
134.4606922279490107
  0
ARC
  5
729A
  8
0
 10
4307.9634538848431475
 20
155.7276676469975882
 30
0.0
 40
0.0271831626139409
 50
344.7761292064145096
 51
53.2221331890121476
  0
ARC
  5
729B
  8
0
 10
4307.9223721462885806
 20
155.769607003226497
 30
0.0
 40
0.0270957183748196
 50
166.6475781966603904
 51
197.8271676173716003
  0
ARC
  5
729C
  8
0
 10
4307.9764342033604407
 20
155.7696119440176972
 30
0.0
 40
0.0272225971928186
 50
342.247771216871115
 51
13.339430460829
  0
ARC
  5
729D
  8
0
 10
4307.9494843596767168
 20
155.7048919297521934
 30
0.0
 40
0.088863553654815
 50
53.0334463836912207
 51
126.9968178245077013
  0
ARC
  5
729E
  8
0
 10
4307.9494690063156668
 20
155.718006206804688
 30
0.0
 40
0.0264467708704205
 50
53.5673926465389698
 51
126.4326024396383019
  0
ARC
  5
729F
  8
0
 10
4307.9494690086066839
 20
155.7384183170059089
 30
0.0
 40
0.027140492330754
 50
241.9031434379922985
 51
298.0968507100224087
  0
ARC
  5
72A0
  8
0
 10
4307.9567850035418815
 20
155.7276967630249089
 30
0.0
 40
0.0143059757579295
 50
292.4632593730516987
 51
54.0925866903601715
  0
ARC
  5
72A1
  8
0
 10
4307.9420712287783317
 20
155.7276871252767876
 30
0.0
 40
0.0142660008963758
 50
125.6186686887676984
 51
247.8254866589066978
  0
ARC
  5
72A2
  8
0
 10
4307.9163503884155944
 20
155.7540848554332058
 30
0.0
 40
0.0298015004300157
 50
133.0445327829008022
 51
202.8236383131317098
  0
ARC
  5
72A3
  8
0
 10
4307.9206799212270198
 20
155.7537834937394052
 30
0.0
 40
0.0337319744883368
 50
199.4973929686703116
 51
249.3678035105849062
  0
ARC
  5
72A4
  8
0
 10
4307.9833529063644164
 20
155.7543736309226858
 30
0.0
 40
0.0290866691053433
 50
343.6313832191660254
 51
47.7166563392677219
  0
ARC
  5
72A5
  8
0
 10
4307.9737628585608036
 20
155.755824148336103
 30
0.0
 40
0.0387189945307875
 50
294.2786230381325936
 51
345.5716080277397282
  0
LINE
  5
72A6
  8
0
 10
4307.5909827993782528
 20
155.6622391023414025
 30
0.0
 11
4307.6036602535768907
 21
155.703021252241399
 31
0.0
  0
LINE
  5
72A7
  8
0
 10
4307.510093552276885
 20
155.6639245463292127
 30
0.0
 11
4307.4978771326768765
 21
155.703021252241399
 31
0.0
  0
ARC
  5
72A8
  8
0
 10
4307.5427363086919286
 20
155.673699570180105
 30
0.0
 40
0.0340749268182839
 50
196.670571476717214
 51
251.6206832576075954
  0
ARC
  5
72A9
  8
0
 10
4307.5507228308169942
 20
155.6904056665561882
 30
0.0
 40
0.0524979622474823
 50
249.0970216637269914
 51
291.3689840103854749
  0
ARC
  5
72AA
  8
0
 10
4307.5591598017927026
 20
155.6735547313514019
 30
0.0
 40
0.0337749409340208
 50
288.4551209644200185
 51
340.4256187685655846
  0
ARC
  5
72AB
  8
0
 10
4307.5355929541501609
 20
155.6694808998134079
 30
0.0
 40
0.0260977500931332
 50
137.7134470536975925
 51
192.2926741820745065
  0
ARC
  5
72AC
  8
0
 10
4307.5510352812252677
 20
155.6516309230466959
 30
0.0
 40
0.0496119006512895
 50
52.8030090089287825
 51
134.4606922279490107
  0
ARC
  5
72AD
  8
0
 10
4307.5647535706930285
 20
155.6693771617638902
 30
0.0
 40
0.0271831626139409
 50
344.7761292064145096
 51
53.2221331890121476
  0
ARC
  5
72AE
  8
0
 10
4307.523671832139371
 20
155.7113165179927989
 30
0.0
 40
0.0270957183748196
 50
166.6475781966603904
 51
197.8271676173716003
  0
ARC
  5
72AF
  8
0
 10
4307.5777338892103216
 20
155.7113214587839138
 30
0.0
 40
0.0272225971928186
 50
342.247771216871115
 51
13.339430460829
  0
ARC
  5
72B0
  8
0
 10
4307.5507840455265978
 20
155.6466014445184101
 30
0.0
 40
0.088863553654815
 50
53.0334463836912207
 51
126.9968178245077013
  0
ARC
  5
72B1
  8
0
 10
4307.5507686921646382
 20
155.6597157215709899
 30
0.0
 40
0.0264467708704205
 50
53.5673926465389698
 51
126.4326024396383019
  0
ARC
  5
72B2
  8
0
 10
4307.5507686944565648
 20
155.6801278317722108
 30
0.0
 40
0.027140492330754
 50
241.9031434379922985
 51
298.0968507100224087
  0
ARC
  5
72B3
  8
0
 10
4307.5580846893917624
 20
155.6694062777912109
 30
0.0
 40
0.0143059757579295
 50
292.4632593730516987
 51
54.0925866903601715
  0
ARC
  5
72B4
  8
0
 10
4307.5433709146273031
 20
155.6693966400430895
 30
0.0
 40
0.0142660008963758
 50
125.6186686887676984
 51
247.8254866589066978
  0
ARC
  5
72B5
  8
0
 10
4307.5176500742663848
 20
155.6957943701995077
 30
0.0
 40
0.0298015004300157
 50
133.0445327829008022
 51
202.8236383131317098
  0
ARC
  5
72B6
  8
0
 10
4307.5219796070759912
 20
155.6954930085055935
 30
0.0
 40
0.0337319744883368
 50
199.4973929686703116
 51
249.3678035105849062
  0
ARC
  5
72B7
  8
0
 10
4307.5846525922142973
 20
155.6960831456889878
 30
0.0
 40
0.0290866691053433
 50
343.6313832191660254
 51
47.7166563392677219
  0
ARC
  5
72B8
  8
0
 10
4307.5750625444106845
 20
155.6975336631024049
 30
0.0
 40
0.0387189945307875
 50
294.2786230381325936
 51
345.5716080277397282
  0
LINE
  5
72B9
  8
0
 10
4307.7225638580512168
 20
155.5420178200544115
 30
0.0
 11
4307.7352413122516737
 21
155.5827999699544932
 31
0.0
  0
LINE
  5
72BA
  8
0
 10
4307.6416746109507585
 20
155.5437032640421933
 30
0.0
 11
4307.62945819135075
 21
155.5827999699544932
 31
0.0
  0
ARC
  5
72BB
  8
0
 10
4307.6743173673667116
 20
155.5534782878931139
 30
0.0
 40
0.0340749268182839
 50
196.670571476717214
 51
251.6206832576075954
  0
ARC
  5
72BC
  8
0
 10
4307.6823038894908677
 20
155.5701843842691972
 30
0.0
 40
0.0524979622474823
 50
249.0970216637269914
 51
291.3689840103854749
  0
ARC
  5
72BD
  8
0
 10
4307.6907408604683951
 20
155.5533334490644961
 30
0.0
 40
0.0337749409340208
 50
288.4551209644200185
 51
340.4256187685655846
  0
ARC
  5
72BE
  8
0
 10
4307.6671740128240344
 20
155.5492596175263884
 30
0.0
 40
0.0260977500931332
 50
137.7134470536975925
 51
192.2926741820745065
  0
ARC
  5
72BF
  8
0
 10
4307.6826163398982317
 20
155.5314096407597049
 30
0.0
 40
0.0496119006512895
 50
52.8030090089287825
 51
134.4606922279490107
  0
ARC
  5
72C0
  8
0
 10
4307.6963346293659924
 20
155.5491558794768991
 30
0.0
 40
0.0271831626139409
 50
344.7761292064145096
 51
53.2221331890121476
  0
ARC
  5
72C1
  8
0
 10
4307.6552528908141539
 20
155.5910952357058079
 30
0.0
 40
0.0270957183748196
 50
166.6475781966603904
 51
197.8271676173716003
  0
ARC
  5
72C2
  8
0
 10
4307.7093149478841951
 20
155.5911001764968944
 30
0.0
 40
0.0272225971928186
 50
342.247771216871115
 51
13.339430460829
  0
ARC
  5
72C3
  8
0
 10
4307.6823651042013807
 20
155.5263801622315043
 30
0.0
 40
0.088863553654815
 50
53.0334463836912207
 51
126.9968178245077013
  0
ARC
  5
72C4
  8
0
 10
4307.6823497508394212
 20
155.5394944392839989
 30
0.0
 40
0.0264467708704205
 50
53.5673926465389698
 51
126.4326024396383019
  0
ARC
  5
72C5
  8
0
 10
4307.6823497531322573
 20
155.5599065494851914
 30
0.0
 40
0.027140492330754
 50
241.9031434379922985
 51
298.0968507100224087
  0
ARC
  5
72C6
  8
0
 10
4307.6896657480665453
 20
155.5491849955043051
 30
0.0
 40
0.0143059757579295
 50
292.4632593730516987
 51
54.0925866903601715
  0
ARC
  5
72C7
  8
0
 10
4307.6749519733020861
 20
155.5491753577562122
 30
0.0
 40
0.0142660008963758
 50
125.6186686887676984
 51
247.8254866589066978
  0
ARC
  5
72C8
  8
0
 10
4307.6492311329402582
 20
155.5755730879124883
 30
0.0
 40
0.0298015004300157
 50
133.0445327829008022
 51
202.8236383131317098
  0
ARC
  5
72C9
  8
0
 10
4307.6535606657507742
 20
155.5752717262186877
 30
0.0
 40
0.0337319744883368
 50
199.4973929686703116
 51
249.3678035105849062
  0
ARC
  5
72CA
  8
0
 10
4307.7162336508881708
 20
155.5758618634019967
 30
0.0
 40
0.0290866691053433
 50
343.6313832191660254
 51
47.7166563392677219
  0
ARC
  5
72CB
  8
0
 10
4307.706643603084558
 20
155.5773123808154139
 30
0.0
 40
0.0387189945307875
 50
294.2786230381325936
 51
345.5716080277397282
  0
LINE
  5
72CC
  8
0
 10
4307.8560607424960835
 20
155.6191292868726919
 30
0.0
 11
4307.8687381966956309
 21
155.6599114367726884
 31
0.0
  0
LINE
  5
72CD
  8
0
 10
4307.7751714953956252
 20
155.6208147308603884
 30
0.0
 11
4307.7629550757974357
 21
155.6599114367726884
 31
0.0
  0
ARC
  5
72CE
  8
0
 10
4307.8078142518115783
 20
155.6305897547113943
 30
0.0
 40
0.0340749268182839
 50
196.670571476717214
 51
251.6206832576075954
  0
ARC
  5
72CF
  8
0
 10
4307.8158007739357345
 20
155.647295851087506
 30
0.0
 40
0.0524979622474823
 50
249.0970216637269914
 51
291.3689840103854749
  0
ARC
  5
72D0
  8
0
 10
4307.8242377449132618
 20
155.6304449158826912
 30
0.0
 40
0.0337749409340208
 50
288.4551209644200185
 51
340.4256187685655846
  0
ARC
  5
72D1
  8
0
 10
4307.8006708972698107
 20
155.6263710843446972
 30
0.0
 40
0.0260977500931332
 50
137.7134470536975925
 51
192.2926741820745065
  0
ARC
  5
72D2
  8
0
 10
4307.8161132243440079
 20
155.6085211075780137
 30
0.0
 40
0.0496119006512895
 50
52.8030090089287825
 51
134.4606922279490107
  0
ARC
  5
72D3
  8
0
 10
4307.8298315138117687
 20
155.626267346295208
 30
0.0
 40
0.0271831626139409
 50
344.7761292064145096
 51
53.2221331890121476
  0
ARC
  5
72D4
  8
0
 10
4307.7887497752590207
 20
155.668206702524003
 30
0.0
 40
0.0270957183748196
 50
166.6475781966603904
 51
197.8271676173716003
  0
ARC
  5
72D5
  8
0
 10
4307.8428118323299714
 20
155.6682116433152032
 30
0.0
 40
0.0272225971928186
 50
342.247771216871115
 51
13.339430460829
  0
ARC
  5
72D6
  8
0
 10
4307.8158619886462475
 20
155.6034916290498131
 30
0.0
 40
0.088863553654815
 50
53.0334463836912207
 51
126.9968178245077013
  0
ARC
  5
72D7
  8
0
 10
4307.8158466352851974
 20
155.6166059061023077
 30
0.0
 40
0.0264467708704205
 50
53.5673926465389698
 51
126.4326024396383019
  0
ARC
  5
72D8
  8
0
 10
4307.8158466375771241
 20
155.6370180163035002
 30
0.0
 40
0.027140492330754
 50
241.9031434379922985
 51
298.0968507100224087
  0
ARC
  5
72D9
  8
0
 10
4307.8231626325114121
 20
155.6262964623225002
 30
0.0
 40
0.0143059757579295
 50
292.4632593730516987
 51
54.0925866903601715
  0
ARC
  5
72DA
  8
0
 10
4307.8084488577469529
 20
155.6262868245744073
 30
0.0
 40
0.0142660008963758
 50
125.6186686887676984
 51
247.8254866589066978
  0
ARC
  5
72DB
  8
0
 10
4307.7827280173860345
 20
155.6526845547307971
 30
0.0
 40
0.0298015004300157
 50
133.0445327829008022
 51
202.8236383131317098
  0
ARC
  5
72DC
  8
0
 10
4307.7870575501956409
 20
155.6523831930369113
 30
0.0
 40
0.0337319744883368
 50
199.4973929686703116
 51
249.3678035105849062
  0
ARC
  5
72DD
  8
0
 10
4307.8497305353330376
 20
155.6529733302203056
 30
0.0
 40
0.0290866691053433
 50
343.6313832191660254
 51
47.7166563392677219
  0
ARC
  5
72DE
  8
0
 10
4307.8401404875312437
 20
155.6544238476336943
 30
0.0
 40
0.0387189945307875
 50
294.2786230381325936
 51
345.5716080277397282
  0
LINE
  5
72DF
  8
0
 10
4308.1077450318416595
 20
155.660475266976789
 30
0.0
 11
4308.1204224860421164
 21
155.701257416876814
 31
0.0
  0
LINE
  5
72E0
  8
0
 10
4308.0268557847421107
 20
155.6621607109645993
 30
0.0
 11
4308.0146393651430117
 21
155.701257416876814
 31
0.0
  0
ARC
  5
72E1
  8
0
 10
4308.0594985411571542
 20
155.6719357348154915
 30
0.0
 40
0.0340749268182839
 50
196.670571476717214
 51
251.6206832576075954
  0
ARC
  5
72E2
  8
0
 10
4308.0674850632813104
 20
155.6886418311916032
 30
0.0
 40
0.0524979622474823
 50
249.0970216637269914
 51
291.3689840103854749
  0
ARC
  5
72E3
  8
0
 10
4308.0759220342579283
 20
155.6717908959867884
 30
0.0
 40
0.0337749409340208
 50
288.4551209644200185
 51
340.4256187685655846
  0
ARC
  5
72E4
  8
0
 10
4308.0523551866162961
 20
155.6677170644487944
 30
0.0
 40
0.0260977500931332
 50
137.7134470536975925
 51
192.2926741820745065
  0
ARC
  5
72E5
  8
0
 10
4308.0677975136886744
 20
155.6498670876821109
 30
0.0
 40
0.0496119006512895
 50
52.8030090089287825
 51
134.4606922279490107
  0
ARC
  5
72E6
  8
0
 10
4308.0815158031582541
 20
155.6676133263993052
 30
0.0
 40
0.0271831626139409
 50
344.7761292064145096
 51
53.2221331890121476
  0
ARC
  5
72E7
  8
0
 10
4308.0404340646036871
 20
155.7095526826282139
 30
0.0
 40
0.0270957183748196
 50
166.6475781966603904
 51
197.8271676173716003
  0
ARC
  5
72E8
  8
0
 10
4308.0944961216746378
 20
155.7095576234193004
 30
0.0
 40
0.0272225971928186
 50
342.247771216871115
 51
13.339430460829
  0
ARC
  5
72E9
  8
0
 10
4308.0675462779918234
 20
155.6448376091539103
 30
0.0
 40
0.088863553654815
 50
53.0334463836912207
 51
126.9968178245077013
  0
ARC
  5
72EA
  8
0
 10
4308.0675309246298639
 20
155.6579518862064049
 30
0.0
 40
0.0264467708704205
 50
53.5673926465389698
 51
126.4326024396383019
  0
ARC
  5
72EB
  8
0
 10
4308.0675309269217905
 20
155.6783639964075974
 30
0.0
 40
0.027140492330754
 50
241.9031434379922985
 51
298.0968507100224087
  0
ARC
  5
72EC
  8
0
 10
4308.074846921856988
 20
155.6676424424265974
 30
0.0
 40
0.0143059757579295
 50
292.4632593730516987
 51
54.0925866903601715
  0
ARC
  5
72ED
  8
0
 10
4308.0601331470916193
 20
155.6676328046785045
 30
0.0
 40
0.0142660008963758
 50
125.6186686887676984
 51
247.8254866589066978
  0
ARC
  5
72EE
  8
0
 10
4308.0344123067316104
 20
155.6940305348348943
 30
0.0
 40
0.0298015004300157
 50
133.0445327829008022
 51
202.8236383131317098
  0
ARC
  5
72EF
  8
0
 10
4308.0387418395421264
 20
155.6937291731410085
 30
0.0
 40
0.0337319744883368
 50
199.4973929686703116
 51
249.3678035105849062
  0
ARC
  5
72F0
  8
0
 10
4308.1014148246786135
 20
155.6943193103244027
 30
0.0
 40
0.0290866691053433
 50
343.6313832191660254
 51
47.7166563392677219
  0
ARC
  5
72F1
  8
0
 10
4308.0918247768768197
 20
155.6957698277377915
 30
0.0
 40
0.0387189945307875
 50
294.2786230381325936
 51
345.5716080277397282
  0
LINE
  5
72F2
  8
0
 10
4307.9895576284798153
 20
155.542017819572294
 30
0.0
 11
4308.0022350826811817
 21
155.5827999694724042
 31
0.0
  0
LINE
  5
72F3
  8
0
 10
4307.908668381381176
 20
155.5437032635601042
 30
0.0
 11
4307.8964519617811675
 21
155.5827999694724042
 31
0.0
  0
ARC
  5
72F4
  8
0
 10
4307.9413111377953101
 20
155.5534782874109965
 30
0.0
 40
0.0340749268182839
 50
196.670571476717214
 51
251.6206832576075954
  0
ARC
  5
72F5
  8
0
 10
4307.9492976599203757
 20
155.5701843837871081
 30
0.0
 40
0.0524979622474823
 50
249.0970216637269914
 51
291.3689840103854749
  0
ARC
  5
72F6
  8
0
 10
4307.9577346308969936
 20
155.5533334485824071
 30
0.0
 40
0.0337749409340208
 50
288.4551209644200185
 51
340.4256187685655846
  0
ARC
  5
72F7
  8
0
 10
4307.9341677832544519
 20
155.5492596170442994
 30
0.0
 40
0.0260977500931332
 50
137.7134470536975925
 51
192.2926741820745065
  0
ARC
  5
72F8
  8
0
 10
4307.9496101103286492
 20
155.5314096402775874
 30
0.0
 40
0.0496119006512895
 50
52.8030090089287825
 51
134.4606922279490107
  0
ARC
  5
72F9
  8
0
 10
4307.9633283997964099
 20
155.5491558789948101
 30
0.0
 40
0.0271831626139409
 50
344.7761292064145096
 51
53.2221331890121476
  0
ARC
  5
72FA
  8
0
 10
4307.9222466612427525
 20
155.5910952352236905
 30
0.0
 40
0.0270957183748196
 50
166.6475781966603904
 51
197.8271676173716003
  0
ARC
  5
72FB
  8
0
 10
4307.9763087183137031
 20
155.5911001760148906
 30
0.0
 40
0.0272225971928186
 50
342.247771216871115
 51
13.339430460829
  0
ARC
  5
72FC
  8
0
 10
4307.9493588746308887
 20
155.5263801617493868
 30
0.0
 40
0.088863553654815
 50
53.0334463836912207
 51
126.9968178245077013
  0
ARC
  5
72FD
  8
0
 10
4307.9493435212689292
 20
155.5394944388019098
 30
0.0
 40
0.0264467708704205
 50
53.5673926465389698
 51
126.4326024396383019
  0
ARC
  5
72FE
  8
0
 10
4307.9493435235617653
 20
155.5599065490031023
 30
0.0
 40
0.027140492330754
 50
241.9031434379922985
 51
298.0968507100224087
  0
ARC
  5
72FF
  8
0
 10
4307.9566595184960534
 20
155.5491849950221876
 30
0.0
 40
0.0143059757579295
 50
292.4632593730516987
 51
54.0925866903601715
  0
ARC
  5
7300
  8
0
 10
4307.9419457437306846
 20
155.5491753572740947
 30
0.0
 40
0.0142660008963758
 50
125.6186686887676984
 51
247.8254866589066978
  0
ARC
  5
7301
  8
0
 10
4307.9162249033706757
 20
155.5755730874305129
 30
0.0
 40
0.0298015004300157
 50
133.0445327829008022
 51
202.8236383131317098
  0
ARC
  5
7302
  8
0
 10
4307.9205544361802822
 20
155.5752717257365987
 30
0.0
 40
0.0337319744883368
 50
199.4973929686703116
 51
249.3678035105849062
  0
ARC
  5
7303
  8
0
 10
4307.9832274213185883
 20
155.5758618629199077
 30
0.0
 40
0.0290866691053433
 50
343.6313832191660254
 51
47.7166563392677219
  0
ARC
  5
7304
  8
0
 10
4307.9736373735149755
 20
155.5773123803332965
 30
0.0
 40
0.0387189945307875
 50
294.2786230381325936
 51
345.5716080277397282
  0
LINE
  5
7305
  8
0
 10
4307.59684566101987
 20
155.4834077318919867
 30
0.0
 11
4307.6095231152212364
 21
155.5241898817920116
 31
0.0
  0
LINE
  5
7306
  8
0
 10
4307.5159564139212307
 20
155.4850931758797117
 30
0.0
 11
4307.5037399943212222
 21
155.5241898817920116
 31
0.0
  0
ARC
  5
7307
  8
0
 10
4307.5485991703371838
 20
155.4948681997306039
 30
0.0
 40
0.0340749268182839
 50
196.670571476717214
 51
251.6206832576075954
  0
ARC
  5
7308
  8
0
 10
4307.5565856924604304
 20
155.5115742961068008
 30
0.0
 40
0.0524979622474823
 50
249.0970216637269914
 51
291.3689840103854749
  0
ARC
  5
7309
  8
0
 10
4307.5650226634370483
 20
155.4947233609019861
 30
0.0
 40
0.0337749409340208
 50
288.4551209644200185
 51
340.4256187685655846
  0
ARC
  5
730A
  8
0
 10
4307.5414558157935971
 20
155.4906495293639921
 30
0.0
 40
0.0260977500931332
 50
137.7134470536975925
 51
192.2926741820745065
  0
ARC
  5
730B
  8
0
 10
4307.5568981428687039
 20
155.4727995525971949
 30
0.0
 40
0.0496119006512895
 50
52.8030090089287825
 51
134.4606922279490107
  0
ARC
  5
730C
  8
0
 10
4307.5706164323355551
 20
155.4905457913143891
 30
0.0
 40
0.0271831626139409
 50
344.7761292064145096
 51
53.2221331890121476
  0
ARC
  5
730D
  8
0
 10
4307.5295346937837166
 20
155.5324851475432979
 30
0.0
 40
0.0270957183748196
 50
166.6475781966603904
 51
197.8271676173716003
  0
ARC
  5
730E
  8
0
 10
4307.5835967508537578
 20
155.5324900883344981
 30
0.0
 40
0.0272225971928186
 50
342.247771216871115
 51
13.339430460829
  0
ARC
  5
730F
  8
0
 10
4307.5566469071709435
 20
155.4677700740689943
 30
0.0
 40
0.088863553654815
 50
53.0334463836912207
 51
126.9968178245077013
  0
ARC
  5
7310
  8
0
 10
4307.5566315538089839
 20
155.4808843511214889
 30
0.0
 40
0.0264467708704205
 50
53.5673926465389698
 51
126.4326024396383019
  0
ARC
  5
7311
  8
0
 10
4307.55663155610182
 20
155.501296461322795
 30
0.0
 40
0.027140492330754
 50
241.9031434379922985
 51
298.0968507100224087
  0
ARC
  5
7312
  8
0
 10
4307.5639475510361081
 20
155.4905749073417951
 30
0.0
 40
0.0143059757579295
 50
292.4632593730516987
 51
54.0925866903601715
  0
ARC
  5
7313
  8
0
 10
4307.5492337762707393
 20
155.4905652695937022
 30
0.0
 40
0.0142660008963758
 50
125.6186686887676984
 51
247.8254866589066978
  0
ARC
  5
7314
  8
0
 10
4307.5235129359107304
 20
155.516962999750092
 30
0.0
 40
0.0298015004300157
 50
133.0445327829008022
 51
202.8236383131317098
  0
ARC
  5
7315
  8
0
 10
4307.5278424687203369
 20
155.5166616380562061
 30
0.0
 40
0.0337319744883368
 50
199.4973929686703116
 51
249.3678035105849062
  0
ARC
  5
7316
  8
0
 10
4307.590515453858643
 20
155.5172517752394867
 30
0.0
 40
0.0290866691053433
 50
343.6313832191660254
 51
47.7166563392677219
  0
ARC
  5
7317
  8
0
 10
4307.5809254060550302
 20
155.5187022926529039
 30
0.0
 40
0.0387189945307875
 50
294.2786230381325936
 51
345.5716080277397282
  0
LINE
  5
7318
  8
0
 10
4307.7225638580039231
 20
155.3638491823234915
 30
0.0
 11
4307.7352413122052894
 21
155.404631332223488
 31
0.0
  0
LINE
  5
7319
  8
0
 10
4307.6416746109052838
 20
155.365534626311188
 30
0.0
 11
4307.6294581913052752
 21
155.404631332223488
 31
0.0
  0
ARC
  5
731A
  8
0
 10
4307.6743173673212368
 20
155.375309650162194
 30
0.0
 40
0.0340749268182839
 50
196.670571476717214
 51
251.6206832576075954
  0
ARC
  5
731B
  8
0
 10
4307.682303889445393
 20
155.3920157465381919
 30
0.0
 40
0.0524979622474823
 50
249.0970216637269914
 51
291.3689840103854749
  0
ARC
  5
731C
  8
0
 10
4307.6907408604211014
 20
155.3751648113334909
 30
0.0
 40
0.0337749409340208
 50
288.4551209644200185
 51
340.4256187685655846
  0
ARC
  5
731D
  8
0
 10
4307.6671740127776502
 20
155.3710909797954969
 30
0.0
 40
0.0260977500931332
 50
137.7134470536975925
 51
192.2926741820745065
  0
ARC
  5
731E
  8
0
 10
4307.6826163398518474
 20
155.3532410030288133
 30
0.0
 40
0.0496119006512895
 50
52.8030090089287825
 51
134.4606922279490107
  0
ARC
  5
731F
  8
0
 10
4307.6963346293196082
 20
155.3709872417458939
 30
0.0
 40
0.0271831626139409
 50
344.7761292064145096
 51
53.2221331890121476
  0
ARC
  5
7320
  8
0
 10
4307.6552528907668602
 20
155.4129265979748027
 30
0.0
 40
0.0270957183748196
 50
166.6475781966603904
 51
197.8271676173716003
  0
ARC
  5
7321
  8
0
 10
4307.7093149478378109
 20
155.4129315387660029
 30
0.0
 40
0.0272225971928186
 50
342.247771216871115
 51
13.339430460829
  0
ARC
  5
7322
  8
0
 10
4307.6823651041549965
 20
155.3482115245004991
 30
0.0
 40
0.088863553654815
 50
53.0334463836912207
 51
126.9968178245077013
  0
ARC
  5
7323
  8
0
 10
4307.6823497507939464
 20
155.3613258015531073
 30
0.0
 40
0.0264467708704205
 50
53.5673926465389698
 51
126.4326024396383019
  0
ARC
  5
7324
  8
0
 10
4307.6823497530849636
 20
155.3817379117541861
 30
0.0
 40
0.027140492330754
 50
241.9031434379922985
 51
298.0968507100224087
  0
ARC
  5
7325
  8
0
 10
4307.6896657480210706
 20
155.3710163577732999
 30
0.0
 40
0.0143059757579295
 50
292.4632593730516987
 51
54.0925866903601715
  0
ARC
  5
7326
  8
0
 10
4307.6749519732557019
 20
155.371006720025207
 30
0.0
 40
0.0142660008963758
 50
125.6186686887676984
 51
247.8254866589066978
  0
ARC
  5
7327
  8
0
 10
4307.649231132893874
 20
155.3974044501815115
 30
0.0
 40
0.0298015004300157
 50
133.0445327829008022
 51
202.8236383131317098
  0
ARC
  5
7328
  8
0
 10
4307.6535606657052995
 20
155.3971030884877109
 30
0.0
 40
0.0337319744883368
 50
199.4973929686703116
 51
249.3678035105849062
  0
ARC
  5
7329
  8
0
 10
4307.7162336508417866
 20
155.3976932256709915
 30
0.0
 40
0.0290866691053433
 50
343.6313832191660254
 51
47.7166563392677219
  0
ARC
  5
732A
  8
0
 10
4307.7066436030390832
 20
155.3991437430844087
 30
0.0
 40
0.0387189945307875
 50
294.2786230381325936
 51
345.5716080277397282
  0
LINE
  5
732B
  8
0
 10
4307.856060742596128
 20
155.4414663447726923
 30
0.0
 11
4307.8687381967965848
 21
155.4822484946726888
 31
0.0
  0
LINE
  5
732C
  8
0
 10
4307.7751714954956697
 20
155.4431517887603889
 30
0.0
 11
4307.7629550758956611
 21
155.4822484946726888
 31
0.0
  0
ARC
  5
732D
  8
0
 10
4307.8078142519116227
 20
155.4529268126113948
 30
0.0
 40
0.0340749268182839
 50
196.670571476717214
 51
251.6206832576075954
  0
ARC
  5
732E
  8
0
 10
4307.8158007740357789
 20
155.4696329089875064
 30
0.0
 40
0.0524979622474823
 50
249.0970216637269914
 51
291.3689840103854749
  0
ARC
  5
732F
  8
0
 10
4307.8242377450133063
 20
155.4527819737826917
 30
0.0
 40
0.0337749409340208
 50
288.4551209644200185
 51
340.4256187685655846
  0
ARC
  5
7330
  8
0
 10
4307.8006708973689456
 20
155.4487081422446977
 30
0.0
 40
0.0260977500931332
 50
137.7134470536975925
 51
192.2926741820745065
  0
ARC
  5
7331
  8
0
 10
4307.8161132244431428
 20
155.4308581654780141
 30
0.0
 40
0.0496119006512895
 50
52.8030090089287825
 51
134.4606922279490107
  0
ARC
  5
7332
  8
0
 10
4307.8298315139118131
 20
155.4486044041952084
 30
0.0
 40
0.0271831626139409
 50
344.7761292064145096
 51
53.2221331890121476
  0
ARC
  5
7333
  8
0
 10
4307.7887497753590651
 20
155.4905437604240888
 30
0.0
 40
0.0270957183748196
 50
166.6475781966603904
 51
197.8271676173716003
  0
ARC
  5
7334
  8
0
 10
4307.8428118324300158
 20
155.4905487012152037
 30
0.0
 40
0.0272225971928186
 50
342.247771216871115
 51
13.339430460829
  0
ARC
  5
7335
  8
0
 10
4307.8158619887453824
 20
155.4258286869498136
 30
0.0
 40
0.088863553654815
 50
53.0334463836912207
 51
126.9968178245077013
  0
ARC
  5
7336
  8
0
 10
4307.8158466353852418
 20
155.4389429640023081
 30
0.0
 40
0.0264467708704205
 50
53.5673926465389698
 51
126.4326024396383019
  0
ARC
  5
7337
  8
0
 10
4307.8158466376771685
 20
155.4593550742035006
 30
0.0
 40
0.027140492330754
 50
241.9031434379922985
 51
298.0968507100224087
  0
ARC
  5
7338
  8
0
 10
4307.823162632610547
 20
155.4486335202225007
 30
0.0
 40
0.0143059757579295
 50
292.4632593730516987
 51
54.0925866903601715
  0
ARC
  5
7339
  8
0
 10
4307.8084488578469973
 20
155.4486238824744078
 30
0.0
 40
0.0142660008963758
 50
125.6186686887676984
 51
247.8254866589066978
  0
ARC
  5
733A
  8
0
 10
4307.7827280174851694
 20
155.4750216126307976
 30
0.0
 40
0.0298015004300157
 50
133.0445327829008022
 51
202.8236383131317098
  0
ARC
  5
733B
  8
0
 10
4307.7870575502956854
 20
155.4747202509369117
 30
0.0
 40
0.0337319744883368
 50
199.4973929686703116
 51
249.3678035105849062
  0
ARC
  5
733C
  8
0
 10
4307.849730535433082
 20
155.475310388120306
 30
0.0
 40
0.0290866691053433
 50
343.6313832191660254
 51
47.7166563392677219
  0
ARC
  5
733D
  8
0
 10
4307.8401404876312881
 20
155.4767609055336948
 30
0.0
 40
0.0387189945307875
 50
294.2786230381325936
 51
345.5716080277397282
  0
LINE
  5
733E
  8
0
 10
4308.1208998351357877
 20
155.4845240732882985
 30
0.0
 11
4308.1335772893371541
 21
155.525306223188295
 31
0.0
  0
LINE
  5
733F
  8
0
 10
4308.0400105880371484
 20
155.486209517275995
 30
0.0
 11
4308.0277941684371399
 21
155.525306223188295
 31
0.0
  0
ARC
  5
7340
  8
0
 10
4308.0726533444531015
 20
155.495984541127001
 30
0.0
 40
0.0340749268182839
 50
196.670571476717214
 51
251.6206832576075954
  0
ARC
  5
7341
  8
0
 10
4308.0806398665763481
 20
155.5126906375031126
 30
0.0
 40
0.0524979622474823
 50
249.0970216637269914
 51
291.3689840103854749
  0
ARC
  5
7342
  8
0
 10
4308.089076837552966
 20
155.4958397022982979
 30
0.0
 40
0.0337749409340208
 50
288.4551209644200185
 51
340.4256187685655846
  0
ARC
  5
7343
  8
0
 10
4308.0655099899104243
 20
155.4917658707601902
 30
0.0
 40
0.0260977500931332
 50
137.7134470536975925
 51
192.2926741820745065
  0
ARC
  5
7344
  8
0
 10
4308.0809523169837121
 20
155.4739158939935919
 30
0.0
 40
0.0496119006512895
 50
52.8030090089287825
 51
134.4606922279490107
  0
ARC
  5
7345
  8
0
 10
4308.0946706064523823
 20
155.4916621327107009
 30
0.0
 40
0.0271831626139409
 50
344.7761292064145096
 51
53.2221331890121476
  0
ARC
  5
7346
  8
0
 10
4308.0535888678987249
 20
155.5336014889396097
 30
0.0
 40
0.0270957183748196
 50
166.6475781966603904
 51
197.8271676173716003
  0
ARC
  5
7347
  8
0
 10
4308.1076509249696755
 20
155.5336064297306962
 30
0.0
 40
0.0272225971928186
 50
342.247771216871115
 51
13.339430460829
  0
ARC
  5
7348
  8
0
 10
4308.0807010812859517
 20
155.4688864154653061
 30
0.0
 40
0.088863553654815
 50
53.0334463836912207
 51
126.9968178245077013
  0
ARC
  5
7349
  8
0
 10
4308.0806857279249016
 20
155.4820006925178859
 30
0.0
 40
0.0264467708704205
 50
53.5673926465389698
 51
126.4326024396383019
  0
ARC
  5
734A
  8
0
 10
4308.0806857302168282
 20
155.5024128027189931
 30
0.0
 40
0.027140492330754
 50
241.9031434379922985
 51
298.0968507100224087
  0
ARC
  5
734B
  8
0
 10
4308.0880017251520258
 20
155.4916912487379932
 30
0.0
 40
0.0143059757579295
 50
292.4632593730516987
 51
54.0925866903601715
  0
ARC
  5
734C
  8
0
 10
4308.0732879503875665
 20
155.491681610990014
 30
0.0
 40
0.0142660008963758
 50
125.6186686887676984
 51
247.8254866589066978
  0
ARC
  5
734D
  8
0
 10
4308.0475671100257387
 20
155.5180793411464037
 30
0.0
 40
0.0298015004300157
 50
133.0445327829008022
 51
202.8236383131317098
  0
ARC
  5
734E
  8
0
 10
4308.0518966428371641
 20
155.5177779794524895
 30
0.0
 40
0.0337319744883368
 50
199.4973929686703116
 51
249.3678035105849062
  0
ARC
  5
734F
  8
0
 10
4308.1145696279736512
 20
155.5183681166357985
 30
0.0
 40
0.0290866691053433
 50
343.6313832191660254
 51
47.7166563392677219
  0
ARC
  5
7350
  8
0
 10
4308.1049795801709479
 20
155.5198186340491873
 30
0.0
 40
0.0387189945307875
 50
294.2786230381325936
 51
345.5716080277397282
  0
LINE
  5
7351
  8
0
 10
4307.9895576284798153
 20
155.3638491817723093
 30
0.0
 11
4308.0022350826802722
 21
155.4046313316723058
 31
0.0
  0
LINE
  5
7352
  8
0
 10
4307.9086683813802665
 20
155.3655346257600058
 30
0.0
 11
4307.896451961780258
 21
155.4046313316723058
 31
0.0
  0
ARC
  5
7353
  8
0
 10
4307.9413111377953101
 20
155.3753096496110118
 30
0.0
 40
0.0340749268182839
 50
196.670571476717214
 51
251.6206832576075954
  0
ARC
  5
7354
  8
0
 10
4307.9492976599185567
 20
155.392015745987095
 30
0.0
 40
0.0524979622474823
 50
249.0970216637269914
 51
291.3689840103854749
  0
ARC
  5
7355
  8
0
 10
4307.9577346308951746
 20
155.3751648107823087
 30
0.0
 40
0.0337749409340208
 50
288.4551209644200185
 51
340.4256187685655846
  0
ARC
  5
7356
  8
0
 10
4307.9341677832544519
 20
155.3710909792442862
 30
0.0
 40
0.0260977500931332
 50
137.7134470536975925
 51
192.2926741820745065
  0
ARC
  5
7357
  8
0
 10
4307.9496101103277397
 20
155.3532410024776027
 30
0.0
 40
0.0496119006512895
 50
52.8030090089287825
 51
134.4606922279490107
  0
ARC
  5
7358
  8
0
 10
4307.9633283997964099
 20
155.370987241194797
 30
0.0
 40
0.0271831626139409
 50
344.7761292064145096
 51
53.2221331890121476
  0
ARC
  5
7359
  8
0
 10
4307.9222466612427525
 20
155.4129265974235921
 30
0.0
 40
0.0270957183748196
 50
166.6475781966603904
 51
197.8271676173716003
  0
ARC
  5
735A
  8
0
 10
4307.9763087183137031
 20
155.4129315382147922
 30
0.0
 40
0.0272225971928186
 50
342.247771216871115
 51
13.339430460829
  0
ARC
  5
735B
  8
0
 10
4307.9493588746299793
 20
155.3482115239492884
 30
0.0
 40
0.088863553654815
 50
53.0334463836912207
 51
126.9968178245077013
  0
ARC
  5
735C
  8
0
 10
4307.9493435212680197
 20
155.3613258010018967
 30
0.0
 40
0.0264467708704205
 50
53.5673926465389698
 51
126.4326024396383019
  0
ARC
  5
735D
  8
0
 10
4307.9493435235608558
 20
155.3817379112030039
 30
0.0
 40
0.027140492330754
 50
241.9031434379922985
 51
298.0968507100224087
  0
ARC
  5
735E
  8
0
 10
4307.9566595184942344
 20
155.3710163572220893
 30
0.0
 40
0.0143059757579295
 50
292.4632593730516987
 51
54.0925866903601715
  0
ARC
  5
735F
  8
0
 10
4307.9419457437297751
 20
155.3710067194739963
 30
0.0
 40
0.0142660008963758
 50
125.6186686887676984
 51
247.8254866589066978
  0
ARC
  5
7360
  8
0
 10
4307.9162249033697663
 20
155.3974044496303861
 30
0.0
 40
0.0298015004300157
 50
133.0445327829008022
 51
202.8236383131317098
  0
ARC
  5
7361
  8
0
 10
4307.9205544361802822
 20
155.3971030879365003
 30
0.0
 40
0.0337319744883368
 50
199.4973929686703116
 51
249.3678035105849062
  0
ARC
  5
7362
  8
0
 10
4307.9832274213167693
 20
155.3976932251198093
 30
0.0
 40
0.0290866691053433
 50
343.6313832191660254
 51
47.7166563392677219
  0
ARC
  5
7363
  8
0
 10
4307.9736373735149755
 20
155.3991437425331981
 30
0.0
 40
0.0387189945307875
 50
294.2786230381325936
 51
345.5716080277397282
  0
LINE
  5
7364
  8
0
 10
4307.5926293353595611
 20
155.3065442049995966
 30
0.0
 11
4307.6053067895600179
 21
155.3473263548995931
 31
0.0
  0
LINE
  5
7365
  8
0
 10
4307.5117400882609218
 20
155.3082296489874068
 30
0.0
 11
4307.4995236686600038
 21
155.3473263548995931
 31
0.0
  0
ARC
  5
7366
  8
0
 10
4307.5443828446759653
 20
155.318004672838299
 30
0.0
 40
0.0340749268182839
 50
196.670571476717214
 51
251.6206832576075954
  0
ARC
  5
7367
  8
0
 10
4307.5523693668001215
 20
155.3347107692144107
 30
0.0
 40
0.0524979622474823
 50
249.0970216637269914
 51
291.3689840103854749
  0
ARC
  5
7368
  8
0
 10
4307.5608063377767394
 20
155.3178598340095959
 30
0.0
 40
0.0337749409340208
 50
288.4551209644200185
 51
340.4256187685655846
  0
ARC
  5
7369
  8
0
 10
4307.5372394901332882
 20
155.3137860024716019
 30
0.0
 40
0.0260977500931332
 50
137.7134470536975925
 51
192.2926741820745065
  0
ARC
  5
736A
  8
0
 10
4307.5526818172093044
 20
155.29593602570489
 30
0.0
 40
0.0496119006512895
 50
52.8030090089287825
 51
134.4606922279490107
  0
ARC
  5
736B
  8
0
 10
4307.5664001066761557
 20
155.3136822644221127
 30
0.0
 40
0.0271831626139409
 50
344.7761292064145096
 51
53.2221331890121476
  0
ARC
  5
736C
  8
0
 10
4307.5253183681234077
 20
155.355621620650993
 30
0.0
 40
0.0270957183748196
 50
166.6475781966603904
 51
197.8271676173716003
  0
ARC
  5
736D
  8
0
 10
4307.5793804251943584
 20
155.3556265614421079
 30
0.0
 40
0.0272225971928186
 50
342.247771216871115
 51
13.339430460829
  0
ARC
  5
736E
  8
0
 10
4307.552430581509725
 20
155.2909065471766894
 30
0.0
 40
0.088863553654815
 50
53.0334463836912207
 51
126.9968178245077013
  0
ARC
  5
736F
  8
0
 10
4307.5524152281486749
 20
155.3040208242292124
 30
0.0
 40
0.0264467708704205
 50
53.5673926465389698
 51
126.4326024396383019
  0
ARC
  5
7370
  8
0
 10
4307.5524152304396921
 20
155.3244329344304049
 30
0.0
 40
0.027140492330754
 50
241.9031434379922985
 51
298.0968507100224087
  0
ARC
  5
7371
  8
0
 10
4307.5597312253739801
 20
155.3137113804494049
 30
0.0
 40
0.0143059757579295
 50
292.4632593730516987
 51
54.0925866903601715
  0
ARC
  5
7372
  8
0
 10
4307.5450174506104304
 20
155.313701742701312
 30
0.0
 40
0.0142660008963758
 50
125.6186686887676984
 51
247.8254866589066978
  0
ARC
  5
7373
  8
0
 10
4307.5192966102504215
 20
155.3400994728577018
 30
0.0
 40
0.0298015004300157
 50
133.0445327829008022
 51
202.8236383131317098
  0
ARC
  5
7374
  8
0
 10
4307.523626143060028
 20
155.3397981111637876
 30
0.0
 40
0.0337319744883368
 50
199.4973929686703116
 51
249.3678035105849062
  0
ARC
  5
7375
  8
0
 10
4307.5862991281974246
 20
155.3403882483472103
 30
0.0
 40
0.0290866691053433
 50
343.6313832191660254
 51
47.7166563392677219
  0
ARC
  5
7376
  8
0
 10
4307.5767090803947212
 20
155.341838765760599
 30
0.0
 40
0.0387189945307875
 50
294.2786230381325936
 51
345.5716080277397282
  0
LINE
  5
7377
  8
0
 10
4307.8560607425461058
 20
155.2638123066726905
 30
0.0
 11
4307.8687381967465626
 21
155.304594456572687
 31
0.0
  0
LINE
  5
7378
  8
0
 10
4307.7751714954456475
 20
155.2654977506603871
 30
0.0
 11
4307.7629550758465484
 21
155.304594456572687
 31
0.0
  0
ARC
  5
7379
  8
0
 10
4307.8078142518616005
 20
155.275272774511393
 30
0.0
 40
0.0340749268182839
 50
196.670571476717214
 51
251.6206832576075954
  0
ARC
  5
737A
  8
0
 10
4307.8158007739857567
 20
155.2919788708875046
 30
0.0
 40
0.0524979622474823
 50
249.0970216637269914
 51
291.3689840103854749
  0
ARC
  5
737B
  8
0
 10
4307.8242377449632841
 20
155.2751279356826899
 30
0.0
 40
0.0337749409340208
 50
288.4551209644200185
 51
340.4256187685655846
  0
ARC
  5
737C
  8
0
 10
4307.8006708973198329
 20
155.2710541041446959
 30
0.0
 40
0.0260977500931332
 50
137.7134470536975925
 51
192.2926741820745065
  0
ARC
  5
737D
  8
0
 10
4307.8161132243940301
 20
155.2532041273780123
 30
0.0
 40
0.0496119006512895
 50
52.8030090089287825
 51
134.4606922279490107
  0
ARC
  5
737E
  8
0
 10
4307.8298315138617909
 20
155.2709503660952066
 30
0.0
 40
0.0271831626139409
 50
344.7761292064145096
 51
53.2221331890121476
  0
ARC
  5
737F
  8
0
 10
4307.7887497753081334
 20
155.312889722324087
 30
0.0
 40
0.0270957183748196
 50
166.6475781966603904
 51
197.8271676173716003
  0
ARC
  5
7380
  8
0
 10
4307.8428118323790841
 20
155.3128946631152019
 30
0.0
 40
0.0272225971928186
 50
342.247771216871115
 51
13.339430460829
  0
ARC
  5
7381
  8
0
 10
4307.8158619886962697
 20
155.2481746488498118
 30
0.0
 40
0.088863553654815
 50
53.0334463836912207
 51
126.9968178245077013
  0
ARC
  5
7382
  8
0
 10
4307.8158466353343101
 20
155.2612889259023063
 30
0.0
 40
0.0264467708704205
 50
53.5673926465389698
 51
126.4326024396383019
  0
ARC
  5
7383
  8
0
 10
4307.8158466376271463
 20
155.2817010361034988
 30
0.0
 40
0.027140492330754
 50
241.9031434379922985
 51
298.0968507100224087
  0
ARC
  5
7384
  8
0
 10
4307.8231626325614343
 20
155.2709794821224989
 30
0.0
 40
0.0143059757579295
 50
292.4632593730516987
 51
54.0925866903601715
  0
ARC
  5
7385
  8
0
 10
4307.8084488577969751
 20
155.270969844374406
 30
0.0
 40
0.0142660008963758
 50
125.6186686887676984
 51
247.8254866589066978
  0
ARC
  5
7386
  8
0
 10
4307.7827280174360567
 20
155.2973675745307958
 30
0.0
 40
0.0298015004300157
 50
133.0445327829008022
 51
202.8236383131317098
  0
ARC
  5
7387
  8
0
 10
4307.7870575502456632
 20
155.2970662128369099
 30
0.0
 40
0.0337319744883368
 50
199.4973929686703116
 51
249.3678035105849062
  0
ARC
  5
7388
  8
0
 10
4307.8497305353839693
 20
155.2976563500203042
 30
0.0
 40
0.0290866691053433
 50
343.6313832191660254
 51
47.7166563392677219
  0
ARC
  5
7389
  8
0
 10
4307.8401404875812659
 20
155.299106867433693
 30
0.0
 40
0.0387189945307875
 50
294.2786230381325936
 51
345.5716080277397282
  0
LINE
  5
738A
  8
0
 10
4308.1138116224819896
 20
155.3055551330726871
 30
0.0
 11
4308.1264890766806275
 21
155.346337282972712
 31
0.0
  0
LINE
  5
738B
  8
0
 10
4308.0329223753833503
 20
155.3072405770604121
 30
0.0
 11
4308.0207059557806133
 21
155.346337282972712
 31
0.0
  0
ARC
  5
738C
  8
0
 10
4308.0655651317965749
 20
155.3170156009113896
 30
0.0
 40
0.0340749268182839
 50
196.670571476717214
 51
251.6206832576075954
  0
ARC
  5
738D
  8
0
 10
4308.073551653920731
 20
155.3337216972875012
 30
0.0
 40
0.0524979622474823
 50
249.0970216637269914
 51
291.3689840103854749
  0
ARC
  5
738E
  8
0
 10
4308.0819886248973489
 20
155.3168707620826865
 30
0.0
 40
0.0337749409340208
 50
288.4551209644200185
 51
340.4256187685655846
  0
ARC
  5
738F
  8
0
 10
4308.0584217772538977
 20
155.3127969305446925
 30
0.0
 40
0.0260977500931332
 50
137.7134470536975925
 51
192.2926741820745065
  0
ARC
  5
7390
  8
0
 10
4308.0738641043290045
 20
155.2949469537780089
 30
0.0
 40
0.0496119006512895
 50
52.8030090089287825
 51
134.4606922279490107
  0
ARC
  5
7391
  8
0
 10
4308.0875823937976747
 20
155.3126931924952032
 30
0.0
 40
0.0271831626139409
 50
344.7761292064145096
 51
53.2221331890121476
  0
ARC
  5
7392
  8
0
 10
4308.0465006552440173
 20
155.354632548724112
 30
0.0
 40
0.0270957183748196
 50
166.6475781966603904
 51
197.8271676173716003
  0
ARC
  5
7393
  8
0
 10
4308.1005627123140584
 20
155.3546374895151985
 30
0.0
 40
0.0272225971928186
 50
342.247771216871115
 51
13.339430460829
  0
ARC
  5
7394
  8
0
 10
4308.0736128686312441
 20
155.2899174752498084
 30
0.0
 40
0.088863553654815
 50
53.0334463836912207
 51
126.9968178245077013
  0
ARC
  5
7395
  8
0
 10
4308.073597515270194
 20
155.3030317523023029
 30
0.0
 40
0.0264467708704205
 50
53.5673926465389698
 51
126.4326024396383019
  0
ARC
  5
7396
  8
0
 10
4308.0735975175612111
 20
155.3234438625034954
 30
0.0
 40
0.027140492330754
 50
241.9031434379922985
 51
298.0968507100224087
  0
ARC
  5
7397
  8
0
 10
4308.0809135124973182
 20
155.3127223085224955
 30
0.0
 40
0.0143059757579295
 50
292.4632593730516987
 51
54.0925866903601715
  0
ARC
  5
7398
  8
0
 10
4308.0661997377319494
 20
155.3127126707744026
 30
0.0
 40
0.0142660008963758
 50
125.6186686887676984
 51
247.8254866589066978
  0
ARC
  5
7399
  8
0
 10
4308.0404788973701216
 20
155.3391104009307924
 30
0.0
 40
0.0298015004300157
 50
133.0445327829008022
 51
202.8236383131317098
  0
ARC
  5
739A
  8
0
 10
4308.0448084301806375
 20
155.3388090392369065
 30
0.0
 40
0.0337319744883368
 50
199.4973929686703116
 51
249.3678035105849062
  0
ARC
  5
739B
  8
0
 10
4308.1074814153180341
 20
155.3393991764203008
 30
0.0
 40
0.0290866691053433
 50
343.6313832191660254
 51
47.7166563392677219
  0
ARC
  5
739C
  8
0
 10
4308.0978913675153308
 20
155.3408496938336896
 30
0.0
 40
0.0387189945307875
 50
294.2786230381325936
 51
345.5716080277397282
  0
LINE
  5
739D
  8
0
 10
4307.7240648474353293
 20
155.1851953920435108
 30
0.0
 11
4307.7367423016357861
 21
155.2259775419433936
 31
0.0
  0
LINE
  5
739E
  8
0
 10
4307.643175600334871
 20
155.1868808360312073
 30
0.0
 11
4307.630959180735772
 21
155.2259775419433936
 31
0.0
  0
ARC
  5
739F
  8
0
 10
4307.675818356750824
 20
155.1966558598820995
 30
0.0
 40
0.0340749268182839
 50
196.670571476717214
 51
251.6206832576075954
  0
ARC
  5
73A0
  8
0
 10
4307.6838048788758897
 20
155.2133619562582112
 30
0.0
 40
0.0524979622474823
 50
249.0970216637269914
 51
291.3689840103854749
  0
ARC
  5
73A1
  8
0
 10
4307.6922418498515981
 20
155.1965110210535101
 30
0.0
 40
0.0337749409340208
 50
288.4551209644200185
 51
340.4256187685655846
  0
ARC
  5
73A2
  8
0
 10
4307.6686750022090564
 20
155.1924371895154025
 30
0.0
 40
0.0260977500931332
 50
137.7134470536975925
 51
192.2926741820745065
  0
ARC
  5
73A3
  8
0
 10
4307.6841173292832536
 20
155.1745872127486905
 30
0.0
 40
0.0496119006512895
 50
52.8030090089287825
 51
134.4606922279490107
  0
ARC
  5
73A4
  8
0
 10
4307.6978356187510144
 20
155.1923334514659132
 30
0.0
 40
0.0271831626139409
 50
344.7761292064145096
 51
53.2221331890121476
  0
ARC
  5
73A5
  8
0
 10
4307.6567538801973569
 20
155.2342728076947935
 30
0.0
 40
0.0270957183748196
 50
166.6475781966603904
 51
197.8271676173716003
  0
ARC
  5
73A6
  8
0
 10
4307.7108159372692171
 20
155.2342777484859084
 30
0.0
 40
0.0272225971928186
 50
342.247771216871115
 51
13.339430460829
  0
ARC
  5
73A7
  8
0
 10
4307.6838660935864027
 20
155.1695577342204899
 30
0.0
 40
0.088863553654815
 50
53.0334463836912207
 51
126.9968178245077013
  0
ARC
  5
73A8
  8
0
 10
4307.6838507402244431
 20
155.1826720112730129
 30
0.0
 40
0.0264467708704205
 50
53.5673926465389698
 51
126.4326024396383019
  0
ARC
  5
73A9
  8
0
 10
4307.6838507425163698
 20
155.2030841214742054
 30
0.0
 40
0.027140492330754
 50
241.9031434379922985
 51
298.0968507100224087
  0
ARC
  5
73AA
  8
0
 10
4307.6911667374506578
 20
155.1923625674932055
 30
0.0
 40
0.0143059757579295
 50
292.4632593730516987
 51
54.0925866903601715
  0
ARC
  5
73AB
  8
0
 10
4307.6764529626861986
 20
155.1923529297451978
 30
0.0
 40
0.0142660008963758
 50
125.6186686887676984
 51
247.8254866589066978
  0
ARC
  5
73AC
  8
0
 10
4307.6507321223252802
 20
155.2187506599015023
 30
0.0
 40
0.0298015004300157
 50
133.0445327829008022
 51
202.8236383131317098
  0
ARC
  5
73AD
  8
0
 10
4307.6550616551348867
 20
155.2184492982075881
 30
0.0
 40
0.0337319744883368
 50
199.4973929686703116
 51
249.3678035105849062
  0
ARC
  5
73AE
  8
0
 10
4307.7177346402731928
 20
155.2190394353910108
 30
0.0
 40
0.0290866691053433
 50
343.6313832191660254
 51
47.7166563392677219
  0
ARC
  5
73AF
  8
0
 10
4307.7081445924695799
 20
155.2204899528043995
 30
0.0
 40
0.0387189945307875
 50
294.2786230381325936
 51
345.5716080277397282
  0
LINE
  5
73B0
  8
0
 10
4307.9880566385318161
 20
155.1851953914056992
 30
0.0
 11
4308.000734092732273
 21
155.2259775413056957
 31
0.0
  0
LINE
  5
73B1
  8
0
 10
4307.9071673914322673
 20
155.1868808353933957
 30
0.0
 11
4307.8949509718313493
 21
155.2259775413056957
 31
0.0
  0
ARC
  5
73B2
  8
0
 10
4307.9398101478473109
 20
155.1966558592444017
 30
0.0
 40
0.0340749268182839
 50
196.670571476717214
 51
251.6206832576075954
  0
ARC
  5
73B3
  8
0
 10
4307.9477966699705576
 20
155.2133619556205133
 30
0.0
 40
0.0524979622474823
 50
249.0970216637269914
 51
291.3689840103854749
  0
ARC
  5
73B4
  8
0
 10
4307.9562336409480849
 20
155.1965110204156986
 30
0.0
 40
0.0337749409340208
 50
288.4551209644200185
 51
340.4256187685655846
  0
ARC
  5
73B5
  8
0
 10
4307.9326667933046338
 20
155.1924371888777046
 30
0.0
 40
0.0260977500931332
 50
137.7134470536975925
 51
192.2926741820745065
  0
ARC
  5
73B6
  8
0
 10
4307.948109120378831
 20
155.1745872121109926
 30
0.0
 40
0.0496119006512895
 50
52.8030090089287825
 51
134.4606922279490107
  0
ARC
  5
73B7
  8
0
 10
4307.9618274098465918
 20
155.1923334508281869
 30
0.0
 40
0.0271831626139409
 50
344.7761292064145096
 51
53.2221331890121476
  0
ARC
  5
73B8
  8
0
 10
4307.9207456712929343
 20
155.2342728070570104
 30
0.0
 40
0.0270957183748196
 50
166.6475781966603904
 51
197.8271676173716003
  0
ARC
  5
73B9
  8
0
 10
4307.974807728363885
 20
155.2342777478482105
 30
0.0
 40
0.0272225971928186
 50
342.247771216871115
 51
13.339430460829
  0
ARC
  5
73BA
  8
0
 10
4307.9478578846810706
 20
155.1695577335827068
 30
0.0
 40
0.088863553654815
 50
53.0334463836912207
 51
126.9968178245077013
  0
ARC
  5
73BB
  8
0
 10
4307.947842531319111
 20
155.1826720106352866
 30
0.0
 40
0.0264467708704205
 50
53.5673926465389698
 51
126.4326024396383019
  0
ARC
  5
73BC
  8
0
 10
4307.9478425336119471
 20
155.2030841208363938
 30
0.0
 40
0.027140492330754
 50
241.9031434379922985
 51
298.0968507100224087
  0
ARC
  5
73BD
  8
0
 10
4307.9551585285462352
 20
155.1923625668555076
 30
0.0
 40
0.0143059757579295
 50
292.4632593730516987
 51
54.0925866903601715
  0
ARC
  5
73BE
  8
0
 10
4307.9404447537808664
 20
155.1923529291073862
 30
0.0
 40
0.0142660008963758
 50
125.6186686887676984
 51
247.8254866589066978
  0
ARC
  5
73BF
  8
0
 10
4307.9147239134208576
 20
155.2187506592638044
 30
0.0
 40
0.0298015004300157
 50
133.0445327829008022
 51
202.8236383131317098
  0
ARC
  5
73C0
  8
0
 10
4307.9190534462313735
 20
155.2184492975698902
 30
0.0
 40
0.0337319744883368
 50
199.4973929686703116
 51
249.3678035105849062
  0
ARC
  5
73C1
  8
0
 10
4307.9817264313687701
 20
155.2190394347531992
 30
0.0
 40
0.0290866691053433
 50
343.6313832191660254
 51
47.7166563392677219
  0
ARC
  5
73C2
  8
0
 10
4307.9721363835660668
 20
155.220489952166588
 30
0.0
 40
0.0387189945307875
 50
294.2786230381325936
 51
345.5716080277397282
  0
LINE
  5
73C3
  8
0
 10
4307.594255536192577
 20
155.1275197619779931
 30
0.0
 11
4307.6069329903930338
 21
155.1683019118779896
 31
0.0
  0
LINE
  5
73C4
  8
0
 10
4307.5133662890930282
 20
155.1292052059656896
 30
0.0
 11
4307.5011498694930197
 21
155.1683019118779896
 31
0.0
  0
ARC
  5
73C5
  8
0
 10
4307.5460090455080717
 20
155.1389802298166103
 30
0.0
 40
0.0340749268182839
 50
196.670571476717214
 51
251.6206832576075954
  0
ARC
  5
73C6
  8
0
 10
4307.5539955676331374
 20
155.1556863261928072
 30
0.0
 40
0.0524979622474823
 50
249.0970216637269914
 51
291.3689840103854749
  0
ARC
  5
73C7
  8
0
 10
4307.5624325386088458
 20
155.1388353909879925
 30
0.0
 40
0.0337749409340208
 50
288.4551209644200185
 51
340.4256187685655846
  0
ARC
  5
73C8
  8
0
 10
4307.5388656909672136
 20
155.1347615594499985
 30
0.0
 40
0.0260977500931332
 50
137.7134470536975925
 51
192.2926741820745065
  0
ARC
  5
73C9
  8
0
 10
4307.5543080180395918
 20
155.1169115826832865
 30
0.0
 40
0.0496119006512895
 50
52.8030090089287825
 51
134.4606922279490107
  0
ARC
  5
73CA
  8
0
 10
4307.5680263075082621
 20
155.1346578214003955
 30
0.0
 40
0.0271831626139409
 50
344.7761292064145096
 51
53.2221331890121476
  0
ARC
  5
73CB
  8
0
 10
4307.5269445689546046
 20
155.1765971776293043
 30
0.0
 40
0.0270957183748196
 50
166.6475781966603904
 51
197.8271676173716003
  0
ARC
  5
73CC
  8
0
 10
4307.5810066260255553
 20
155.1766021184205044
 30
0.0
 40
0.0272225971928186
 50
342.247771216871115
 51
13.339430460829
  0
ARC
  5
73CD
  8
0
 10
4307.5540567823418314
 20
155.1118821041550007
 30
0.0
 40
0.088863553654815
 50
53.0334463836912207
 51
126.9968178245077013
  0
ARC
  5
73CE
  8
0
 10
4307.5540414289807813
 20
155.1249963812074952
 30
0.0
 40
0.0264467708704205
 50
53.5673926465389698
 51
126.4326024396383019
  0
ARC
  5
73CF
  8
0
 10
4307.554041431272708
 20
155.1454084914086877
 30
0.0
 40
0.027140492330754
 50
241.9031434379922985
 51
298.0968507100224087
  0
ARC
  5
73D0
  8
0
 10
4307.5613574262079055
 20
155.1346869374278015
 30
0.0
 40
0.0143059757579295
 50
292.4632593730516987
 51
54.0925866903601715
  0
ARC
  5
73D1
  8
0
 10
4307.5466436514434463
 20
155.1346772996797085
 30
0.0
 40
0.0142660008963758
 50
125.6186686887676984
 51
247.8254866589066978
  0
ARC
  5
73D2
  8
0
 10
4307.5209228110816184
 20
155.1610750298360131
 30
0.0
 40
0.0298015004300157
 50
133.0445327829008022
 51
202.8236383131317098
  0
ARC
  5
73D3
  8
0
 10
4307.5252523438930439
 20
155.1607736681422125
 30
0.0
 40
0.0337319744883368
 50
199.4973929686703116
 51
249.3678035105849062
  0
ARC
  5
73D4
  8
0
 10
4307.5879253290304405
 20
155.1613638053254931
 30
0.0
 40
0.0290866691053433
 50
343.6313832191660254
 51
47.7166563392677219
  0
ARC
  5
73D5
  8
0
 10
4307.5783352812277371
 20
155.1628143227389103
 30
0.0
 40
0.0387189945307875
 50
294.2786230381325936
 51
345.5716080277397282
  0
LINE
  5
73D6
  8
0
 10
4307.8560607425461058
 20
155.0851230588727105
 30
0.0
 11
4307.8687381967465626
 21
155.1259052087727071
 31
0.0
  0
LINE
  5
73D7
  8
0
 10
4307.7751714954456475
 20
155.0868085028604924
 30
0.0
 11
4307.7629550758465484
 21
155.1259052087727071
 31
0.0
  0
ARC
  5
73D8
  8
0
 10
4307.8078142518616005
 20
155.096583526711413
 30
0.0
 40
0.0340749268182839
 50
196.670571476717214
 51
251.6206832576075954
  0
ARC
  5
73D9
  8
0
 10
4307.8158007739857567
 20
155.1132896230874962
 30
0.0
 40
0.0524979622474823
 50
249.0970216637269914
 51
291.3689840103854749
  0
ARC
  5
73DA
  8
0
 10
4307.8242377449632841
 20
155.0964386878827099
 30
0.0
 40
0.0337749409340208
 50
288.4551209644200185
 51
340.4256187685655846
  0
ARC
  5
73DB
  8
0
 10
4307.8006708973198329
 20
155.0923648563446875
 30
0.0
 40
0.0260977500931332
 50
137.7134470536975925
 51
192.2926741820745065
  0
ARC
  5
73DC
  8
0
 10
4307.8161132243940301
 20
155.074514879578004
 30
0.0
 40
0.0496119006512895
 50
52.8030090089287825
 51
134.4606922279490107
  0
ARC
  5
73DD
  8
0
 10
4307.8298315138617909
 20
155.0922611182951982
 30
0.0
 40
0.0271831626139409
 50
344.7761292064145096
 51
53.2221331890121476
  0
ARC
  5
73DE
  8
0
 10
4307.7887497753081334
 20
155.134200474524107
 30
0.0
 40
0.0270957183748196
 50
166.6475781966603904
 51
197.8271676173716003
  0
ARC
  5
73DF
  8
0
 10
4307.8428118323790841
 20
155.1342054153151935
 30
0.0
 40
0.0272225971928186
 50
342.247771216871115
 51
13.339430460829
  0
ARC
  5
73E0
  8
0
 10
4307.8158619886962697
 20
155.0694854010498034
 30
0.0
 40
0.088863553654815
 50
53.0334463836912207
 51
126.9968178245077013
  0
ARC
  5
73E1
  8
0
 10
4307.8158466353343101
 20
155.082599678102298
 30
0.0
 40
0.0264467708704205
 50
53.5673926465389698
 51
126.4326024396383019
  0
ARC
  5
73E2
  8
0
 10
4307.8158466376271463
 20
155.1030117883034904
 30
0.0
 40
0.027140492330754
 50
241.9031434379922985
 51
298.0968507100224087
  0
ARC
  5
73E3
  8
0
 10
4307.8231626325614343
 20
155.0922902343224905
 30
0.0
 40
0.0143059757579295
 50
292.4632593730516987
 51
54.0925866903601715
  0
ARC
  5
73E4
  8
0
 10
4307.8084488577969751
 20
155.0922805965743976
 30
0.0
 40
0.0142660008963758
 50
125.6186686887676984
 51
247.8254866589066978
  0
ARC
  5
73E5
  8
0
 10
4307.7827280174360567
 20
155.1186783267307874
 30
0.0
 40
0.0298015004300157
 50
133.0445327829008022
 51
202.8236383131317098
  0
ARC
  5
73E6
  8
0
 10
4307.7870575502456632
 20
155.1183769650369015
 30
0.0
 40
0.0337319744883368
 50
199.4973929686703116
 51
249.3678035105849062
  0
ARC
  5
73E7
  8
0
 10
4307.8497305353839693
 20
155.1189671022202106
 30
0.0
 40
0.0290866691053433
 50
343.6313832191660254
 51
47.7166563392677219
  0
ARC
  5
73E8
  8
0
 10
4307.8401404875812659
 20
155.120417619633713
 30
0.0
 40
0.0387189945307875
 50
294.2786230381325936
 51
345.5716080277397282
  0
LINE
  5
73E9
  8
0
 10
4308.11786595002377
 20
155.1275197613423131
 30
0.0
 11
4308.1305434042242268
 21
155.1683019112423096
 31
0.0
  0
LINE
  5
73EA
  8
0
 10
4308.0369767029251307
 20
155.1292052053300097
 30
0.0
 11
4308.0247602833251221
 21
155.1683019112423096
 31
0.0
  0
ARC
  5
73EB
  8
0
 10
4308.0696194593401742
 20
155.1389802291809019
 30
0.0
 40
0.0340749268182839
 50
196.670571476717214
 51
251.6206832576075954
  0
ARC
  5
73EC
  8
0
 10
4308.0776059814643304
 20
155.1556863255570136
 30
0.0
 40
0.0524979622474823
 50
249.0970216637269914
 51
291.3689840103854749
  0
ARC
  5
73ED
  8
0
 10
4308.0860429524409483
 20
155.1388353903523125
 30
0.0
 40
0.0337749409340208
 50
288.4551209644200185
 51
340.4256187685655846
  0
ARC
  5
73EE
  8
0
 10
4308.0624761047984066
 20
155.1347615588142048
 30
0.0
 40
0.0260977500931332
 50
137.7134470536975925
 51
192.2926741820745065
  0
ARC
  5
73EF
  8
0
 10
4308.0779184318716943
 20
155.1169115820476065
 30
0.0
 40
0.0496119006512895
 50
52.8030090089287825
 51
134.4606922279490107
  0
ARC
  5
73F0
  8
0
 10
4308.0916367213403646
 20
155.1346578207646871
 30
0.0
 40
0.0271831626139409
 50
344.7761292064145096
 51
53.2221331890121476
  0
ARC
  5
73F1
  8
0
 10
4308.0505549827867071
 20
155.1765971769935959
 30
0.0
 40
0.0270957183748196
 50
166.6475781966603904
 51
197.8271676173716003
  0
ARC
  5
73F2
  8
0
 10
4308.1046170398576578
 20
155.1766021177847108
 30
0.0
 40
0.0272225971928186
 50
342.247771216871115
 51
13.339430460829
  0
ARC
  5
73F3
  8
0
 10
4308.0776671961748434
 20
155.1118821035192923
 30
0.0
 40
0.088863553654815
 50
53.0334463836912207
 51
126.9968178245077013
  0
ARC
  5
73F4
  8
0
 10
4308.0776518428128838
 20
155.1249963805717869
 30
0.0
 40
0.0264467708704205
 50
53.5673926465389698
 51
126.4326024396383019
  0
ARC
  5
73F5
  8
0
 10
4308.0776518451048105
 20
155.1454084907730078
 30
0.0
 40
0.027140492330754
 50
241.9031434379922985
 51
298.0968507100224087
  0
ARC
  5
73F6
  8
0
 10
4308.084967840040008
 20
155.1346869367920078
 30
0.0
 40
0.0143059757579295
 50
292.4632593730516987
 51
54.0925866903601715
  0
ARC
  5
73F7
  8
0
 10
4308.0702540652755488
 20
155.1346772990440002
 30
0.0
 40
0.0142660008963758
 50
125.6186686887676984
 51
247.8254866589066978
  0
ARC
  5
73F8
  8
0
 10
4308.0445332249137209
 20
155.1610750292003047
 30
0.0
 40
0.0298015004300157
 50
133.0445327829008022
 51
202.8236383131317098
  0
ARC
  5
73F9
  8
0
 10
4308.0488627577251464
 20
155.1607736675063904
 30
0.0
 40
0.0337319744883368
 50
199.4973929686703116
 51
249.3678035105849062
  0
ARC
  5
73FA
  8
0
 10
4308.1115357428616335
 20
155.1613638046898132
 30
0.0
 40
0.0290866691053433
 50
343.6313832191660254
 51
47.7166563392677219
  0
ARC
  5
73FB
  8
0
 10
4308.1019456950589301
 20
155.1628143221032019
 30
0.0
 40
0.0387189945307875
 50
294.2786230381325936
 51
345.5716080277397282
  0
LINE
  5
73FC
  8
0
 10
4307.723205061733097
 20
155.0068072499612128
 30
0.0
 11
4307.7358825159308253
 21
155.0475893998612094
 31
0.0
  0
LINE
  5
73FD
  8
0
 10
4307.6423158146317292
 20
155.0084926939489094
 30
0.0
 11
4307.6300993950317206
 21
155.0475893998612094
 31
0.0
  0
ARC
  5
73FE
  8
0
 10
4307.6749585710467727
 20
155.0182677177998016
 30
0.0
 40
0.0340749268182839
 50
196.670571476717214
 51
251.6206832576075954
  0
ARC
  5
73FF
  8
0
 10
4307.6829450931718384
 20
155.0349738141759133
 30
0.0
 40
0.0524979622474823
 50
249.0970216637269914
 51
291.3689840103854749
  0
ARC
  5
7400
  8
0
 10
4307.6913820641475468
 20
155.0181228789712122
 30
0.0
 40
0.0337749409340208
 50
288.4551209644200185
 51
340.4256187685655846
  0
ARC
  5
7401
  8
0
 10
4307.6678152165050051
 20
155.0140490474331898
 30
0.0
 40
0.0260977500931332
 50
137.7134470536975925
 51
192.2926741820745065
  0
ARC
  5
7402
  8
0
 10
4307.6832575435801118
 20
154.9961990706665063
 30
0.0
 40
0.0496119006512895
 50
52.8030090089287825
 51
134.4606922279490107
  0
ARC
  5
7403
  8
0
 10
4307.6969758330478726
 20
155.0139453093835868
 30
0.0
 40
0.0271831626139409
 50
344.7761292064145096
 51
53.2221331890121476
  0
ARC
  5
7404
  8
0
 10
4307.6558940944942151
 20
155.0558846656124956
 30
0.0
 40
0.0270957183748196
 50
166.6475781966603904
 51
197.8271676173716003
  0
ARC
  5
7405
  8
0
 10
4307.7099561515651658
 20
155.0558896064036958
 30
0.0
 40
0.0272225971928186
 50
342.247771216871115
 51
13.339430460829
  0
ARC
  5
7406
  8
0
 10
4307.6830063078823514
 20
154.991169592138192
 30
0.0
 40
0.088863553654815
 50
53.0334463836912207
 51
126.9968178245077013
  0
ARC
  5
7407
  8
0
 10
4307.6829909545203918
 20
155.0042838691908003
 30
0.0
 40
0.0264467708704205
 50
53.5673926465389698
 51
126.4326024396383019
  0
ARC
  5
7408
  8
0
 10
4307.6829909568123185
 20
155.0246959793919075
 30
0.0
 40
0.027140492330754
 50
241.9031434379922985
 51
298.0968507100224087
  0
ARC
  5
7409
  8
0
 10
4307.690306951745697
 20
155.0139744254109075
 30
0.0
 40
0.0143059757579295
 50
292.4632593730516987
 51
54.0925866903601715
  0
ARC
  5
740A
  8
0
 10
4307.6755931769821473
 20
155.0139647876628999
 30
0.0
 40
0.0142660008963758
 50
125.6186686887676984
 51
247.8254866589066978
  0
ARC
  5
740B
  8
0
 10
4307.6498723366212289
 20
155.0403625178192044
 30
0.0
 40
0.0298015004300157
 50
133.0445327829008022
 51
202.8236383131317098
  0
ARC
  5
740C
  8
0
 10
4307.6542018694308354
 20
155.0400611561254038
 30
0.0
 40
0.0337319744883368
 50
199.4973929686703116
 51
249.3678035105849062
  0
ARC
  5
740D
  8
0
 10
4307.7168748545691415
 20
155.0406512933087129
 30
0.0
 40
0.0290866691053433
 50
343.6313832191660254
 51
47.7166563392677219
  0
ARC
  5
740E
  8
0
 10
4307.7072848067664381
 20
155.0421018107221016
 30
0.0
 40
0.0387189945307875
 50
294.2786230381325936
 51
345.5716080277397282
  0
LINE
  5
740F
  8
0
 10
4307.9851464008461335
 20
155.0065003129386128
 30
0.0
 11
4307.9978238550447713
 21
155.0472824628386093
 31
0.0
  0
LINE
  5
7410
  8
0
 10
4307.9042571537456752
 20
155.0081857569263093
 30
0.0
 11
4307.8920407341447572
 21
155.0472824628386093
 31
0.0
  0
ARC
  5
7411
  8
0
 10
4307.9368999101616282
 20
155.0179607807772015
 30
0.0
 40
0.0340749268182839
 50
196.670571476717214
 51
251.6206832576075954
  0
ARC
  5
7412
  8
0
 10
4307.9448864322848749
 20
155.0346668771533132
 30
0.0
 40
0.0524979622474823
 50
249.0970216637269914
 51
291.3689840103854749
  0
ARC
  5
7413
  8
0
 10
4307.9533234032624023
 20
155.0178159419486121
 30
0.0
 40
0.0337749409340208
 50
288.4551209644200185
 51
340.4256187685655846
  0
ARC
  5
7414
  8
0
 10
4307.9297565556180416
 20
155.0137421104105044
 30
0.0
 40
0.0260977500931332
 50
137.7134470536975925
 51
192.2926741820745065
  0
ARC
  5
7415
  8
0
 10
4307.9451988826940578
 20
154.9958921336439062
 30
0.0
 40
0.0496119006512895
 50
52.8030090089287825
 51
134.4606922279490107
  0
ARC
  5
7416
  8
0
 10
4307.9589171721618186
 20
155.0136383723609868
 30
0.0
 40
0.0271831626139409
 50
344.7761292064145096
 51
53.2221331890121476
  0
ARC
  5
7417
  8
0
 10
4307.9178354336081611
 20
155.0555777285898955
 30
0.0
 40
0.0270957183748196
 50
166.6475781966603904
 51
197.8271676173716003
  0
ARC
  5
7418
  8
0
 10
4307.9718974906791118
 20
155.0555826693810104
 30
0.0
 40
0.0272225971928186
 50
342.247771216871115
 51
13.339430460829
  0
ARC
  5
7419
  8
0
 10
4307.9449476469953879
 20
154.9908626551155919
 30
0.0
 40
0.088863553654815
 50
53.0334463836912207
 51
126.9968178245077013
  0
ARC
  5
741A
  8
0
 10
4307.9449322936343378
 20
155.0039769321680865
 30
0.0
 40
0.0264467708704205
 50
53.5673926465389698
 51
126.4326024396383019
  0
ARC
  5
741B
  8
0
 10
4307.9449322959262645
 20
155.0243890423693074
 30
0.0
 40
0.027140492330754
 50
241.9031434379922985
 51
298.0968507100224087
  0
ARC
  5
741C
  8
0
 10
4307.952248290859643
 20
155.0136674883883074
 30
0.0
 40
0.0143059757579295
 50
292.4632593730516987
 51
54.0925866903601715
  0
ARC
  5
741D
  8
0
 10
4307.9375345160960933
 20
155.0136578506401861
 30
0.0
 40
0.0142660008963758
 50
125.6186686887676984
 51
247.8254866589066978
  0
ARC
  5
741E
  8
0
 10
4307.9118136757351749
 20
155.0400555807966043
 30
0.0
 40
0.0298015004300157
 50
133.0445327829008022
 51
202.8236383131317098
  0
ARC
  5
741F
  8
0
 10
4307.9161432085447814
 20
155.0397542191028037
 30
0.0
 40
0.0337319744883368
 50
199.4973929686703116
 51
249.3678035105849062
  0
ARC
  5
7420
  8
0
 10
4307.9788161936830875
 20
155.0403443562861128
 30
0.0
 40
0.0290866691053433
 50
343.6313832191660254
 51
47.7166563392677219
  0
ARC
  5
7421
  8
0
 10
4307.9692261458803841
 20
155.0417948736995015
 30
0.0
 40
0.0387189945307875
 50
294.2786230381325936
 51
345.5716080277397282
  0
LINE
  5
7422
  8
0
 10
4307.5959074400143436
 20
154.9485423483727118
 30
0.0
 11
4307.6085848942138909
 21
154.9893244982727083
 31
0.0
  0
LINE
  5
7423
  8
0
 10
4307.5150181929147948
 20
154.9502277923604083
 30
0.0
 11
4307.5028017733138768
 21
154.9893244982727083
 31
0.0
  0
ARC
  5
7424
  8
0
 10
4307.5476609493307478
 20
154.9600028162113858
 30
0.0
 40
0.0340749268182839
 50
196.670571476717214
 51
251.6206832576075954
  0
ARC
  5
7425
  8
0
 10
4307.5556474714539945
 20
154.9767089125874975
 30
0.0
 40
0.0524979622474823
 50
249.0970216637269914
 51
291.3689840103854749
  0
ARC
  5
7426
  8
0
 10
4307.5640844424306124
 20
154.9598579773827112
 30
0.0
 40
0.0337749409340208
 50
288.4551209644200185
 51
340.4256187685655846
  0
ARC
  5
7427
  8
0
 10
4307.5405175947871612
 20
154.9557841458446887
 30
0.0
 40
0.0260977500931332
 50
137.7134470536975925
 51
192.2926741820745065
  0
ARC
  5
7428
  8
0
 10
4307.5559599218622679
 20
154.9379341690780052
 30
0.0
 40
0.0496119006512895
 50
52.8030090089287825
 51
134.4606922279490107
  0
ARC
  5
7429
  8
0
 10
4307.5696782113300287
 20
154.9556804077951995
 30
0.0
 40
0.0271831626139409
 50
344.7761292064145096
 51
53.2221331890121476
  0
ARC
  5
742A
  8
0
 10
4307.5285964727772807
 20
154.9976197640241082
 30
0.0
 40
0.0270957183748196
 50
166.6475781966603904
 51
197.8271676173716003
  0
ARC
  5
742B
  8
0
 10
4307.5826585298482314
 20
154.9976247048151947
 30
0.0
 40
0.0272225971928186
 50
342.247771216871115
 51
13.339430460829
  0
ARC
  5
742C
  8
0
 10
4307.555708686163598
 20
154.9329046905498046
 30
0.0
 40
0.088863553654815
 50
53.0334463836912207
 51
126.9968178245077013
  0
ARC
  5
742D
  8
0
 10
4307.5556933328043669
 20
154.9460189676022992
 30
0.0
 40
0.0264467708704205
 50
53.5673926465389698
 51
126.4326024396383019
  0
ARC
  5
742E
  8
0
 10
4307.5556933350953841
 20
154.9664310778034917
 30
0.0
 40
0.027140492330754
 50
241.9031434379922985
 51
298.0968507100224087
  0
ARC
  5
742F
  8
0
 10
4307.5630093300296721
 20
154.9557095238224917
 30
0.0
 40
0.0143059757579295
 50
292.4632593730516987
 51
54.0925866903601715
  0
ARC
  5
7430
  8
0
 10
4307.5482955552652129
 20
154.9556998860743988
 30
0.0
 40
0.0142660008963758
 50
125.6186686887676984
 51
247.8254866589066978
  0
ARC
  5
7431
  8
0
 10
4307.5225747149042945
 20
154.9820976162307886
 30
0.0
 40
0.0298015004300157
 50
133.0445327829008022
 51
202.8236383131317098
  0
ARC
  5
7432
  8
0
 10
4307.5269042477148105
 20
154.9817962545369028
 30
0.0
 40
0.0337319744883368
 50
199.4973929686703116
 51
249.3678035105849062
  0
ARC
  5
7433
  8
0
 10
4307.5895772328522071
 20
154.9823863917202118
 30
0.0
 40
0.0290866691053433
 50
343.6313832191660254
 51
47.7166563392677219
  0
ARC
  5
7434
  8
0
 10
4307.5799871850485943
 20
154.9838369091336858
 30
0.0
 40
0.0387189945307875
 50
294.2786230381325936
 51
345.5716080277397282
  0
LINE
  5
7435
  8
0
 10
4307.8560607425461058
 20
154.9064423989727004
 30
0.0
 11
4307.8687381967465626
 21
154.9472245488726969
 31
0.0
  0
LINE
  5
7436
  8
0
 10
4307.7751714954456475
 20
154.9081278429605106
 30
0.0
 11
4307.7629550758465484
 21
154.9472245488726969
 31
0.0
  0
ARC
  5
7437
  8
0
 10
4307.8078142518616005
 20
154.9179028668114029
 30
0.0
 40
0.0340749268182839
 50
196.670571476717214
 51
251.6206832576075954
  0
ARC
  5
7438
  8
0
 10
4307.8158007739857567
 20
154.9346089631874861
 30
0.0
 40
0.0524979622474823
 50
249.0970216637269914
 51
291.3689840103854749
  0
ARC
  5
7439
  8
0
 10
4307.8242377449632841
 20
154.9177580279826998
 30
0.0
 40
0.0337749409340208
 50
288.4551209644200185
 51
340.4256187685655846
  0
ARC
  5
743A
  8
0
 10
4307.8006708973198329
 20
154.9136841964447058
 30
0.0
 40
0.0260977500931332
 50
137.7134470536975925
 51
192.2926741820745065
  0
ARC
  5
743B
  8
0
 10
4307.8161132243940301
 20
154.8958342196779938
 30
0.0
 40
0.0496119006512895
 50
52.8030090089287825
 51
134.4606922279490107
  0
ARC
  5
743C
  8
0
 10
4307.8298315138617909
 20
154.9135804583951881
 30
0.0
 40
0.0271831626139409
 50
344.7761292064145096
 51
53.2221331890121476
  0
ARC
  5
743D
  8
0
 10
4307.7887497753081334
 20
154.9555198146240116
 30
0.0
 40
0.0270957183748196
 50
166.6475781966603904
 51
197.8271676173716003
  0
ARC
  5
743E
  8
0
 10
4307.8428118323790841
 20
154.9555247554152118
 30
0.0
 40
0.0272225971928186
 50
342.247771216871115
 51
13.339430460829
  0
ARC
  5
743F
  8
0
 10
4307.8158619886962697
 20
154.890804741149708
 30
0.0
 40
0.088863553654815
 50
53.0334463836912207
 51
126.9968178245077013
  0
ARC
  5
7440
  8
0
 10
4307.8158466353343101
 20
154.9039190182022878
 30
0.0
 40
0.0264467708704205
 50
53.5673926465389698
 51
126.4326024396383019
  0
ARC
  5
7441
  8
0
 10
4307.8158466376271463
 20
154.9243311284035087
 30
0.0
 40
0.027140492330754
 50
241.9031434379922985
 51
298.0968507100224087
  0
ARC
  5
7442
  8
0
 10
4307.8231626325614343
 20
154.9136095744225088
 30
0.0
 40
0.0143059757579295
 50
292.4632593730516987
 51
54.0925866903601715
  0
ARC
  5
7443
  8
0
 10
4307.8084488577969751
 20
154.9135999366743874
 30
0.0
 40
0.0142660008963758
 50
125.6186686887676984
 51
247.8254866589066978
  0
ARC
  5
7444
  8
0
 10
4307.7827280174360567
 20
154.9399976668308057
 30
0.0
 40
0.0298015004300157
 50
133.0445327829008022
 51
202.8236383131317098
  0
ARC
  5
7445
  8
0
 10
4307.7870575502456632
 20
154.9396963051368914
 30
0.0
 40
0.0337319744883368
 50
199.4973929686703116
 51
249.3678035105849062
  0
ARC
  5
7446
  8
0
 10
4307.8497305353839693
 20
154.9402864423203141
 30
0.0
 40
0.0290866691053433
 50
343.6313832191660254
 51
47.7166563392677219
  0
ARC
  5
7447
  8
0
 10
4307.8401404875812659
 20
154.9417369597335892
 30
0.0
 40
0.0387189945307875
 50
294.2786230381325936
 51
345.5716080277397282
  0
LINE
  5
7448
  8
0
 10
4308.1162879728635744
 20
154.9485548828309049
 30
0.0
 11
4308.1289654270640312
 21
154.9893370327309015
 31
0.0
  0
LINE
  5
7449
  8
0
 10
4308.0353987257649351
 20
154.9502403268186868
 30
0.0
 11
4308.0231823061640171
 21
154.9893370327309015
 31
0.0
  0
ARC
  5
744A
  8
0
 10
4308.0680414821790691
 20
154.9600153506696074
 30
0.0
 40
0.0340749268182839
 50
196.670571476717214
 51
251.6206832576075954
  0
ARC
  5
744B
  8
0
 10
4308.0760280043041348
 20
154.9767214470456906
 30
0.0
 40
0.0524979622474823
 50
249.0970216637269914
 51
291.3689840103854749
  0
ARC
  5
744C
  8
0
 10
4308.0844649752798432
 20
154.9598705118409043
 30
0.0
 40
0.0337749409340208
 50
288.4551209644200185
 51
340.4256187685655846
  0
ARC
  5
744D
  8
0
 10
4308.060898127638211
 20
154.9557966803029103
 30
0.0
 40
0.0260977500931332
 50
137.7134470536975925
 51
192.2926741820745065
  0
ARC
  5
744E
  8
0
 10
4308.0763404547133177
 20
154.9379467035361984
 30
0.0
 40
0.0496119006512895
 50
52.8030090089287825
 51
134.4606922279490107
  0
ARC
  5
744F
  8
0
 10
4308.090058744180169
 20
154.9556929422533926
 30
0.0
 40
0.0271831626139409
 50
344.7761292064145096
 51
53.2221331890121476
  0
ARC
  5
7450
  8
0
 10
4308.048977005625602
 20
154.9976322984823014
 30
0.0
 40
0.0270957183748196
 50
166.6475781966603904
 51
197.8271676173716003
  0
ARC
  5
7451
  8
0
 10
4308.1030390626965527
 20
154.9976372392733879
 30
0.0
 40
0.0272225971928186
 50
342.247771216871115
 51
13.339430460829
  0
ARC
  5
7452
  8
0
 10
4308.0760892190128288
 20
154.9329172250079978
 30
0.0
 40
0.088863553654815
 50
53.0334463836912207
 51
126.9968178245077013
  0
ARC
  5
7453
  8
0
 10
4308.0760738656517788
 20
154.9460315020604924
 30
0.0
 40
0.0264467708704205
 50
53.5673926465389698
 51
126.4326024396383019
  0
ARC
  5
7454
  8
0
 10
4308.0760738679437054
 20
154.9664436122617133
 30
0.0
 40
0.027140492330754
 50
241.9031434379922985
 51
298.0968507100224087
  0
ARC
  5
7455
  8
0
 10
4308.0833898628779934
 20
154.9557220582807133
 30
0.0
 40
0.0143059757579295
 50
292.4632593730516987
 51
54.0925866903601715
  0
ARC
  5
7456
  8
0
 10
4308.0686760881144437
 20
154.955712420532592
 30
0.0
 40
0.0142660008963758
 50
125.6186686887676984
 51
247.8254866589066978
  0
ARC
  5
7457
  8
0
 10
4308.0429552477526158
 20
154.9821101506890102
 30
0.0
 40
0.0298015004300157
 50
133.0445327829008022
 51
202.8236383131317098
  0
ARC
  5
7458
  8
0
 10
4308.0472847805640413
 20
154.9818087889950959
 30
0.0
 40
0.0337319744883368
 50
199.4973929686703116
 51
249.3678035105849062
  0
ARC
  5
7459
  8
0
 10
4308.1099577657014379
 20
154.9823989261784902
 30
0.0
 40
0.0290866691053433
 50
343.6313832191660254
 51
47.7166563392677219
  0
ARC
  5
745A
  8
0
 10
4308.1003677178987346
 20
154.9838494435919074
 30
0.0
 40
0.0387189945307875
 50
294.2786230381325936
 51
345.5716080277397282
  0
LINE
  5
745B
  8
0
 10
4307.7155701310775839
 20
154.8296888369891917
 30
0.0
 11
4307.7282475852762218
 21
154.8704709868891882
 31
0.0
  0
LINE
  5
745C
  8
0
 10
4307.6346808839771256
 20
154.8313742809770019
 30
0.0
 11
4307.6224644643771171
 21
154.8704709868891882
 31
0.0
  0
ARC
  5
745D
  8
0
 10
4307.6673236403930787
 20
154.8411493048278942
 30
0.0
 40
0.0340749268182839
 50
196.670571476717214
 51
251.6206832576075954
  0
ARC
  5
745E
  8
0
 10
4307.6753101625172349
 20
154.8578554012040058
 30
0.0
 40
0.0524979622474823
 50
249.0970216637269914
 51
291.3689840103854749
  0
ARC
  5
745F
  8
0
 10
4307.6837471334938527
 20
154.8410044659993048
 30
0.0
 40
0.0337749409340208
 50
288.4551209644200185
 51
340.4256187685655846
  0
ARC
  5
7460
  8
0
 10
4307.6601802858504016
 20
154.8369306344611971
 30
0.0
 40
0.0260977500931332
 50
137.7134470536975925
 51
192.2926741820745065
  0
ARC
  5
7461
  8
0
 10
4307.6756226129245988
 20
154.8190806576945135
 30
0.0
 40
0.0496119006512895
 50
52.8030090089287825
 51
134.4606922279490107
  0
ARC
  5
7462
  8
0
 10
4307.6893409023932691
 20
154.8368268964117078
 30
0.0
 40
0.0271831626139409
 50
344.7761292064145096
 51
53.2221331890121476
  0
ARC
  5
7463
  8
0
 10
4307.6482591638396116
 20
154.8787662526405882
 30
0.0
 40
0.0270957183748196
 50
166.6475781966603904
 51
197.8271676173716003
  0
ARC
  5
7464
  8
0
 10
4307.7023212209105623
 20
154.8787711934317031
 30
0.0
 40
0.0272225971928186
 50
342.247771216871115
 51
13.339430460829
  0
ARC
  5
7465
  8
0
 10
4307.6753713772268384
 20
154.814051179166313
 30
0.0
 40
0.088863553654815
 50
53.0334463836912207
 51
126.9968178245077013
  0
ARC
  5
7466
  8
0
 10
4307.6753560238657883
 20
154.8271654562188075
 30
0.0
 40
0.0264467708704205
 50
53.5673926465389698
 51
126.4326024396383019
  0
ARC
  5
7467
  8
0
 10
4307.675356026157715
 20
154.84757756642
 30
0.0
 40
0.027140492330754
 50
241.9031434379922985
 51
298.0968507100224087
  0
ARC
  5
7468
  8
0
 10
4307.682672021092003
 20
154.8368560124390001
 30
0.0
 40
0.0143059757579295
 50
292.4632593730516987
 51
54.0925866903601715
  0
ARC
  5
7469
  8
0
 10
4307.6679582463266343
 20
154.8368463746909072
 30
0.0
 40
0.0142660008963758
 50
125.6186686887676984
 51
247.8254866589066978
  0
ARC
  5
746A
  8
0
 10
4307.6422374059666254
 20
154.863244104847297
 30
0.0
 40
0.0298015004300157
 50
133.0445327829008022
 51
202.8236383131317098
  0
ARC
  5
746B
  8
0
 10
4307.6465669387771413
 20
154.8629427431534111
 30
0.0
 40
0.0337319744883368
 50
199.4973929686703116
 51
249.3678035105849062
  0
ARC
  5
746C
  8
0
 10
4307.7092399239154474
 20
154.8635328803368054
 30
0.0
 40
0.0290866691053433
 50
343.6313832191660254
 51
47.7166563392677219
  0
ARC
  5
746D
  8
0
 10
4307.6996498761118346
 20
154.8649833977501942
 30
0.0
 40
0.0387189945307875
 50
294.2786230381325936
 51
345.5716080277397282
  0
LINE
  5
746E
  8
0
 10
4307.9824950005677238
 20
154.827949014759696
 30
0.0
 11
4307.9951724547672711
 21
154.8687311646596925
 31
0.0
  0
LINE
  5
746F
  8
0
 10
4307.901605753468175
 20
154.8296344587473925
 30
0.0
 11
4307.8893893338672569
 21
154.8687311646596925
 31
0.0
  0
ARC
  5
7470
  8
0
 10
4307.9342485098832185
 20
154.8394094825983132
 30
0.0
 40
0.0340749268182839
 50
196.670571476717214
 51
251.6206832576075954
  0
ARC
  5
7471
  8
0
 10
4307.9422350320073747
 20
154.8561155789743964
 30
0.0
 40
0.0524979622474823
 50
249.0970216637269914
 51
291.3689840103854749
  0
ARC
  5
7472
  8
0
 10
4307.9506720029830831
 20
154.8392646437696953
 30
0.0
 40
0.0337749409340208
 50
288.4551209644200185
 51
340.4256187685655846
  0
ARC
  5
7473
  8
0
 10
4307.9271051553414509
 20
154.8351908122315876
 30
0.0
 40
0.0260977500931332
 50
137.7134470536975925
 51
192.2926741820745065
  0
ARC
  5
7474
  8
0
 10
4307.9425474824147386
 20
154.8173408354649041
 30
0.0
 40
0.0496119006512895
 50
52.8030090089287825
 51
134.4606922279490107
  0
ARC
  5
7475
  8
0
 10
4307.9562657718834089
 20
154.8350870741820984
 30
0.0
 40
0.0271831626139409
 50
344.7761292064145096
 51
53.2221331890121476
  0
ARC
  5
7476
  8
0
 10
4307.9151840333306609
 20
154.8770264304110071
 30
0.0
 40
0.0270957183748196
 50
166.6475781966603904
 51
197.8271676173716003
  0
ARC
  5
7477
  8
0
 10
4307.9692460903997926
 20
154.8770313712022073
 30
0.0
 40
0.0272225971928186
 50
342.247771216871115
 51
13.339430460829
  0
ARC
  5
7478
  8
0
 10
4307.9422962467169782
 20
154.8123113569367035
 30
0.0
 40
0.088863553654815
 50
53.0334463836912207
 51
126.9968178245077013
  0
ARC
  5
7479
  8
0
 10
4307.9422808933559281
 20
154.8254256339891981
 30
0.0
 40
0.0264467708704205
 50
53.5673926465389698
 51
126.4326024396383019
  0
ARC
  5
747A
  8
0
 10
4307.9422808956478548
 20
154.8458377441903906
 30
0.0
 40
0.027140492330754
 50
241.9031434379922985
 51
298.0968507100224087
  0
ARC
  5
747B
  8
0
 10
4307.9495968905821428
 20
154.8351161902095043
 30
0.0
 40
0.0143059757579295
 50
292.4632593730516987
 51
54.0925866903601715
  0
ARC
  5
747C
  8
0
 10
4307.9348831158176836
 20
154.8351065524612977
 30
0.0
 40
0.0142660008963758
 50
125.6186686887676984
 51
247.8254866589066978
  0
ARC
  5
747D
  8
0
 10
4307.9091622754558557
 20
154.8615042826178012
 30
0.0
 40
0.0298015004300157
 50
133.0445327829008022
 51
202.8236383131317098
  0
ARC
  5
747E
  8
0
 10
4307.9134918082672812
 20
154.8612029209238869
 30
0.0
 40
0.0337319744883368
 50
199.4973929686703116
 51
249.3678035105849062
  0
ARC
  5
747F
  8
0
 10
4307.9761647934046778
 20
154.861793058107196
 30
0.0
 40
0.0290866691053433
 50
343.6313832191660254
 51
47.7166563392677219
  0
ARC
  5
7480
  8
0
 10
4307.9665747456010649
 20
154.8632435755206131
 30
0.0
 40
0.0387189945307875
 50
294.2786230381325936
 51
345.5716080277397282
  0
LINE
  5
7481
  8
0
 10
4307.8560607425461058
 20
154.7277701647726929
 30
0.0
 11
4307.8687381967465626
 21
154.7685523146726894
 31
0.0
  0
LINE
  5
7482
  8
0
 10
4307.7751714954456475
 20
154.7294556087605031
 30
0.0
 11
4307.7629550758465484
 21
154.7685523146726894
 31
0.0
  0
ARC
  5
7483
  8
0
 10
4307.8078142518616005
 20
154.7392306326113953
 30
0.0
 40
0.0340749268182839
 50
196.670571476717214
 51
251.6206832576075954
  0
ARC
  5
7484
  8
0
 10
4307.8158007739857567
 20
154.755936728987507
 30
0.0
 40
0.0524979622474823
 50
249.0970216637269914
 51
291.3689840103854749
  0
ARC
  5
7485
  8
0
 10
4307.8242377449632841
 20
154.7390857937826922
 30
0.0
 40
0.0337749409340208
 50
288.4551209644200185
 51
340.4256187685655846
  0
ARC
  5
7486
  8
0
 10
4307.8006708973198329
 20
154.7350119622446982
 30
0.0
 40
0.0260977500931332
 50
137.7134470536975925
 51
192.2926741820745065
  0
ARC
  5
7487
  8
0
 10
4307.8161132243940301
 20
154.7171619854779863
 30
0.0
 40
0.0496119006512895
 50
52.8030090089287825
 51
134.4606922279490107
  0
ARC
  5
7488
  8
0
 10
4307.8298315138617909
 20
154.734908224195209
 30
0.0
 40
0.0271831626139409
 50
344.7761292064145096
 51
53.2221331890121476
  0
ARC
  5
7489
  8
0
 10
4307.7887497753081334
 20
154.7768475804240893
 30
0.0
 40
0.0270957183748196
 50
166.6475781966603904
 51
197.8271676173716003
  0
ARC
  5
748A
  8
0
 10
4307.8428118323790841
 20
154.7768525212152042
 30
0.0
 40
0.0272225971928186
 50
342.247771216871115
 51
13.339430460829
  0
ARC
  5
748B
  8
0
 10
4307.8158619886962697
 20
154.7121325069498141
 30
0.0
 40
0.088863553654815
 50
53.0334463836912207
 51
126.9968178245077013
  0
ARC
  5
748C
  8
0
 10
4307.8158466353343101
 20
154.7252467840023087
 30
0.0
 40
0.0264467708704205
 50
53.5673926465389698
 51
126.4326024396383019
  0
ARC
  5
748D
  8
0
 10
4307.8158466376271463
 20
154.7456588942035012
 30
0.0
 40
0.027140492330754
 50
241.9031434379922985
 51
298.0968507100224087
  0
ARC
  5
748E
  8
0
 10
4307.8231626325614343
 20
154.7349373402225012
 30
0.0
 40
0.0143059757579295
 50
292.4632593730516987
 51
54.0925866903601715
  0
ARC
  5
748F
  8
0
 10
4307.8084488577969751
 20
154.7349277024744083
 30
0.0
 40
0.0142660008963758
 50
125.6186686887676984
 51
247.8254866589066978
  0
ARC
  5
7490
  8
0
 10
4307.7827280174360567
 20
154.7613254326307981
 30
0.0
 40
0.0298015004300157
 50
133.0445327829008022
 51
202.8236383131317098
  0
ARC
  5
7491
  8
0
 10
4307.7870575502456632
 20
154.7610240709369123
 30
0.0
 40
0.0337319744883368
 50
199.4973929686703116
 51
249.3678035105849062
  0
ARC
  5
7492
  8
0
 10
4307.8497305353839693
 20
154.7616142081203066
 30
0.0
 40
0.0290866691053433
 50
343.6313832191660254
 51
47.7166563392677219
  0
ARC
  5
7493
  8
0
 10
4307.8401404875812659
 20
154.7630647255336953
 30
0.0
 40
0.0387189945307875
 50
294.2786230381325936
 51
345.5716080277397282
  0
LINE
  5
7494
  8
0
 10
4307.5973503139257446
 20
154.7696452381291863
 30
0.0
 11
4307.6100277681262014
 21
154.8104273880292112
 31
0.0
  0
LINE
  5
7495
  8
0
 10
4307.5164610668271052
 20
154.7713306821169112
 30
0.0
 11
4307.5042446472270967
 21
154.8104273880292112
 31
0.0
  0
ARC
  5
7496
  8
0
 10
4307.5491038232421488
 20
154.7811057059678035
 30
0.0
 40
0.0340749268182839
 50
196.670571476717214
 51
251.6206832576075954
  0
ARC
  5
7497
  8
0
 10
4307.557090345366305
 20
154.7978118023438867
 30
0.0
 40
0.0524979622474823
 50
249.0970216637269914
 51
291.3689840103854749
  0
ARC
  5
7498
  8
0
 10
4307.5655273163420134
 20
154.7809608671392141
 30
0.0
 40
0.0337749409340208
 50
288.4551209644200185
 51
340.4256187685655846
  0
ARC
  5
7499
  8
0
 10
4307.5419604687003812
 20
154.7768870356011917
 30
0.0
 40
0.0260977500931332
 50
137.7134470536975925
 51
192.2926741820745065
  0
ARC
  5
749A
  8
0
 10
4307.5574027957745784
 20
154.7590370588345081
 30
0.0
 40
0.0496119006512895
 50
52.8030090089287825
 51
134.4606922279490107
  0
ARC
  5
749B
  8
0
 10
4307.5711210852423392
 20
154.7767832975515887
 30
0.0
 40
0.0271831626139409
 50
344.7761292064145096
 51
53.2221331890121476
  0
ARC
  5
749C
  8
0
 10
4307.5300393466895912
 20
154.8187226537804975
 30
0.0
 40
0.0270957183748196
 50
166.6475781966603904
 51
197.8271676173716003
  0
ARC
  5
749D
  8
0
 10
4307.5841014037614514
 20
154.8187275945716976
 30
0.0
 40
0.0272225971928186
 50
342.247771216871115
 51
13.339430460829
  0
ARC
  5
749E
  8
0
 10
4307.557151560076818
 20
154.7540075803061939
 30
0.0
 40
0.088863553654815
 50
53.0334463836912207
 51
126.9968178245077013
  0
ARC
  5
749F
  8
0
 10
4307.5571362067148584
 20
154.7671218573586884
 30
0.0
 40
0.0264467708704205
 50
53.5673926465389698
 51
126.4326024396383019
  0
ARC
  5
74A0
  8
0
 10
4307.5571362090076946
 20
154.7875339675599093
 30
0.0
 40
0.027140492330754
 50
241.9031434379922985
 51
298.0968507100224087
  0
ARC
  5
74A1
  8
0
 10
4307.5644522039419826
 20
154.7768124135789094
 30
0.0
 40
0.0143059757579295
 50
292.4632593730516987
 51
54.0925866903601715
  0
ARC
  5
74A2
  8
0
 10
4307.5497384291784329
 20
154.7768027758309017
 30
0.0
 40
0.0142660008963758
 50
125.6186686887676984
 51
247.8254866589066978
  0
ARC
  5
74A3
  8
0
 10
4307.524017588816605
 20
154.8032005059872063
 30
0.0
 40
0.0298015004300157
 50
133.0445327829008022
 51
202.8236383131317098
  0
ARC
  5
74A4
  8
0
 10
4307.5283471216271209
 20
154.802899144293292
 30
0.0
 40
0.0337319744883368
 50
199.4973929686703116
 51
249.3678035105849062
  0
ARC
  5
74A5
  8
0
 10
4307.5910201067636081
 20
154.8034892814766863
 30
0.0
 40
0.0290866691053433
 50
343.6313832191660254
 51
47.7166563392677219
  0
ARC
  5
74A6
  8
0
 10
4307.5814300589609047
 20
154.8049397988901035
 30
0.0
 40
0.0387189945307875
 50
294.2786230381325936
 51
345.5716080277397282
  0
LINE
  5
74A7
  8
0
 10
4308.1147711721196174
 20
154.7696452374727869
 30
0.0
 11
4308.1274486263209837
 21
154.8104273873728118
 31
0.0
  0
LINE
  5
74A8
  8
0
 10
4308.0338819250209781
 20
154.7713306814605119
 30
0.0
 11
4308.0216655054200601
 21
154.8104273873728118
 31
0.0
  0
ARC
  5
74A9
  8
0
 10
4308.0665246814360216
 20
154.7811057053114041
 30
0.0
 40
0.0340749268182839
 50
196.670571476717214
 51
251.6206832576075954
  0
ARC
  5
74AA
  8
0
 10
4308.0745112035592683
 20
154.7978118016874873
 30
0.0
 40
0.0524979622474823
 50
249.0970216637269914
 51
291.3689840103854749
  0
ARC
  5
74AB
  8
0
 10
4308.0829481745358862
 20
154.7809608664827863
 30
0.0
 40
0.0337749409340208
 50
288.4551209644200185
 51
340.4256187685655846
  0
ARC
  5
74AC
  8
0
 10
4308.059381326894254
 20
154.7768870349447923
 30
0.0
 40
0.0260977500931332
 50
137.7134470536975925
 51
192.2926741820745065
  0
ARC
  5
74AD
  8
0
 10
4308.0748236539684513
 20
154.7590370581781087
 30
0.0
 40
0.0496119006512895
 50
52.8030090089287825
 51
134.4606922279490107
  0
ARC
  5
74AE
  8
0
 10
4308.088541943436212
 20
154.7767832968951893
 30
0.0
 40
0.0271831626139409
 50
344.7761292064145096
 51
53.2221331890121476
  0
ARC
  5
74AF
  8
0
 10
4308.0474602048843735
 20
154.8187226531240981
 30
0.0
 40
0.0270957183748196
 50
166.6475781966603904
 51
197.8271676173716003
  0
ARC
  5
74B0
  8
0
 10
4308.1015222619525957
 20
154.8187275939152983
 30
0.0
 40
0.0272225971928186
 50
342.247771216871115
 51
13.339430460829
  0
ARC
  5
74B1
  8
0
 10
4308.0745724182697813
 20
154.7540075796497945
 30
0.0
 40
0.088863553654815
 50
53.0334463836912207
 51
126.9968178245077013
  0
ARC
  5
74B2
  8
0
 10
4308.0745570649078218
 20
154.7671218567024027
 30
0.0
 40
0.0264467708704205
 50
53.5673926465389698
 51
126.4326024396383019
  0
ARC
  5
74B3
  8
0
 10
4308.0745570672006579
 20
154.78753396690351
 30
0.0
 40
0.027140492330754
 50
241.9031434379922985
 51
298.0968507100224087
  0
ARC
  5
74B4
  8
0
 10
4308.0818730621349459
 20
154.77681241292251
 30
0.0
 40
0.0143059757579295
 50
292.4632593730516987
 51
54.0925866903601715
  0
ARC
  5
74B5
  8
0
 10
4308.0671592873713962
 20
154.7768027751745024
 30
0.0
 40
0.0142660008963758
 50
125.6186686887676984
 51
247.8254866589066978
  0
ARC
  5
74B6
  8
0
 10
4308.0414384470086588
 20
154.8032005053308922
 30
0.0
 40
0.0298015004300157
 50
133.0445327829008022
 51
202.8236383131317098
  0
ARC
  5
74B7
  8
0
 10
4308.0457679798200843
 20
154.8028991436370063
 30
0.0
 40
0.0337319744883368
 50
199.4973929686703116
 51
249.3678035105849062
  0
ARC
  5
74B8
  8
0
 10
4308.1084409649583904
 20
154.8034892808202869
 30
0.0
 40
0.0290866691053433
 50
343.6313832191660254
 51
47.7166563392677219
  0
ARC
  5
74B9
  8
0
 10
4308.0988509171538681
 20
154.8049397982337041
 30
0.0
 40
0.0387189945307875
 50
294.2786230381325936
 51
345.5716080277397282
  0
LINE
  5
74BA
  8
0
 10
4307.7319533941390546
 20
154.649501276916709
 30
0.0
 11
4307.7446308483386019
 21
154.6902834268167055
 31
0.0
  0
LINE
  5
74BB
  8
0
 10
4307.6510641470404153
 20
154.6511867209044908
 30
0.0
 11
4307.6388477274376783
 21
154.6902834268167055
 31
0.0
  0
ARC
  5
74BC
  8
0
 10
4307.6837069034536398
 20
154.6609617447554115
 30
0.0
 40
0.0340749268182839
 50
196.670571476717214
 51
251.6206832576075954
  0
ARC
  5
74BD
  8
0
 10
4307.691693425577796
 20
154.6776678411314947
 30
0.0
 40
0.0524979622474823
 50
249.0970216637269914
 51
291.3689840103854749
  0
ARC
  5
74BE
  8
0
 10
4307.7001303965553234
 20
154.6608169059267084
 30
0.0
 40
0.0337749409340208
 50
288.4551209644200185
 51
340.4256187685655846
  0
ARC
  5
74BF
  8
0
 10
4307.6765635489118722
 20
154.656743074388686
 30
0.0
 40
0.0260977500931332
 50
137.7134470536975925
 51
192.2926741820745065
  0
ARC
  5
74C0
  8
0
 10
4307.6920058759869789
 20
154.6388930976220024
 30
0.0
 40
0.0496119006512895
 50
52.8030090089287825
 51
134.4606922279490107
  0
ARC
  5
74C1
  8
0
 10
4307.7057241654547397
 20
154.6566393363391967
 30
0.0
 40
0.0271831626139409
 50
344.7761292064145096
 51
53.2221331890121476
  0
ARC
  5
74C2
  8
0
 10
4307.6646424269010822
 20
154.6985786925681055
 30
0.0
 40
0.0270957183748196
 50
166.6475781966603904
 51
197.8271676173716003
  0
ARC
  5
74C3
  8
0
 10
4307.7187044839711234
 20
154.6985836333591919
 30
0.0
 40
0.0272225971928186
 50
342.247771216871115
 51
13.339430460829
  0
ARC
  5
74C4
  8
0
 10
4307.691754640288309
 20
154.6338636190936882
 30
0.0
 40
0.088863553654815
 50
53.0334463836912207
 51
126.9968178245077013
  0
ARC
  5
74C5
  8
0
 10
4307.6917392869272589
 20
154.6469778961462964
 30
0.0
 40
0.0264467708704205
 50
53.5673926465389698
 51
126.4326024396383019
  0
ARC
  5
74C6
  8
0
 10
4307.6917392892191856
 20
154.6673900063474889
 30
0.0
 40
0.027140492330754
 50
241.9031434379922985
 51
298.0968507100224087
  0
ARC
  5
74C7
  8
0
 10
4307.6990552841525641
 20
154.656668452366489
 30
0.0
 40
0.0143059757579295
 50
292.4632593730516987
 51
54.0925866903601715
  0
ARC
  5
74C8
  8
0
 10
4307.6843415093881049
 20
154.656658814618396
 30
0.0
 40
0.0142660008963758
 50
125.6186686887676984
 51
247.8254866589066978
  0
ARC
  5
74C9
  8
0
 10
4307.658620669028096
 20
154.6830565447747858
 30
0.0
 40
0.0298015004300157
 50
133.0445327829008022
 51
202.8236383131317098
  0
ARC
  5
74CA
  8
0
 10
4307.6629502018377025
 20
154.6827551830809
 30
0.0
 40
0.0337319744883368
 50
199.4973929686703116
 51
249.3678035105849062
  0
ARC
  5
74CB
  8
0
 10
4307.7256231869760086
 20
154.6833453202642943
 30
0.0
 40
0.0290866691053433
 50
343.6313832191660254
 51
47.7166563392677219
  0
ARC
  5
74CC
  8
0
 10
4307.7160331391733052
 20
154.6847958376777115
 30
0.0
 40
0.0387189945307875
 50
294.2786230381325936
 51
345.5716080277397282
  0
LINE
  5
74CD
  8
0
 10
4307.9801680910368304
 20
154.6495012764507067
 30
0.0
 11
4307.9928455452372873
 21
154.6902834263507032
 31
0.0
  0
LINE
  5
74CE
  8
0
 10
4307.8992788439381911
 20
154.6511867204384885
 30
0.0
 11
4307.8870624243372731
 21
154.6902834263507032
 31
0.0
  0
ARC
  5
74CF
  8
0
 10
4307.9319216003532347
 20
154.6609617442894091
 30
0.0
 40
0.0340749268182839
 50
196.670571476717214
 51
251.6206832576075954
  0
ARC
  5
74D0
  8
0
 10
4307.9399081224755719
 20
154.6776678406654923
 30
0.0
 40
0.0524979622474823
 50
249.0970216637269914
 51
291.3689840103854749
  0
ARC
  5
74D1
  8
0
 10
4307.9483450934530993
 20
154.660816905460706
 30
0.0
 40
0.0337749409340208
 50
288.4551209644200185
 51
340.4256187685655846
  0
ARC
  5
74D2
  8
0
 10
4307.9247782458096481
 20
154.656743073922712
 30
0.0
 40
0.0260977500931332
 50
137.7134470536975925
 51
192.2926741820745065
  0
ARC
  5
74D3
  8
0
 10
4307.9402205728847548
 20
154.6388930971560001
 30
0.0
 40
0.0496119006512895
 50
52.8030090089287825
 51
134.4606922279490107
  0
ARC
  5
74D4
  8
0
 10
4307.9539388623534251
 20
154.6566393358731943
 30
0.0
 40
0.0271831626139409
 50
344.7761292064145096
 51
53.2221331890121476
  0
ARC
  5
74D5
  8
0
 10
4307.9128571237997676
 20
154.6985786921021031
 30
0.0
 40
0.0270957183748196
 50
166.6475781966603904
 51
197.8271676173716003
  0
ARC
  5
74D6
  8
0
 10
4307.9669191808698088
 20
154.6985836328933033
 30
0.0
 40
0.0272225971928186
 50
342.247771216871115
 51
13.339430460829
  0
ARC
  5
74D7
  8
0
 10
4307.9399693371860849
 20
154.6338636186277995
 30
0.0
 40
0.088863553654815
 50
53.0334463836912207
 51
126.9968178245077013
  0
ARC
  5
74D8
  8
0
 10
4307.9399539838259443
 20
154.6469778956802941
 30
0.0
 40
0.0264467708704205
 50
53.5673926465389698
 51
126.4326024396383019
  0
ARC
  5
74D9
  8
0
 10
4307.9399539861169615
 20
154.6673900058814866
 30
0.0
 40
0.027140492330754
 50
241.9031434379922985
 51
298.0968507100224087
  0
ARC
  5
74DA
  8
0
 10
4307.947269981052159
 20
154.6566684519004866
 30
0.0
 40
0.0143059757579295
 50
292.4632593730516987
 51
54.0925866903601715
  0
ARC
  5
74DB
  8
0
 10
4307.9325562062876998
 20
154.6566588141525074
 30
0.0
 40
0.0142660008963758
 50
125.6186686887676984
 51
247.8254866589066978
  0
ARC
  5
74DC
  8
0
 10
4307.9068353659258719
 20
154.6830565443088119
 30
0.0
 40
0.0298015004300157
 50
133.0445327829008022
 51
202.8236383131317098
  0
ARC
  5
74DD
  8
0
 10
4307.9111648987372973
 20
154.6827551826148976
 30
0.0
 40
0.0337319744883368
 50
199.4973929686703116
 51
249.3678035105849062
  0
ARC
  5
74DE
  8
0
 10
4307.9738378838737844
 20
154.6833453197982919
 30
0.0
 40
0.0290866691053433
 50
343.6313832191660254
 51
47.7166563392677219
  0
ARC
  5
74DF
  8
0
 10
4307.9642478360710811
 20
154.6847958372117091
 30
0.0
 40
0.0387189945307875
 50
294.2786230381325936
 51
345.5716080277397282
  0
LINE
  5
74E0
  8
0
 10
4308.113326842605602
 20
154.5907856737424027
 30
0.0
 11
4308.1260042968060588
 21
154.6315678236423992
 31
0.0
  0
LINE
  5
74E1
  8
0
 10
4308.0324375955069627
 20
154.5924711177302129
 30
0.0
 11
4308.0202211759051352
 21
154.6315678236423992
 31
0.0
  0
ARC
  5
74E2
  8
0
 10
4308.0650803519220062
 20
154.6022461415811051
 30
0.0
 40
0.0340749268182839
 50
196.670571476717214
 51
251.6206832576075954
  0
ARC
  5
74E3
  8
0
 10
4308.0730668740470719
 20
154.6189522379571883
 30
0.0
 40
0.0524979622474823
 50
249.0970216637269914
 51
291.3689840103854749
  0
ARC
  5
74E4
  8
0
 10
4308.0815038450227803
 20
154.602101302752402
 30
0.0
 40
0.0337749409340208
 50
288.4551209644200185
 51
340.4256187685655846
  0
ARC
  5
74E5
  8
0
 10
4308.0579369973802386
 20
154.598027471214408
 30
0.0
 40
0.0260977500931332
 50
137.7134470536975925
 51
192.2926741820745065
  0
ARC
  5
74E6
  8
0
 10
4308.0733793244544358
 20
154.5801774944476961
 30
0.0
 40
0.0496119006512895
 50
52.8030090089287825
 51
134.4606922279490107
  0
ARC
  5
74E7
  8
0
 10
4308.0870976139221966
 20
154.5979237331648903
 30
0.0
 40
0.0271831626139409
 50
344.7761292064145096
 51
53.2221331890121476
  0
ARC
  5
74E8
  8
0
 10
4308.0460158753676296
 20
154.6398630893937138
 30
0.0
 40
0.0270957183748196
 50
166.6475781966603904
 51
197.8271676173716003
  0
ARC
  5
74E9
  8
0
 10
4308.1000779324385803
 20
154.639868030184914
 30
0.0
 40
0.0272225971928186
 50
342.247771216871115
 51
13.339430460829
  0
ARC
  5
74EA
  8
0
 10
4308.0731280887548564
 20
154.5751480159194102
 30
0.0
 40
0.088863553654815
 50
53.0334463836912207
 51
126.9968178245077013
  0
ARC
  5
74EB
  8
0
 10
4308.0731127353947159
 20
154.5882622929719901
 30
0.0
 40
0.0264467708704205
 50
53.5673926465389698
 51
126.4326024396383019
  0
ARC
  5
74EC
  8
0
 10
4308.0731127376866425
 20
154.608674403173211
 30
0.0
 40
0.027140492330754
 50
241.9031434379922985
 51
298.0968507100224087
  0
ARC
  5
74ED
  8
0
 10
4308.0804287326209305
 20
154.597952849192211
 30
0.0
 40
0.0143059757579295
 50
292.4632593730516987
 51
54.0925866903601715
  0
ARC
  5
74EE
  8
0
 10
4308.0657149578555618
 20
154.5979432114440897
 30
0.0
 40
0.0142660008963758
 50
125.6186686887676984
 51
247.8254866589066978
  0
ARC
  5
74EF
  8
0
 10
4308.0399941174946434
 20
154.6243409416005079
 30
0.0
 40
0.0298015004300157
 50
133.0445327829008022
 51
202.8236383131317098
  0
ARC
  5
74F0
  8
0
 10
4308.0443236503060689
 20
154.6240395799065936
 30
0.0
 40
0.0337319744883368
 50
199.4973929686703116
 51
249.3678035105849062
  0
ARC
  5
74F1
  8
0
 10
4308.106996635442556
 20
154.6246297170899879
 30
0.0
 40
0.0290866691053433
 50
343.6313832191660254
 51
47.7166563392677219
  0
ARC
  5
74F2
  8
0
 10
4308.0974065876398527
 20
154.6260802345034051
 30
0.0
 40
0.0387189945307875
 50
294.2786230381325936
 51
345.5716080277397282
  0
LINE
  5
74F3
  8
0
 10
4307.856060742596128
 20
154.5491061917726938
 30
0.0
 11
4307.8687381967965848
 21
154.5898883416726903
 31
0.0
  0
LINE
  5
74F4
  8
0
 10
4307.7751714954956697
 20
154.5507916357605041
 30
0.0
 11
4307.7629550758956611
 21
154.5898883416726903
 31
0.0
  0
ARC
  5
74F5
  8
0
 10
4307.8078142519116227
 20
154.5605666596113963
 30
0.0
 40
0.0340749268182839
 50
196.670571476717214
 51
251.6206832576075954
  0
ARC
  5
74F6
  8
0
 10
4307.8158007740357789
 20
154.5772727559875079
 30
0.0
 40
0.0524979622474823
 50
249.0970216637269914
 51
291.3689840103854749
  0
ARC
  5
74F7
  8
0
 10
4307.8242377450133063
 20
154.5604218207826932
 30
0.0
 40
0.0337749409340208
 50
288.4551209644200185
 51
340.4256187685655846
  0
ARC
  5
74F8
  8
0
 10
4307.8006708973689456
 20
154.5563479892446992
 30
0.0
 40
0.0260977500931332
 50
137.7134470536975925
 51
192.2926741820745065
  0
ARC
  5
74F9
  8
0
 10
4307.8161132244431428
 20
154.5384980124779872
 30
0.0
 40
0.0496119006512895
 50
52.8030090089287825
 51
134.4606922279490107
  0
ARC
  5
74FA
  8
0
 10
4307.8298315139118131
 20
154.5562442511952099
 30
0.0
 40
0.0271831626139409
 50
344.7761292064145096
 51
53.2221331890121476
  0
ARC
  5
74FB
  8
0
 10
4307.7887497753590651
 20
154.5981836074240903
 30
0.0
 40
0.0270957183748196
 50
166.6475781966603904
 51
197.8271676173716003
  0
ARC
  5
74FC
  8
0
 10
4307.8428118324300158
 20
154.5981885482152052
 30
0.0
 40
0.0272225971928186
 50
342.247771216871115
 51
13.339430460829
  0
ARC
  5
74FD
  8
0
 10
4307.8158619887453824
 20
154.5334685339497014
 30
0.0
 40
0.088863553654815
 50
53.0334463836912207
 51
126.9968178245077013
  0
ARC
  5
74FE
  8
0
 10
4307.8158466353852418
 20
154.5465828110023097
 30
0.0
 40
0.0264467708704205
 50
53.5673926465389698
 51
126.4326024396383019
  0
ARC
  5
74FF
  8
0
 10
4307.8158466376771685
 20
154.5669949212035021
 30
0.0
 40
0.027140492330754
 50
241.9031434379922985
 51
298.0968507100224087
  0
ARC
  5
7500
  8
0
 10
4307.823162632610547
 20
154.5562733672225022
 30
0.0
 40
0.0143059757579295
 50
292.4632593730516987
 51
54.0925866903601715
  0
ARC
  5
7501
  8
0
 10
4307.8084488578469973
 20
154.5562637294744093
 30
0.0
 40
0.0142660008963758
 50
125.6186686887676984
 51
247.8254866589066978
  0
ARC
  5
7502
  8
0
 10
4307.7827280174851694
 20
154.5826614596307991
 30
0.0
 40
0.0298015004300157
 50
133.0445327829008022
 51
202.8236383131317098
  0
ARC
  5
7503
  8
0
 10
4307.7870575502956854
 20
154.5823600979369132
 30
0.0
 40
0.0337319744883368
 50
199.4973929686703116
 51
249.3678035105849062
  0
ARC
  5
7504
  8
0
 10
4307.849730535433082
 20
154.5829502351201938
 30
0.0
 40
0.0290866691053433
 50
343.6313832191660254
 51
47.7166563392677219
  0
ARC
  5
7505
  8
0
 10
4307.8401404876312881
 20
154.5844007525336963
 30
0.0
 40
0.0387189945307875
 50
294.2786230381325936
 51
345.5716080277397282
  0
LINE
  5
7506
  8
0
 10
4307.9781794774517039
 20
154.471117788866394
 30
0.0
 11
4307.9908569316521607
 21
154.5118999387663052
 31
0.0
  0
LINE
  5
7507
  8
0
 10
4307.8972902303530645
 20
154.4728032328540905
 30
0.0
 11
4307.885073810751237
 21
154.5118999387663052
 31
0.0
  0
ARC
  5
7508
  8
0
 10
4307.9299329867681081
 20
154.4825782567050112
 30
0.0
 40
0.0340749268182839
 50
196.670571476717214
 51
251.6206832576075954
  0
ARC
  5
7509
  8
0
 10
4307.9379195088922643
 20
154.4992843530810944
 30
0.0
 40
0.0524979622474823
 50
249.0970216637269914
 51
291.3689840103854749
  0
ARC
  5
750A
  8
0
 10
4307.9463564798688822
 20
154.4824334178763934
 30
0.0
 40
0.0337749409340208
 50
288.4551209644200185
 51
340.4256187685655846
  0
ARC
  5
750B
  8
0
 10
4307.922789632225431
 20
154.4783595863383994
 30
0.0
 40
0.0260977500931332
 50
137.7134470536975925
 51
192.2926741820745065
  0
ARC
  5
750C
  8
0
 10
4307.9382319592996282
 20
154.4605096095716021
 30
0.0
 40
0.0496119006512895
 50
52.8030090089287825
 51
134.4606922279490107
  0
ARC
  5
750D
  8
0
 10
4307.9519502487682985
 20
154.4782558482887964
 30
0.0
 40
0.0271831626139409
 50
344.7761292064145096
 51
53.2221331890121476
  0
ARC
  5
750E
  8
0
 10
4307.910868510214641
 20
154.5201952045177052
 30
0.0
 40
0.0270957183748196
 50
166.6475781966603904
 51
197.8271676173716003
  0
ARC
  5
750F
  8
0
 10
4307.9649305672855917
 20
154.5202001453087917
 30
0.0
 40
0.0272225971928186
 50
342.247771216871115
 51
13.339430460829
  0
ARC
  5
7510
  8
0
 10
4307.9379807236009583
 20
154.4554801310434016
 30
0.0
 40
0.088863553654815
 50
53.0334463836912207
 51
126.9968178245077013
  0
ARC
  5
7511
  8
0
 10
4307.9379653702408177
 20
154.4685944080958961
 30
0.0
 40
0.0264467708704205
 50
53.5673926465389698
 51
126.4326024396383019
  0
ARC
  5
7512
  8
0
 10
4307.9379653725318349
 20
154.4890065182970886
 30
0.0
 40
0.027140492330754
 50
241.9031434379922985
 51
298.0968507100224087
  0
ARC
  5
7513
  8
0
 10
4307.9452813674670324
 20
154.4782849643160887
 30
0.0
 40
0.0143059757579295
 50
292.4632593730516987
 51
54.0925866903601715
  0
ARC
  5
7514
  8
0
 10
4307.9305675927016637
 20
154.4782753265681094
 30
0.0
 40
0.0142660008963758
 50
125.6186686887676984
 51
247.8254866589066978
  0
ARC
  5
7515
  8
0
 10
4307.9048467523407453
 20
154.5046730567244992
 30
0.0
 40
0.0298015004300157
 50
133.0445327829008022
 51
202.8236383131317098
  0
ARC
  5
7516
  8
0
 10
4307.9091762851530802
 20
154.5043716950304997
 30
0.0
 40
0.0337319744883368
 50
199.4973929686703116
 51
249.3678035105849062
  0
ARC
  5
7517
  8
0
 10
4307.9718492702886579
 20
154.504961832213894
 30
0.0
 40
0.0290866691053433
 50
343.6313832191660254
 51
47.7166563392677219
  0
ARC
  5
7518
  8
0
 10
4307.962259222486864
 20
154.5064123496273112
 30
0.0
 40
0.0387189945307875
 50
294.2786230381325936
 51
345.5716080277397282
  0
LINE
  5
7519
  8
0
 10
4307.7339420078978947
 20
154.4711177893998126
 30
0.0
 11
4307.746619462097442
 21
154.5118999392998091
 31
0.0
  0
LINE
  5
751A
  8
0
 10
4307.6530527607983458
 20
154.4728032333875092
 30
0.0
 11
4307.6408363411983373
 21
154.5118999392998091
 31
0.0
  0
ARC
  5
751B
  8
0
 10
4307.6856955172133894
 20
154.4825782572384014
 30
0.0
 40
0.0340749268182839
 50
196.670571476717214
 51
251.6206832576075954
  0
ARC
  5
751C
  8
0
 10
4307.6936820393375456
 20
154.4992843536145983
 30
0.0
 40
0.0524979622474823
 50
249.0970216637269914
 51
291.3689840103854749
  0
ARC
  5
751D
  8
0
 10
4307.7021190103141635
 20
154.482433418409812
 30
0.0
 40
0.0337749409340208
 50
288.4551209644200185
 51
340.4256187685655846
  0
ARC
  5
751E
  8
0
 10
4307.6785521626707123
 20
154.4783595868717896
 30
0.0
 40
0.0260977500931332
 50
137.7134470536975925
 51
192.2926741820745065
  0
ARC
  5
751F
  8
0
 10
4307.693994489745819
 20
154.460509610105106
 30
0.0
 40
0.0496119006512895
 50
52.8030090089287825
 51
134.4606922279490107
  0
ARC
  5
7520
  8
0
 10
4307.7077127792135798
 20
154.4782558488221866
 30
0.0
 40
0.0271831626139409
 50
344.7761292064145096
 51
53.2221331890121476
  0
ARC
  5
7521
  8
0
 10
4307.6666310406590128
 20
154.5201952050510954
 30
0.0
 40
0.0270957183748196
 50
166.6475781966603904
 51
197.8271676173716003
  0
ARC
  5
7522
  8
0
 10
4307.7206930977299635
 20
154.5202001458422956
 30
0.0
 40
0.0272225971928186
 50
342.247771216871115
 51
13.339430460829
  0
ARC
  5
7523
  8
0
 10
4307.6937432540480586
 20
154.4554801315767918
 30
0.0
 40
0.088863553654815
 50
53.0334463836912207
 51
126.9968178245077013
  0
ARC
  5
7524
  8
0
 10
4307.693727900686099
 20
154.4685944086292864
 30
0.0
 40
0.0264467708704205
 50
53.5673926465389698
 51
126.4326024396383019
  0
ARC
  5
7525
  8
0
 10
4307.6937279029780257
 20
154.4890065188305073
 30
0.0
 40
0.027140492330754
 50
241.9031434379922985
 51
298.0968507100224087
  0
ARC
  5
7526
  8
0
 10
4307.7010438979123137
 20
154.4782849648495926
 30
0.0
 40
0.0143059757579295
 50
292.4632593730516987
 51
54.0925866903601715
  0
ARC
  5
7527
  8
0
 10
4307.686330123146945
 20
154.4782753271014997
 30
0.0
 40
0.0142660008963758
 50
125.6186686887676984
 51
247.8254866589066978
  0
ARC
  5
7528
  8
0
 10
4307.6606092827869361
 20
154.5046730572578895
 30
0.0
 40
0.0298015004300157
 50
133.0445327829008022
 51
202.8236383131317098
  0
ARC
  5
7529
  8
0
 10
4307.664938815597452
 20
154.5043716955640036
 30
0.0
 40
0.0337319744883368
 50
199.4973929686703116
 51
249.3678035105849062
  0
ARC
  5
752A
  8
0
 10
4307.7276118007348487
 20
154.5049618327473127
 30
0.0
 40
0.0290866691053433
 50
343.6313832191660254
 51
47.7166563392677219
  0
ARC
  5
752B
  8
0
 10
4307.7180217529321453
 20
154.5064123501607014
 30
0.0
 40
0.0387189945307875
 50
294.2786230381325936
 51
345.5716080277397282
  0
LINE
  5
752C
  8
0
 10
4307.5987946430223019
 20
154.5907856739499096
 30
0.0
 11
4307.6114720972200303
 21
154.6315678238499061
 31
0.0
  0
LINE
  5
752D
  8
0
 10
4307.5179053959209341
 20
154.5924711179376061
 30
0.0
 11
4307.5056889763209256
 21
154.6315678238499061
 31
0.0
  0
ARC
  5
752E
  8
0
 10
4307.5505481523368871
 20
154.6022461417884983
 30
0.0
 40
0.0340749268182839
 50
196.670571476717214
 51
251.6206832576075954
  0
ARC
  5
752F
  8
0
 10
4307.5585346744610433
 20
154.61895223816461
 30
0.0
 40
0.0524979622474823
 50
249.0970216637269914
 51
291.3689840103854749
  0
ARC
  5
7530
  8
0
 10
4307.5669716454376612
 20
154.6021013029599089
 30
0.0
 40
0.0337749409340208
 50
288.4551209644200185
 51
340.4256187685655846
  0
ARC
  5
7531
  8
0
 10
4307.54340479779421
 20
154.5980274714218865
 30
0.0
 40
0.0260977500931332
 50
137.7134470536975925
 51
192.2926741820745065
  0
ARC
  5
7532
  8
0
 10
4307.5588471248693168
 20
154.580177494655203
 30
0.0
 40
0.0496119006512895
 50
52.8030090089287825
 51
134.4606922279490107
  0
ARC
  5
7533
  8
0
 10
4307.572565414336168
 20
154.597923733372312
 30
0.0
 40
0.0271831626139409
 50
344.7761292064145096
 51
53.2221331890121476
  0
ARC
  5
7534
  8
0
 10
4307.53148367578342
 20
154.6398630896011923
 30
0.0
 40
0.0270957183748196
 50
166.6475781966603904
 51
197.8271676173716003
  0
ARC
  5
7535
  8
0
 10
4307.5855457328543707
 20
154.6398680303923925
 30
0.0
 40
0.0272225971928186
 50
342.247771216871115
 51
13.339430460829
  0
ARC
  5
7536
  8
0
 10
4307.5585958891706468
 20
154.5751480161268887
 30
0.0
 40
0.088863553654815
 50
53.0334463836912207
 51
126.9968178245077013
  0
ARC
  5
7537
  8
0
 10
4307.5585805358086873
 20
154.5882622931794117
 30
0.0
 40
0.0264467708704205
 50
53.5673926465389698
 51
126.4326024396383019
  0
ARC
  5
7538
  8
0
 10
4307.5585805381024329
 20
154.6086744033806042
 30
0.0
 40
0.027140492330754
 50
241.9031434379922985
 51
298.0968507100224087
  0
ARC
  5
7539
  8
0
 10
4307.5658965330358114
 20
154.5979528493996042
 30
0.0
 40
0.0143059757579295
 50
292.4632593730516987
 51
54.0925866903601715
  0
ARC
  5
753A
  8
0
 10
4307.5511827582713522
 20
154.5979432116515966
 30
0.0
 40
0.0142660008963758
 50
125.6186686887676984
 51
247.8254866589066978
  0
ARC
  5
753B
  8
0
 10
4307.5254619179113433
 20
154.6243409418079864
 30
0.0
 40
0.0298015004300157
 50
133.0445327829008022
 51
202.8236383131317098
  0
ARC
  5
753C
  8
0
 10
4307.5297914507209498
 20
154.6240395801141005
 30
0.0
 40
0.0337319744883368
 50
199.4973929686703116
 51
249.3678035105849062
  0
ARC
  5
753D
  8
0
 10
4307.5924644358592559
 20
154.6246297172974096
 30
0.0
 40
0.0290866691053433
 50
343.6313832191660254
 51
47.7166563392677219
  0
ARC
  5
753E
  8
0
 10
4307.5828743880556431
 20
154.6260802347107983
 30
0.0
 40
0.0387189945307875
 50
294.2786230381325936
 51
345.5716080277397282
  0
ENDSEC
  0
EOF
