  0
SECTION
  2
HEADER
  9
$ACADVER
  1
AC1009
  9
$INSBASE
 10
4368.1657563674662015
 20
218.9098772901427878
 30
0.0
  9
$EXTMIN
 10
4359.1149813227975756
 20
213.4372813749955071
 30
-0.0015258207003583
  9
$EXTMAX
 10
4368.2206350412343454
 20
220.1017334568846024
 30
0.0000000349246037
  9
$LIMMIN
 10
0.0
 20
0.0
  9
$LIMMAX
 10
11.6929133858000007
 20
8.2677165353999982
  9
$ORTHOMODE
 70
     0
  9
$REGENMODE
 70
     1
  9
$FILLMODE
 70
     1
  9
$QTEXTMODE
 70
     0
  9
$MIRRTEXT
 70
     0
  9
$DRAGMODE
 70
     2
  9
$LTSCALE
 40
0.6431102362
  9
$OSMODE
 70
   563
  9
$ATTMODE
 70
     1
  9
$TEXTSIZE
 40
0.2
  9
$TRACEWID
 40
0.05
  9
$TEXTSTYLE
  7
STANDARD
  9
$CLAYER
  8
0
  9
$CELTYPE
  6
BYLAYER
  9
$CECOLOR
 62
   256
  9
$DIMSCALE
 40
1.0
  9
$DIMASZ
 40
0.1875
  9
$DIMEXO
 40
0.0625
  9
$DIMDLI
 40
0.4443307087
  9
$DIMRND
 40
0.0
  9
$DIMDLE
 40
0.0
  9
$DIMEXE
 40
0.125
  9
$DIMTP
 40
0.01
  9
$DIMTM
 40
0.01
  9
$DIMTXT
 40
2.0
  9
$DIMCEN
 40
0.1052362205
  9
$DIMTSZ
 40
0.0
  9
$DIMTOL
 70
     1
  9
$DIMLIM
 70
     0
  9
$DIMTIH
 70
     1
  9
$DIMTOH
 70
     1
  9
$DIMSE1
 70
     0
  9
$DIMSE2
 70
     0
  9
$DIMTAD
 70
     0
  9
$DIMZIN
 70
     0
  9
$DIMBLK
  1

  9
$DIMASO
 70
     1
  9
$DIMSHO
 70
     1
  9
$DIMPOST
  1
\X
  9
$DIMAPOST
  1

  9
$DIMALT
 70
     1
  9
$DIMALTD
 70
     2
  9
$DIMALTF
 40
25.3999999999999986
  9
$DIMLFAC
 40
1.0
  9
$DIMTOFL
 70
     0
  9
$DIMTVP
 40
0.0
  9
$DIMTIX
 70
     0
  9
$DIMSOXD
 70
     0
  9
$DIMSAH
 70
     0
  9
$DIMBLK1
  1

  9
$DIMBLK2
  1

  9
$DIMSTYLE
  2
STANDARD
  9
$DIMCLRD
 70
     0
  9
$DIMCLRE
 70
     0
  9
$DIMCLRT
 70
     0
  9
$DIMTFAC
 40
1.0
  9
$DIMGAP
 40
0.09
  9
$LUNITS
 70
     2
  9
$LUPREC
 70
     4
  9
$SKETCHINC
 40
0.1
  9
$FILLETRAD
 40
0.0
  9
$AUNITS
 70
     0
  9
$AUPREC
 70
     0
  9
$MENU
  1
.
  9
$ELEVATION
 40
0.0
  9
$PELEVATION
 40
0.0
  9
$THICKNESS
 40
0.0
  9
$LIMCHECK
 70
     0
  9
$BLIPMODE
 70
     0
  9
$CHAMFERA
 40
0.0
  9
$CHAMFERB
 40
0.0
  9
$SKPOLY
 70
     0
  9
$TDCREATE
 40
2458060.468368056230247
  9
$TDUPDATE
 40
2459202.4844791670329869
  9
$TDINDWG
 40
0.4553427083
  9
$TDUSRTIMER
 40
0.4553427083
  9
$USRTIMER
 70
     1
  9
$ANGBASE
 50
0.0
  9
$ANGDIR
 70
     0
  9
$PDMODE
 70
     0
  9
$PDSIZE
 40
0.3125
  9
$PLINEWID
 40
0.0
  9
$COORDS
 70
     1
  9
$SPLFRAME
 70
     0
  9
$SPLINETYPE
 70
     6
  9
$SPLINESEGS
 70
     8
  9
$ATTDIA
 70
     1
  9
$ATTREQ
 70
     1
  9
$HANDLING
 70
     1
  9
$HANDSEED
  5
1A1B9
  9
$SURFTAB1
 70
     6
  9
$SURFTAB2
 70
     6
  9
$SURFTYPE
 70
     6
  9
$SURFU
 70
     6
  9
$SURFV
 70
     6
  9
$UCSNAME
  2

  9
$UCSORG
 10
0.0
 20
0.0
 30
0.0
  9
$UCSXDIR
 10
1.0
 20
0.0
 30
0.0
  9
$UCSYDIR
 10
0.0
 20
1.0
 30
0.0
  9
$PUCSNAME
  2

  9
$PUCSORG
 10
0.0
 20
0.0
 30
0.0
  9
$PUCSXDIR
 10
1.0
 20
0.0
 30
0.0
  9
$PUCSYDIR
 10
0.0
 20
1.0
 30
0.0
  9
$USERI1
 70
     0
  9
$USERI2
 70
     0
  9
$USERI3
 70
     0
  9
$USERI4
 70
     0
  9
$USERI5
 70
     0
  9
$USERR1
 40
0.0
  9
$USERR2
 40
0.0
  9
$USERR3
 40
0.0
  9
$USERR4
 40
0.0
  9
$USERR5
 40
0.0
  9
$WORLDVIEW
 70
     1
  9
$SHADEDGE
 70
     3
  9
$SHADEDIF
 70
    70
  9
$TILEMODE
 70
     1
  9
$MAXACTVP
 70
    64
  9
$PLIMCHECK
 70
     0
  9
$PEXTMIN
 10
1.0000000000000000E+20
 20
1.0000000000000000E+20
 30
1.0000000000000000E+20
  9
$PEXTMAX
 10
-1.0000000000000000E+20
 20
-1.0000000000000000E+20
 30
-1.0000000000000000E+20
  9
$PLIMMIN
 10
0.0
 20
0.0
  9
$PLIMMAX
 10
12.0
 20
9.0
  9
$UNITMODE
 70
     0
  9
$VISRETAIN
 70
     1
  9
$PLINEGEN
 70
     0
  9
$PSLTSCALE
 70
     1
  0
ENDSEC
  0
SECTION
  2
TABLES
  0
TABLE
  2
VPORT
 70
     1
  0
VPORT
  2
*ACTIVE
 70
     0
 10
0.0
 20
0.0
 11
1.0
 21
1.0
 12
452.3024516699816218
 22
84.1899022376920385
 13
0.0
 23
0.0
 14
1.0
 24
1.0
 15
0.0
 25
0.0
 16
0.0
 26
0.0
 36
60.4960186965801583
 17
3911.3653564453120453
 27
132.5796051025390057
 37
0.0
 40
10.0631012717846406
 41
1.9002217294900221
 42
50.0
 43
0.0
 44
0.0
 50
0.0
 51
0.0
 71
     0
 72
   100
 73
     1
 74
     1
 75
     0
 76
     0
 77
     0
 78
     0
  0
ENDTAB
  0
TABLE
  2
LTYPE
 70
     2
  0
LTYPE
  2
CONTINUOUS
 70
     0
  3
Solid line
 72
    65
 73
     0
 40
0.0
  0
LTYPE
  2
PHANTOM2
 70
     0
  3
___ _ _ ___ _ _ ___ _ _ ___ _ _
 72
    65
 73
     6
 40
1.25
 49
0.625
 49
-0.125
 49
0.125
 49
-0.125
 49
0.125
 49
-0.125
  0
ENDTAB
  0
TABLE
  2
LAYER
 70
     2
  0
LAYER
  2
0
 70
     0
 62
   255
  6
CONTINUOUS
  0
LAYER
  2
DEFPOINTS
 70
     0
 62
     7
  6
CONTINUOUS
  0
ENDTAB
  0
TABLE
  2
STYLE
 70
     1
  0
STYLE
  2
STANDARD
 70
     0
 40
0.0
 41
0.8
 50
0.0
 71
     0
 42
0.2
  3
txt
  4

  0
ENDTAB
  0
TABLE
  2
VIEW
 70
     0
  0
ENDTAB
  0
TABLE
  2
UCS
 70
     0
  0
ENDTAB
  0
TABLE
  2
APPID
 70
    11
  0
APPID
  2
ACAD
 70
     0
  0
APPID
  2
ACAD_MLEADERVER
 70
     0
  0
APPID
  2
ACAD_EXEMPT_FROM_CAD_STANDARDS
 70
     0
  0
APPID
  2
ACAD_NAV_VCDISPLAY
 70
     0
  0
APPID
  2
ACAECLAYERSTANDARD
 70
     0
  0
APPID
  2
ACCMTRANSPARENCY
 70
     0
  0
APPID
  2
ACAD_DSTYLE_DIMJAG
 70
     0
  0
APPID
  2
ACAD_DSTYLE_DIMTALN
 70
     0
  0
APPID
  2
ACDBATTR
 70
     0
  0
APPID
  2
ACADANNOTATIVE
 70
     0
  0
APPID
  2
DCO15
 70
     0
  0
ENDTAB
  0
TABLE
  2
DIMSTYLE
 70
     1
  0
DIMSTYLE
  2
STANDARD
 70
     0
  3

  4

  5

  6

  7

 40
1.0
 41
0.1875
 42
0.0625
 43
0.38
 44
0.125
 45
0.0
 46
0.0
 47
0.01
 48
0.01
140
0.15625
141
0.09
142
0.0
143
25.3999999999999986
144
1.0
145
0.0
146
1.0
147
0.09
 71
     1
 72
     0
 73
     1
 74
     1
 75
     0
 76
     0
 77
     0
 78
     4
170
     0
171
     2
172
     0
173
     0
174
     0
175
     0
176
     0
177
     0
178
     0
  0
ENDTAB
  0
ENDSEC
  0
SECTION
  2
BLOCKS
  0
BLOCK
  8
0
  2
$MODEL_SPACE
 70
     0
 10
0.0
 20
0.0
 30
0.0
  3
$MODEL_SPACE
  1

  0
ENDBLK
  5
21
  8
0
  0
BLOCK
 67
     1
  8
0
  2
$PAPER_SPACE
 70
     0
 10
0.0
 20
0.0
 30
0.0
  3
$PAPER_SPACE
  1

  0
ENDBLK
  5
1D
 67
     1
  8
0
  0
ENDSEC
  0
SECTION
  2
ENTITIES
  0
LINE
  5
19EC4
  8
0
 10
4359.7788048485654144
 20
217.330712156917798
 30
0.0
 11
4359.4422086083659451
 21
216.9881886439177947
 31
0.0
  0
LINE
  5
19EC5
  8
0
 10
4359.7253644198663096
 20
216.5762311832178
 30
0.0
 11
4359.7495941802471862
 21
216.6031878042032019
 31
0.0
  0
LINE
  5
19EC6
  8
0
 10
4359.7195758828656835
 20
216.5715492915178118
 30
0.0
 11
4359.7441531244539874
 21
216.5988660916106028
 31
0.0
  0
LINE
  5
19EC7
  8
0
 10
4359.7180331272666081
 20
216.5703044183177894
 30
0.0
 11
4359.7430353465615553
 21
216.5980077491034876
 31
0.0
  0
LINE
  5
19EC8
  8
0
 10
4360.7228037955546824
 20
215.5637022391202891
 30
0.0
 11
4361.0913771179111791
 21
215.1896715791353927
 31
0.0
  0
LINE
  5
19EC9
  8
0
 10
4360.6100777941655906
 20
215.6801626071178077
 30
0.0
 11
4360.635326094345146
 21
215.6541518075401882
 31
0.0
  0
LINE
  5
19ECA
  8
0
 10
4360.27243492256639
 20
216.0325228364177974
 30
0.0
 11
4360.6100777932670098
 21
215.6801626076178025
 31
0.0
  0
LINE
  5
19ECB
  8
0
 10
4359.8282274239518301
 20
216.5046029841599875
 30
0.0
 11
4360.1857570324773405
 21
216.1239770126074973
 31
0.0
  0
LINE
  5
19ECC
  8
0
 10
4360.6106402458663069
 20
215.607356551217805
 30
0.0
 11
4360.672056876465831
 21
215.5414952783177966
 31
0.0
  0
LINE
  5
19ECD
  8
0
 10
4359.440772000166362
 20
216.934831931517806
 30
0.0
 11
4359.7417914050502077
 21
216.5966294185336949
 31
0.0
  0
LINE
  5
19ECE
  8
0
 10
4360.1607278372030123
 20
216.0790532558436041
 30
0.0
 11
4360.2198108687671265
 21
216.011086002917807
 31
0.0
  0
LINE
  5
19ECF
  8
0
 10
4360.1783985217671216
 20
216.1098608737177926
 30
0.0
 11
4360.2032639324697811
 21
216.1395466227475026
 31
0.0
  0
LINE
  5
19ED0
  8
0
 10
4360.1666565937666746
 20
216.0996595454178077
 30
0.0
 11
4360.1915236215008917
 21
216.1293180903703046
 31
0.0
  0
LINE
  5
19ED1
  8
0
 10
4360.1618639995667763
 20
216.0954968484178096
 30
0.0
 11
4360.1868522374034001
 21
216.1252824817080125
 31
0.0
  0
LINE
  5
19ED2
  8
0
 10
4360.1605939608671179
 20
216.0943939641178133
 30
0.0
 11
4360.1855768952746075
 21
216.1241674659214027
 31
0.0
  0
LINE
  5
19ED3
  8
0
 10
4363.3209471105656121
 20
213.8447334980178027
 30
0.0
 11
4359.8347337512668673
 21
217.330946857317798
 31
0.0
  0
LINE
  5
19ED4
  8
0
 10
4360.6360487523670599
 20
215.6469952356177942
 30
0.0
 11
4360.6614361496785932
 21
215.6795480543474923
 31
0.0
  0
LINE
  5
19ED5
  8
0
 10
4360.6212853625656862
 20
215.6332341322178081
 30
0.0
 11
4360.6467004536607419
 21
215.6657898800741862
 31
0.0
  0
LINE
  5
19ED6
  8
0
 10
4360.6099686297657172
 20
215.6226858570178138
 30
0.0
 11
4360.634897455565806
 21
215.6545932990177903
 31
0.0
  0
LINE
  5
19ED7
  8
0
 10
4360.6128315743671919
 20
215.625354411717808
 30
0.0
 11
4360.6381124746158093
 21
215.6577189205808907
 31
0.0
  0
LINE
  5
19ED8
  8
0
 10
4361.7789197543670525
 20
216.9629255386178102
 30
0.0
 11
4361.1997249279656899
 21
216.4036035963177937
 31
0.0
  0
LINE
  5
19ED9
  8
0
 10
4359.7893932181668788
 20
216.4821820450177938
 30
0.0
 11
4359.8289606826019735
 21
216.5050263312382128
 31
0.0
  0
LINE
  5
19EDA
  8
0
 10
4359.7909316447658057
 20
216.4834322639177913
 30
0.0
 11
4359.8302691854587465
 21
216.506123743358188
 31
0.0
  0
LINE
  5
19EDB
  8
0
 10
4359.7967147304671016
 20
216.4881208875177947
 30
0.0
 11
4359.8375603186550507
 21
216.5116561237553867
 31
0.0
  0
LINE
  5
19EDC
  8
0
 10
4361.0948240137668108
 20
215.1849929882178003
 30
0.0
 11
4361.1204245638928114
 21
215.2202938505355974
 31
0.0
  0
LINE
  5
19EDD
  8
0
 10
4361.0795788901668857
 20
215.1697540573177889
 30
0.0
 11
4361.1052120257563729
 21
215.2050637528467121
 31
0.0
  0
LINE
  5
19EDE
  8
0
 10
4361.0698309683666594
 20
215.1600098269177863
 30
0.0
 11
4361.0950476634243387
 21
215.1947246774290932
 31
0.0
  0
LINE
  5
19EDF
  8
0
 10
4362.9613383423657069
 20
217.6713736716178005
 30
0.0
 11
4362.8836122741658983
 21
217.5936476033178053
 31
0.0
  0
LINE
  5
19EE0
  8
0
 10
4362.3809251449301883
 20
217.0342805762811054
 30
0.0
 11
4362.8806833419657778
 21
217.5340387733178034
 31
0.0
  0
LINE
  5
19EE1
  8
0
 10
4363.0384129814656262
 20
217.6225833037177892
 30
0.0
 11
4364.0016371794663428
 21
218.5858075017177953
 31
0.0
  0
LINE
  5
19EE2
  8
0
 10
4360.234986007565567
 20
216.0088157039178043
 30
0.0
 11
4360.2726174859672028
 21
216.0323304613177982
 31
0.0
  0
LINE
  5
19EE3
  8
0
 10
4360.2362549138670147
 20
216.0099198907178106
 30
0.0
 11
4360.2743648415626012
 21
216.0337285259022906
 31
0.0
  0
LINE
  5
19EE4
  8
0
 10
4360.2410440999674393
 20
216.0140865083178028
 30
0.0
 11
4360.2800430022261935
 21
216.0384348609053973
 31
0.0
  0
LINE
  5
19EE5
  8
0
 10
4360.25278031016569
 20
216.0242944142177919
 30
0.0
 11
4360.2927104017026068
 21
216.0491973242980066
 31
0.0
  0
LINE
  5
19EE6
  8
0
 10
4362.9505178481322218
 20
216.0648573921822901
 30
0.0
 11
4362.0548577763311187
 21
216.9605174639823133
 31
0.0
  0
LINE
  5
19EE7
  8
0
 10
4362.8836122741658983
 20
217.5936476033178053
 30
0.0
 11
4362.8836122741658983
 21
217.5411098411177875
 31
0.0
  0
LINE
  5
19EE8
  8
0
 10
4363.0645207621673762
 20
217.350201353017809
 30
0.0
 11
4362.6564956427655488
 21
216.9421762336178006
 31
0.0
  0
LINE
  5
19EE9
  8
0
 10
4360.6873019970662426
 20
215.5397559736177868
 30
0.0
 11
4360.7271936676697806
 21
215.5666632452573879
 31
0.0
  0
LINE
  5
19EEA
  8
0
 10
4360.6901637602659321
 20
215.5424257953177971
 30
0.0
 11
4360.7267632469565797
 21
215.5671073263874007
 31
0.0
  0
LINE
  5
19EEB
  8
0
 10
4360.6986139925666066
 20
215.5503093290178072
 30
0.0
 11
4360.7361341904361325
 21
215.5755959392342049
 31
0.0
  0
LINE
  5
19EEC
  8
0
 10
4360.7133714166657228
 20
215.5640768298177079
 30
0.0
 11
4360.7512471750833356
 21
215.5895763572405883
 31
0.0
  0
LINE
  5
19EED
  8
0
 10
4362.9321766177663449
 20
216.6664952586178003
 30
0.0
 11
4363.3402017371663533
 21
217.0745203780178088
 31
0.0
  0
LINE
  5
19EEE
  8
0
 10
4363.6125836878663904
 20
217.0484125973177925
 30
0.0
 11
4364.5758078858661975
 21
218.0116367953177985
 31
0.0
  0
LINE
  5
19EEF
  8
0
 10
4363.5240391574670866
 20
216.8906829578178019
 30
0.0
 11
4363.0242809604296781
 21
216.3909247607811039
 31
0.0
  0
LINE
  5
19EF0
  8
0
 10
4363.661374055766828
 20
216.9713379582177879
 30
0.0
 11
4363.5836479874669749
 21
216.8936118900178087
 31
0.0
  0
LINE
  5
19EF1
  8
0
 10
4361.150010211065819
 20
215.0798305842178024
 30
0.0
 11
4361.184730764053711
 21
215.1050514215538101
 31
0.0
  0
LINE
  5
19EF2
  8
0
 10
4361.1597544414671574
 20
215.0895785059178138
 30
0.0
 11
4361.1950589157386275
 21
215.1152078512544961
 31
0.0
  0
LINE
  5
19EF3
  8
0
 10
4361.1749933723658614
 20
215.1048236296178118
 30
0.0
 11
4361.210309942591266
 21
215.1304355712476024
 31
0.0
  0
LINE
  5
19EF4
  8
0
 10
4363.3402017371663533
 20
217.0745203780178088
 30
0.0
 11
4363.0645207621673762
 21
217.350201353017809
 31
0.0
  0
LINE
  5
19EF5
  8
0
 10
4362.9529259227656439
 20
215.7889193702177977
 30
0.0
 11
4362.3936039804666507
 21
215.2097245438177993
 31
0.0
  0
LINE
  5
19EF6
  8
0
 10
4363.5311102252671844
 20
216.8936118900178087
 30
0.0
 11
4363.5836479874669749
 21
216.8936118900178087
 31
0.0
  0
LINE
  5
19EF7
  8
0
 10
4362.9896233827657852
 20
217.6713729024178008
 30
0.0
 11
4363.6613732865671409
 21
216.9996229986178093
 31
0.0
  0
LINE
  5
19EF8
  8
0
 10
4362.9781105158663195
 20
213.4521327916177995
 30
0.0
 11
4363.3207063890667996
 21
213.7888120050178031
 31
0.0
  0
LINE
  5
19EF9
  8
0
 10
4365.7641815642664369
 20
218.5038772901177992
 30
0.0
 11
4367.890165816265835
 21
218.5038772901177992
 31
0.0
  0
LINE
  5
19EFA
  8
0
 10
4365.7641815642664369
 20
219.3158772901178111
 30
0.0
 11
4367.890165816265835
 21
219.3158772901178111
 31
0.0
  0
LINE
  5
19EFB
  8
0
 10
4367.890165816265835
 20
217.7683846882177932
 30
0.0
 11
4367.890165816265835
 21
220.051369892067811
 31
0.0
  0
ARC
  5
19EFC
  8
0
 10
4367.929565816266404
 20
220.051369892067811
 30
0.0
 40
0.0394
 50
90.0
 51
180.0
  0
ARC
  5
19EFD
  8
0
 10
4367.929565816266404
 20
217.7683846882177932
 30
0.0
 40
0.0394
 50
180.0
 51
270.0
  0
LINE
  5
19EFE
  8
0
 10
4368.1657563674662015
 20
217.7589846882177937
 30
0.0
 11
4368.1657563674662015
 21
220.0607698920678104
 31
0.0
  0
ARC
  5
19EFF
  8
0
 10
4368.1357563674655466
 20
220.0607698920678104
 30
0.0
 40
0.03
 50
0.0
 51
90.0
  0
ARC
  5
19F00
  8
0
 10
4359.4719557600801636
 20
216.9621635924090128
 30
0.0
 40
0.0395246295502066
 50
138.8181181641056128
 51
222.3392206047057869
  0
ARC
  5
19F01
  8
0
 10
4360.1696417298671804
 20
216.0868019845177912
 30
0.0
 40
0.0118110236
 50
140.0000000000165983
 51
220.999999998800007
  0
ARC
  5
19F02
  8
0
 10
4360.2287271183849953
 20
216.018832021373413
 30
0.0
 40
0.0118110248990322
 50
220.982576367946308
 51
301.9999976752031898
  0
ARC
  5
19F03
  8
0
 10
4360.2178679001663113
 20
216.9025442735178046
 30
0.0
 40
0.6085961616
 50
217.204207957697804
 51
219.0318960827075045
  0
ARC
  5
19F04
  8
0
 10
4359.8068856675263305
 20
217.303099206223493
 30
0.0
 40
0.0393828317860175
 50
44.9995549246796784
 51
135.4813149936315142
  0
ARC
  5
19F05
  8
0
 10
4359.7268104283657522
 20
216.5624013009177986
 30
0.0
 40
0.0118110236
 50
138.0000000000011937
 51
218.9999999997837108
  0
ARC
  5
19F06
  8
0
 10
4359.783487706366941
 20
216.4924106915177902
 30
0.0
 40
0.0118110236
 50
220.9610489951928969
 51
299.9999999998148041
  0
ARC
  5
19F07
  8
0
 10
4360.6192758444913125
 20
215.6154142643576961
 30
0.0
 40
0.0118110247080877
 50
142.0000019834764942
 51
223.0173387465302994
  0
ARC
  5
19F08
  8
0
 10
4360.680697356168821
 20
215.5495477572299023
 30
0.0
 40
0.0118110247707273
 50
222.9826200335444923
 51
303.9999979048153023
  0
ARC
  5
19F09
  8
0
 10
4360.9809348900680561
 20
216.6301673130178074
 30
0.0
 40
0.3149606299
 50
224.9999999999953957
 51
314.0000000000152909
  0
ARC
  5
19F0A
  8
0
 10
4362.6201676971659253
 20
214.9909345059178065
 30
0.0
 40
0.3149606299
 50
135.999999999985306
 51
224.9999999999953957
  0
ARC
  5
19F0B
  8
0
 10
4362.2719104495126885
 20
216.2818542201839875
 30
0.0
 40
0.5280542528073247
 50
84.4541843117593629
 51
96.8200476034419637
  0
ARC
  5
19F0C
  8
0
 10
4362.2718547745462274
 20
216.281910062350903
 30
0.0
 40
0.5280540836812265
 50
353.1799505074598073
 51
5.545817798604304
  0
ARC
  5
19F0D
  8
0
 10
4362.6069528332664049
 20
216.9917190431177971
 30
0.0
 40
0.23
 50
169.3359440737091006
 51
202.4596895364965974
  0
ARC
  5
19F0E
  8
0
 10
4362.9817194272663983
 20
216.6169524491178038
 30
0.0
 40
0.23
 50
247.5403104634993952
 51
280.6640559263034902
  0
ARC
  5
19F0F
  8
0
 10
4362.8113235998671371
 20
215.9256631439178022
 30
0.0
 40
0.1968503937
 50
315.9999999999849933
 51
44.9999999999953886
  0
ARC
  5
19F10
  8
0
 10
4361.9156635280660339
 20
216.821323215717797
 30
0.0
 40
0.1968503937
 50
44.9999999999953886
 51
134.0000000000152909
  0
ARC
  5
19F11
  8
0
 10
4362.8671094246656139
 20
216.3397078868177914
 30
0.0
 40
0.07
 50
67.5403104634994094
 51
185.5465202009021084
  0
ARC
  5
19F12
  8
0
 10
4362.3297082709668757
 20
216.8771090405178086
 30
0.0
 40
0.07
 50
264.4534797990822881
 51
22.4596895364965796
  0
ARC
  5
19F13
  8
0
 10
4362.9754804780141058
 20
217.657231535803902
 30
0.0
 40
0.0200000001139
 50
44.9968841739865084
 51
134.999999864849201
  0
ARC
  5
19F14
  8
0
 10
4362.87361227416568
 20
217.5411098411177875
 30
0.0
 40
0.01
 50
315.0000000000046043
 51
0.0
  0
ARC
  5
19F15
  8
0
 10
4365.7641815642664369
 20
216.8232631169177864
 30
0.0
 40
2.4926141731999989
 50
90.0
 51
135.0000000000046043
  0
ARC
  5
19F16
  8
0
 10
4365.7641815642664369
 20
216.8232631169177864
 30
0.0
 40
1.6806141731999991
 50
90.0
 51
135.0000000000046043
  0
ARC
  5
19F17
  8
0
 10
4363.2931071404127579
 20
213.8168920742610908
 30
0.0
 40
0.039372691233221
 50
314.505232700907527
 51
45.0014957478965982
  0
ARC
  5
19F18
  8
0
 10
4363.6472319199519916
 20
216.985480093864993
 30
0.0
 40
0.0200000001139047
 50
315.0000001351658057
 51
45.0031158259976465
  0
ARC
  5
19F19
  8
0
 10
4363.5311102252671844
 20
216.8836118900177894
 30
0.0
 40
0.01
 50
90.0
 51
135.0000000000046043
  0
ARC
  5
19F1A
  8
0
 10
4362.883843239403177
 20
216.8938428552540927
 30
0.0
 40
0.4946250085217736
 50
22.6669602895583608
 51
67.3330397104360827
  0
ARC
  5
19F1B
  8
0
 10
4363.0677385797616807
 20
217.3352102525562941
 30
0.0
 40
0.016484997466936
 50
65.9420714925082621
 51
84.193482115456078
  0
ARC
  5
19F1C
  8
0
 10
4363.0686087648891771
 20
217.3441035076841956
 30
0.0
 40
0.0075494122129309
 50
83.9353983353043844
 51
108.2425254780779937
  0
ARC
  5
19F1D
  8
0
 10
4363.0677635430201917
 20
217.3469080607399064
 30
0.0
 40
0.0046218396442671
 50
109.1747530247015021
 51
134.557221329450698
  0
ARC
  5
19F1E
  8
0
 10
4363.3251469041133532
 20
217.0777211994856088
 30
0.0
 40
0.0165501257979664
 50
5.8427336736971842
 51
24.0217112890943802
  0
ARC
  5
19F1F
  8
0
 10
4363.3355830826967576
 20
217.0784987570330031
 30
0.0
 40
0.0060958566822618
 50
319.2593155880920222
 51
8.5588507204964426
  0
ARC
  5
19F20
  8
0
 10
4362.7301741842302363
 20
216.871479863041003
 30
0.0
 40
0.102110255532518
 50
136.183318548132803
 51
177.8949723533555982
  0
ARC
  5
19F21
  8
0
 10
4362.8187558353492932
 20
216.8719288193709076
 30
0.0
 40
0.1906515915062253
 50
179.0077045179851893
 51
213.5956985838116964
  0
ARC
  5
19F22
  8
0
 10
4362.9171449869018033
 20
216.9269477671417121
 30
0.0
 40
0.303172039398462
 50
211.9677595669311074
 51
234.6019374875033066
  0
ARC
  5
19F23
  8
0
 10
4362.878608243257986
 20
216.867844243338908
 30
0.0
 40
0.2326885314935183
 50
233.9068507924166056
 51
256.3216317158413062
  0
ARC
  5
19F24
  8
0
 10
4362.8554805939220387
 20
216.7682537740151929
 30
0.0
 40
0.1304580332764679
 50
255.8479269682424047
 51
290.5162025814175877
  0
ARC
  5
19F25
  8
0
 10
4362.8664099899733628
 20
216.732530849953605
 30
0.0
 40
0.0931984369740942
 50
291.920306878304018
 51
314.8830789457105084
  0
ARC
  5
19F26
  8
0
 10
5497.007376059271337
 20
1351.0175024765080707
 30
0.0
 40
1606.2985996481070288
 50
224.9121595341094917
 51
225.0878468232619127
  0
ARC
  5
19F27
  8
0
 10
4362.9521682425311155
 20
213.4819634469891128
 30
0.0
 40
0.039533144899466
 50
227.6625216608674975
 51
311.0119008943029826
  0
ARC
  5
19F28
  8
0
 10
4359.4705749612849104
 20
216.9607271949280118
 30
0.0
 40
0.0394814026923596
 50
135.9286168256583096
 51
220.9867963825680022
  0
ARC
  5
19F29
  8
0
 10
4358.0508773171550274
 20
214.882607487747606
 30
0.0
 40
2.4178576480698091
 50
41.4523533795967367
 51
46.175845999789253
  0
ARC
  5
19F2A
  8
0
 10
4360.2141975489321339
 20
217.0364274156519002
 30
0.0
 40
0.6378232627693651
 50
219.9328634405088962
 51
223.0197005045602907
  0
ARC
  5
19F2B
  8
0
 10
4360.1587184876825631
 20
216.8213444928813942
 30
0.0
 40
0.4491442224023256
 50
223.8631029790450953
 51
228.8348139114470996
  0
ARC
  5
19F2C
  8
0
 10
4357.6332689030195979
 20
214.6323717898762879
 30
0.0
 40
2.884949225731273
 50
42.9487826812988018
 51
43.6556824354571518
  0
ARC
  5
19F2D
  8
0
 10
4364.7661501279826552
 20
221.1936696805157112
 30
0.0
 40
6.8074130530957202
 50
222.1667374510408024
 51
222.456997333028113
  0
ARC
  5
19F2E
  8
0
 10
4357.8508735352470467
 20
214.8722033452112044
 30
0.0
 40
2.561148205310432
 50
42.3619146998116989
 51
43.1432757371982802
  0
ARC
  5
19F2F
  8
0
 10
4304.1456703052854209
 20
165.6824509545697026
 30
0.0
 40
75.3887320707167987
 50
42.4831664496221535
 51
42.5095261735066074
  0
ARC
  5
19F30
  8
0
 10
4358.4904369352771027
 20
215.2521063720743939
 30
0.0
 40
1.835552029186531
 50
41.9156967780962333
 51
43.1390323853035724
  0
ARC
  5
19F31
  8
0
 10
4361.3351679946617878
 20
217.9203577569516028
 30
0.0
 40
2.0655381260176089
 50
223.2183946710804037
 51
224.2780025920438902
  0
ARC
  5
19F32
  8
0
 10
4340.6276059002302645
 20
198.7147338333898858
 30
0.0
 40
26.1762078110277585
 50
42.7325011170764171
 51
42.8160834857659296
  0
ARC
  5
19F33
  8
0
 10
4365.5921304834591865
 20
221.8506062371731105
 30
0.0
 40
7.860620248061589
 50
222.847203438724307
 51
223.1235514178225969
  0
ARC
  5
19F34
  8
0
 10
4359.8602976129668605
 20
214.7900290241456958
 30
0.0
 40
1.197107789672424
 50
40.1527702381919482
 51
49.6692157656771514
  0
ARC
  5
19F35
  8
0
 10
4360.8047157696582872
 20
215.8224119697983951
 30
0.0
 40
0.2076874409537279
 50
215.2287473166128109
 51
225.1015396684699965
  0
ARC
  5
19F36
  8
0
 10
4360.931963922182149
 20
215.7750139019699134
 30
0.0
 40
0.2644669395875407
 50
225.4885075299181096
 51
233.6689194629041992
  0
ARC
  5
19F37
  8
0
 10
4360.4391103036587083
 20
215.2863558365671963
 30
0.0
 40
0.4145877787714572
 50
39.1810490735989703
 51
44.6830682826293568
  0
ARC
  5
19F38
  8
0
 10
4361.0257700620522883
 20
215.8657100567151019
 30
0.0
 40
0.4136909354676995
 50
224.9457912052810968
 51
230.1128717244938002
  0
ARC
  5
19F39
  8
0
 10
4360.34683409902118
 20
215.3631739998990042
 30
0.0
 40
0.4260237101131455
 50
44.833448943726502
 51
49.9981115401861373
  0
ARC
  5
19F3A
  8
0
 10
4360.9574510581060167
 20
215.968452357318597
 30
0.0
 40
0.4372801751825324
 50
219.6342593627784936
 51
224.3070967113669099
  0
ARC
  5
19F3B
  8
0
 10
4360.0461249369809593
 20
215.0761616140972023
 30
0.0
 40
0.8298542916919521
 50
44.3651977875159531
 51
46.9389016505716086
  0
ARC
  5
19F3C
  8
0
 10
4426.3573240996784079
 20
276.231066777268893
 30
0.0
 40
89.3783167626822035
 50
222.6440445202597971
 51
222.6669402957541024
  0
ARC
  5
19F3D
  8
0
 10
4360.1337796163888925
 20
214.9919338856531112
 30
0.0
 40
0.8261077853690402
 50
41.5892016397862392
 51
44.2535086102173807
  0
ARC
  5
19F3E
  8
0
 10
4361.5905302748124086
 20
216.4300984850632119
 30
0.0
 40
1.2228999602645541
 50
224.9860747492122925
 51
226.6872364707759004
  0
ARC
  5
19F3F
  8
0
 10
4360.3346785209678274
 20
214.3444254599617125
 30
0.0
 40
1.1766657476017379
 50
40.1690522589886569
 51
49.8484606676592392
  0
ARC
  5
19F40
  8
0
 10
4361.2960293705073127
 20
215.3915435917114962
 30
0.0
 40
0.2507674941821527
 50
216.0977832162141965
 51
224.496346353381
  0
ARC
  5
19F41
  8
0
 10
4361.3903021325395457
 20
215.3175821318650094
 30
0.0
 40
0.2652325776120884
 50
225.9004063320367948
 51
233.8446861624638871
  0
ARC
  5
19F42
  8
0
 10
4360.9220838482151521
 20
214.8488122822583932
 30
0.0
 40
0.3814210097402718
 50
38.9138770860899186
 51
44.8136784157626096
  0
ARC
  5
19F43
  8
0
 10
4361.4679278496087136
 20
215.3945145905414051
 30
0.0
 40
0.3946357459786529
 50
225.5648126632621029
 51
230.8669687297031885
  0
ARC
  5
19F44
  8
0
 10
4360.8267763093690519
 20
214.9186449714293019
 30
0.0
 40
0.3994523332117378
 50
45.3204351480389391
 51
50.9533156359827117
  0
ARC
  5
19F45
  8
0
 10
4361.6401758478950796
 20
215.6970663200395109
 30
0.0
 40
0.7312886148033541
 50
219.8090334012578921
 51
222.6753888627224001
  0
ARC
  5
19F46
  8
0
 10
4360.7361709381102628
 20
214.6598246932040865
 30
0.0
 40
0.6320069280383115
 50
41.5243679910409469
 51
44.9837662992109415
  0
ARC
  5
19F47
  8
0
 10
4361.8412799634561452
 20
215.7755839690088919
 30
0.0
 40
0.9406644424623808
 50
225.5807663732028914
 51
227.793561893425192
  0
ARC
  5
19F48
  8
0
 10
4360.5731185449467375
 20
214.6656425390044092
 30
0.0
 40
0.743194398467301
 50
45.2221321291964884
 51
48.1636528046017673
  0
ARC
  5
19F49
  8
0
 10
4361.7238572218529953
 20
215.8097564232670038
 30
0.0
 40
0.8818290291638836
 50
222.0293715911984975
 51
224.3901623424499974
  0
ARC
  5
19F4A
  8
0
 10
4359.2807243998104241
 20
215.1367747277490992
 30
0.0
 40
1.3625823508032939
 50
40.4657810848377792
 51
48.8303950617219229
  0
ARC
  5
19F4B
  8
0
 10
4360.3653571018558068
 20
216.2988419972338932
 30
0.0
 40
0.2319713243573165
 50
216.0044840633107981
 51
224.6141554160925864
  0
ARC
  5
19F4C
  8
0
 10
4360.5342372064269512
 20
216.2962341481195097
 30
0.0
 40
0.3503435948039821
 50
225.4527396981530103
 51
231.7555940902709892
  0
ARC
  5
19F4D
  8
0
 10
4359.7237016297876835
 20
215.6716522298395091
 30
0.0
 40
0.654458139093164
 50
44.1572518795967923
 51
47.4114234736867033
  0
ARC
  5
19F4E
  8
0
 10
4361.0160677019966897
 20
216.9073565009107938
 30
0.0
 40
1.1357507860292639
 50
221.5876227933636926
 51
223.3500667501598969
  0
ARC
  5
19F4F
  8
0
 10
4359.8593774934806788
 20
215.630931837387493
 30
0.0
 40
0.5856775430408871
 50
40.4329361859039196
 51
44.3325848302266721
  0
ARC
  5
19F50
  8
0
 10
4360.8589894368087698
 20
216.6107888354650015
 30
0.0
 40
0.8165316892821864
 50
224.6335803535748994
 51
227.2927931063028097
  0
ARC
  5
19F51
  8
0
 10
4359.114842118146953
 20
214.92695034307161
 30
0.0
 40
1.6029506829936431
 50
42.3341919544733827
 51
43.7027301049135701
  0
ARC
  5
19F52
  8
0
 10
4362.5513107427632349
 20
218.2394188972704114
 30
0.0
 40
3.171030434534031
 50
224.0857177344360025
 51
224.762804929246812
  0
ARC
  5
19F53
  8
0
 10
4358.3460308310559412
 20
214.3613820582039864
 30
0.0
 40
2.5495035112947981
 50
43.755244320094981
 51
44.5635759385111285
  0
ARC
  5
19F54
  8
0
 10
4362.1359910260080142
 20
217.9665163226150071
 30
0.0
 40
2.682001140390168
 50
222.6222017790398127
 51
223.3711171373259958
  0
ARC
  5
19F55
  8
0
 10
4359.7903843825615695
 20
216.4993746866512936
 30
0.0
 40
0.0129120602357651
 50
247.0166204878399014
 51
299.3580857313842785
  0
ARC
  5
19F56
  8
0
 10
4359.7973221900892895
 20
216.5137659865210082
 30
0.0
 40
0.0288801246266205
 50
228.8690577586322945
 51
245.493217480953092
  0
ARC
  5
19F57
  8
0
 10
4359.9020812277003643
 20
216.6304647469223994
 30
0.0
 40
0.185699582552912
 50
221.6580145263177997
 51
228.2078362535619931
  0
ARC
  5
19F58
  8
0
 10
4360.0405911609859686
 20
216.7577377059010075
 30
0.0
 40
0.3737922874415087
 50
213.3815663796075057
 51
222.1214937550334128
  0
ARC
  5
19F59
  8
0
 10
4359.7754973366936611
 20
216.5830823668312064
 30
0.0
 40
0.0563348550413281
 50
202.2392719475012939
 51
213.3981171735262876
  0
ARC
  5
19F5A
  8
0
 10
4359.7377071018672723
 20
216.5676800721234088
 30
0.0
 40
0.0155264636373517
 50
171.517791655741604
 51
202.4095070642543135
  0
ARC
  5
19F5B
  8
0
 10
4359.7346579034920069
 20
216.5679014837591865
 30
0.0
 40
0.0124800933875986
 50
138.1302978337089087
 51
170.4582538775183878
  0
ARC
  5
19F5C
  8
0
 10
4359.7849328101774518
 20
216.4938068561276054
 30
0.0
 40
0.0119840802714661
 50
273.3232668823839049
 51
300.0375166427600107
  0
ARC
  5
19F5D
  8
0
 10
4359.7849057476651069
 20
216.4946887906075972
 30
0.0
 40
0.0128661230389607
 50
241.4367506328337072
 51
273.2159073333979222
  0
ARC
  5
19F5E
  8
0
 10
4359.792894373841591
 20
216.5079648359119062
 30
0.0
 40
0.0283538151820264
 50
224.1992179717267959
 51
240.0854105969964962
  0
ARC
  5
19F5F
  8
0
 10
4359.9133087828058706
 20
216.6323266744900025
 30
0.0
 40
0.2014482277803674
 50
221.5851891847906074
 51
225.6811965329071938
  0
ARC
  5
19F60
  8
0
 10
4360.1875550789263798
 20
216.8766830589445931
 30
0.0
 40
0.5687640007049155
 50
218.9312304657802031
 51
221.660226755725887
  0
ARC
  5
19F61
  8
0
 10
4359.9099341899309366
 20
216.6723866870325992
 30
0.0
 40
0.2241833508032668
 50
212.0108995136478995
 51
217.9395902210916063
  0
ARC
  5
19F62
  8
0
 10
4359.735957085510563
 20
216.5646685871132888
 30
0.0
 40
0.0195805691130437
 50
186.3474916705148132
 51
214.5944446123313867
  0
ARC
  5
19F63
  8
0
 10
4359.7286532757370878
 20
216.5634122104590915
 30
0.0
 40
0.0121906172716785
 50
138.1265788795917047
 51
184.2735023008241058
  0
ARC
  5
19F64
  8
0
 10
4360.373065527682229
 20
217.0276042259519897
 30
0.0
 40
0.8080707602264137
 50
215.7955110242932051
 51
222.2132512981567913
  0
ARC
  5
19F65
  8
0
 10
4359.667484376342145
 20
216.4564165336580004
 30
0.0
 40
0.1130190254619768
 50
26.9769551689027587
 51
51.023044936931413
  0
ARC
  5
19F66
  8
0
 10
4359.841578734120958
 20
216.5973953651223951
 30
0.0
 40
0.1158941179976709
 50
207.2795096575910065
 51
230.7204904482208008
  0
ARC
  5
19F67
  8
0
 10
4359.6180422787256248
 20
216.4163791108688031
 30
0.0
 40
0.168290319087985
 50
30.9895481224451999
 51
47.0104519775181089
  0
ARC
  5
19F68
  8
0
 10
4359.8781047868706082
 20
216.6269735779729899
 30
0.0
 40
0.1696187459276764
 50
211.052691796060202
 51
226.9473083038633945
  0
ARC
  5
19F69
  8
0
 10
4360.1249928658908175
 20
215.9883232693019011
 30
0.0
 40
0.1126860179671796
 50
28.9403748402770411
 51
53.0596251574187576
  0
ARC
  5
19F6A
  8
0
 10
4360.2935471124574178
 20
216.134845240438608
 30
0.0
 40
0.1155611341103537
 50
209.2447530471083894
 51
232.7552469505841941
  0
ARC
  5
19F6B
  8
0
 10
4360.0709042726630287
 20
215.9413047707550106
 30
0.0
 40
0.1678917291215611
 50
32.9702531485888315
 51
49.0297469137261928
  0
ARC
  5
19F6C
  8
0
 10
4360.3240277233799134
 20
216.1613416297348067
 30
0.0
 40
0.1707643038068206
 50
213.1061972032003098
 51
228.8938028590833937
  0
ARC
  5
19F6D
  8
0
 10
4359.9393382082325843
 20
215.8269361345440132
 30
0.0
 40
0.3350022008234385
 50
36.9949749611317102
 51
45.0050250067393023
  0
ARC
  5
19F6E
  8
0
 10
4360.4459341418560143
 20
216.2673132608256878
 30
0.0
 40
0.3378732235911015
 50
217.0290618388906978
 51
224.9709381289935095
  0
ARC
  5
19F6F
  8
0
 10
4360.2461190899230132
 20
216.0351138193910003
 30
0.0
 40
0.0127055650580055
 50
258.6959671781087877
 51
301.619503032988689
  0
ARC
  5
19F70
  8
0
 10
4360.2499731129937572
 20
216.046162177307707
 30
0.0
 40
0.0243485683344441
 50
231.0078092633937104
 51
254.8961132580650997
  0
ARC
  5
19F71
  8
0
 10
4360.2943371477040273
 20
216.1038784442125973
 30
0.0
 40
0.0971393037175259
 50
226.5742646871275952
 51
232.0900805960326068
  0
ARC
  5
19F72
  8
0
 10
4360.5003523025970935
 20
216.3154445505091985
 30
0.0
 40
0.3924325800019268
 50
218.1000270053309009
 51
225.9627489623233032
  0
ARC
  5
19F73
  8
0
 10
4360.254820907537578
 20
216.1312875805915894
 30
0.0
 40
0.0858366196045278
 50
207.0042041727492972
 51
222.4979868967475909
  0
ARC
  5
19F74
  8
0
 10
4360.1944024721387905
 20
216.1022869542723015
 30
0.0
 40
0.0189048756666964
 50
179.9492804073121874
 51
211.8426649985713937
  0
ARC
  5
19F75
  8
0
 10
4360.1880468142508107
 20
216.101821889706514
 30
0.0
 40
0.0125584557885728
 50
140.1988440898776105
 51
177.8013331451660122
  0
ARC
  5
19F76
  8
0
 10
4360.1762164849296823
 20
216.0917655702027957
 30
0.0
 40
0.0123978370595797
 50
140.4521830430551859
 51
196.7111222555720929
  0
ARC
  5
19F77
  8
0
 10
4360.1937882572037779
 20
216.0984872390125133
 30
0.0
 40
0.0311910560527564
 50
199.2562719608760915
 51
215.8494858123196991
  0
ARC
  5
19F78
  8
0
 10
4360.5245359882410412
 20
216.3381196303008949
 30
0.0
 40
0.4396243119680303
 50
215.9186878133043876
 51
221.745740033889092
  0
ARC
  5
19F79
  8
0
 10
4360.565487660924191
 20
216.3679094763938053
 30
0.0
 40
0.4900394181819632
 50
221.1564154491186969
 51
224.3419905271451
  0
ARC
  5
19F7A
  8
0
 10
4360.2888267768003061
 20
216.0949662063563892
 30
0.0
 40
0.1014226254336183
 50
223.3055826941429984
 51
231.3303665970803991
  0
ARC
  5
19F7B
  8
0
 10
4360.235274511872376
 20
216.0274709668211983
 30
0.0
 40
0.0152682024546365
 50
229.9739558681002052
 51
263.57255715666588
  0
ARC
  5
19F7C
  8
0
 10
4360.2346339709938547
 20
216.0243650954998884
 30
0.0
 40
0.0121135918665056
 50
264.9388082143785255
 51
301.9492782985392978
  0
ARC
  5
19F7D
  8
0
 10
4360.2299598903491642
 20
216.0200006724599007
 30
0.0
 40
0.0118848425156734
 50
266.128338059554892
 51
301.9830413134096716
  0
ARC
  5
19F7E
  8
0
 10
4360.2302531411924065
 20
216.021182084147398
 30
0.0
 40
0.0130850894622077
 50
229.7342124534906986
 51
265.1964620399426735
  0
ARC
  5
19F7F
  8
0
 10
4360.3362605492666262
 20
216.1362307454068059
 30
0.0
 40
0.1695154982058927
 50
221.4165413132417086
 51
227.5267034344286117
  0
ARC
  5
19F80
  8
0
 10
4360.1710255992647944
 20
216.0878339868463058
 30
0.0
 40
0.0119437999184589
 50
140.0905227726879048
 51
195.344345503292999
  0
ARC
  5
19F81
  8
0
 10
4360.1756005727193042
 20
216.0894648143699044
 30
0.0
 40
0.0167911416700771
 50
196.5799054087210038
 51
216.4081464143449125
  0
ARC
  5
19F82
  8
0
 10
4360.332480309046332
 20
216.2020331557635018
 30
0.0
 40
0.2098775890657507
 50
215.7209194046353105
 51
220.6288571225748001
  0
ARC
  5
19F83
  8
0
 10
4360.881690948407595
 20
216.6502164086734865
 30
0.0
 40
0.9187011032419967
 50
219.5388595494760011
 51
221.0064051544142956
  0
ARC
  5
19F84
  8
0
 10
4361.037310318793061
 20
216.781051455607809
 30
0.0
 40
1.1219887490501279
 50
220.834017687515086
 51
222.427690290965387
  0
ARC
  5
19F85
  8
0
 10
4360.5870664347376078
 20
215.5238070119328029
 30
0.0
 40
0.1124870468576343
 50
30.9184102181929816
 51
55.0815898884542321
  0
ARC
  5
19F86
  8
0
 10
4360.7501068394185495
 20
215.675844649231891
 30
0.0
 40
0.1153621820804472
 50
211.2238865638591108
 51
234.7761135427751071
  0
ARC
  5
19F87
  8
0
 10
4360.5313419141739359
 20
215.4718430544405123
 30
0.0
 40
0.1675886202843824
 50
34.9555422827890894
 51
51.0444576732630892
  0
ARC
  5
19F88
  8
0
 10
4360.7749336066290198
 20
215.6989959823378058
 30
0.0
 40
0.1687675738350251
 50
215.0121064180954136
 51
230.9878935379441032
  0
ARC
  5
19F89
  8
0
 10
4360.4022463178025646
 20
215.3514594614186137
 30
0.0
 40
0.3316846440319414
 50
38.9548383071416211
 51
47.0451617213495368
  0
ARC
  5
19F8A
  8
0
 10
4360.890283913508938
 20
215.8065618828389063
 30
0.0
 40
0.3372614805796058
 50
219.0218363508083996
 51
226.9781638273256021
  0
ARC
  5
19F8B
  8
0
 10
4360.7062233966180429
 20
215.5750193970679049
 30
0.0
 40
0.0130703469204798
 50
247.2840861743028995
 51
303.1537993900811898
  0
ARC
  5
19F8C
  8
0
 10
4360.7220328675221026
 20
215.6066137499684032
 30
0.0
 40
0.0483776813426034
 50
227.6939234851498952
 51
244.4611312806044054
  0
ARC
  5
19F8D
  8
0
 10
4360.9308642286869144
 20
215.8441452998000045
 30
0.0
 40
0.3646494828373493
 50
217.1677179270072884
 51
228.5482589848892019
  0
ARC
  5
19F8E
  8
0
 10
4360.6682601383281508
 20
215.6464568638735102
 30
0.0
 40
0.0359719793786328
 50
195.9297860253768988
 51
218.952330181555908
  0
ARC
  5
19F8F
  8
0
 10
4360.6462276082093013
 20
215.6391916479634858
 30
0.0
 40
0.0128259536308111
 50
142.5245359440490063
 51
191.7304881729068882
  0
ARC
  5
19F90
  8
0
 10
4360.6918648357313941
 20
215.5603218505042094
 30
0.0
 40
0.0120748376598859
 50
269.8339955466316837
 51
303.9827927141083137
  0
ARC
  5
19F91
  8
0
 10
4360.6919437485939852
 20
215.5617060125836986
 30
0.0
 40
0.0134594309836419
 50
242.7559922573273923
 51
269.5151410247373178
  0
ARC
  5
19F92
  8
0
 10
4360.7020973681028408
 20
215.5796406505693028
 30
0.0
 40
0.0340624254106292
 50
228.3335623299302028
 51
241.3814439426948013
  0
ARC
  5
19F93
  8
0
 10
4360.9832929404246897
 20
215.8917986488660006
 30
0.0
 40
0.4541970250014299
 50
221.9442359732084071
 51
228.0130863230104978
  0
ARC
  5
19F94
  8
0
 10
4360.8199002620222018
 20
215.7554871428704075
 30
0.0
 40
0.2416813906875244
 50
214.5184490557120114
 51
223.7996208092907864
  0
ARC
  5
19F95
  8
0
 10
4360.6314817987431525
 20
215.6255159916981938
 30
0.0
 40
0.0127881587330007
 50
142.8762849544847029
 51
213.0956370251076066
  0
ARC
  5
19F96
  8
0
 10
4360.6834574809399783
 20
215.5525380148770012
 30
0.0
 40
0.0121338850668363
 50
233.8621550030661922
 51
303.5517681865496229
  0
ARC
  5
19F97
  8
0
 10
4360.7611245444577435
 20
215.6459869112439947
 30
0.0
 40
0.1336229787099354
 50
223.9959232187219129
 51
230.5954515008862131
  0
ARC
  5
19F98
  8
0
 10
4361.3936558355298985
 20
216.2743286613641942
 30
0.0
 40
1.0251880593680349
 50
222.7458126933580047
 51
224.7035682774244947
  0
ARC
  5
19F99
  8
0
 10
4361.0164267654090509
 20
215.9358228586750954
 30
0.0
 40
0.5184553103406423
 50
218.9555907905892127
 51
223.5695907257108956
  0
ARC
  5
19F9A
  8
0
 10
4360.6233608715601804
 20
215.6181011025273904
 30
0.0
 40
0.0130368852020297
 50
175.2587742191350912
 51
219.2037236261541011
  0
ARC
  5
19F9B
  8
0
 10
4360.6222039922140539
 20
215.6180375436952943
 30
0.0
 40
0.011890280651256
 50
142.0215199361707903
 51
174.4927509595787001
  0
ARC
  5
19F9C
  8
0
 10
4361.0502187303345636
 20
215.0602183511028045
 30
0.0
 40
0.1124208610188903
 50
32.9110858797157988
 51
57.0889142923794921
  0
ARC
  5
19F9D
  8
0
 10
4361.207355428990013
 20
215.217355050230708
 30
0.0
 40
0.1147386615228494
 50
213.158865839597695
 51
236.8411343324879113
  0
ARC
  5
19F9E
  8
0
 10
4360.9953947515768959
 20
215.0053943705241863
 30
0.0
 40
0.1674878009840519
 50
36.9506372744052527
 51
53.049362898355092
  0
ARC
  5
19F9F
  8
0
 10
4361.2319757264713189
 20
215.2419753461319942
 30
0.0
 40
0.1703603764740023
 50
217.0872408279635977
 51
232.9127593447670108
  0
ARC
  5
19FA0
  8
0
 10
4360.8671590424501119
 20
214.8771586600011858
 30
0.0
 40
0.3341869171019326
 50
40.9851730840964521
 51
49.0148269158873902
  0
ARC
  5
19FA1
  8
0
 10
4361.3396349007971367
 20
215.3496345183488074
 30
0.0
 40
0.3356315237100138
 50
221.0024816347780074
 51
228.9975183652373119
  0
ARC
  5
19FA2
  8
0
 10
4361.1053969519898601
 20
215.1774826523559057
 30
0.0
 40
0.0129688922984263
 50
144.612460944663809
 51
200.609885353308897
  0
ARC
  5
19FA3
  8
0
 10
4361.139936748776563
 20
215.1934442487446972
 30
0.0
 40
0.0509925741897694
 50
203.7372299366718096
 51
220.7143845976742966
  0
ARC
  5
19FA4
  8
0
 10
4361.391521696304153
 20
215.4007713390510048
 30
0.0
 40
0.3769879095744253
 50
219.6567982698240087
 51
228.183933817234788
  0
ARC
  5
19FA5
  8
0
 10
4361.2393741163496088
 20
215.2261976107911892
 30
0.0
 40
0.1454678865809373
 50
227.0015955891834096
 51
235.5469319677580131
  0
ARC
  5
19FA6
  8
0
 10
4361.1702209802233483
 20
215.1249346005274106
 30
0.0
 40
0.0228468951948283
 50
234.8832291409019888
 51
255.974965379243514
  0
ARC
  5
19FA7
  8
0
 10
4361.167554739159641
 20
215.1152551193150089
 30
0.0
 40
0.0128120740432451
 50
257.0526874324987148
 51
305.4924415328982832
  0
ARC
  5
19FA8
  8
0
 10
4361.1525418774035643
 20
215.0996863827006109
 30
0.0
 40
0.0124173368083492
 50
249.6024410238765938
 51
305.510088465457784
  0
ARC
  5
19FA9
  8
0
 10
4361.1674815024298368
 20
215.1287087035507
 30
0.0
 40
0.0449950701113384
 50
227.4884598048759869
 51
244.6458056679066999
  0
ARC
  5
19FAA
  8
0
 10
4361.4832092619317336
 20
215.4931586751737882
 30
0.0
 40
0.5271694748175514
 50
224.1263126387983959
 51
228.9598989442725951
  0
ARC
  5
19FAB
  8
0
 10
4361.3821070106605475
 20
215.400490070990088
 30
0.0
 40
0.3900970184241893
 50
220.6416675718593865
 51
224.6952520536196118
  0
ARC
  5
19FAC
  8
0
 10
4361.1102618159584381
 20
215.1713650778281135
 30
0.0
 40
0.0347341095707077
 50
200.706016314764895
 51
225.9283180147012047
  0
ARC
  5
19FAD
  8
0
 10
4361.0895311154981755
 20
215.1625799342870948
 30
0.0
 40
0.0122684485697017
 50
144.2138188914969135
 51
196.5558974468335975
  0
ARC
  5
19FAE
  8
0
 10
4361.1430207580660863
 20
215.0894589673835924
 30
0.0
 40
0.011897745689887
 50
260.855865913028083
 51
305.9766550066256059
  0
ARC
  5
19FAF
  8
0
 10
4361.1439647608676751
 20
215.0924204988154997
 30
0.0
 40
0.0149787676244853
 50
229.3190373441024121
 51
259.09080935937709
  0
ARC
  5
19FB0
  8
0
 10
4361.3111135620483765
 20
215.2906781567469068
 30
0.0
 40
0.2742941853105733
 50
225.740481901737212
 51
229.8362629441382126
  0
ARC
  5
19FB1
  8
0
 10
4361.9745992841490079
 20
215.9847022266264105
 30
0.0
 40
1.234431654427224
 50
223.8945543047250908
 51
226.1668864532906866
  0
ARC
  5
19FB2
  8
0
 10
4361.2318803296293481
 20
215.2752330683291007
 30
0.0
 40
0.2073500665202092
 50
218.6189623080043987
 51
224.9159755597661956
  0
ARC
  5
19FB3
  8
0
 10
4361.0796749386181546
 20
215.15294422420709
 30
0.0
 40
0.0121171637212819
 50
144.3307748541506044
 51
216.0231788541184983
  0
LINE
  5
19FB4
  8
0
 10
4362.5662315673671401
 20
213.7353640357177937
 30
0.0
 11
4362.5931881883516326
 21
213.7595937960983008
 31
0.0
  0
LINE
  5
19FB5
  8
0
 10
4362.5615496756672655
 20
213.7295754987177929
 30
0.0
 11
4362.5888664757603692
 21
213.7541527403045905
 31
0.0
  0
LINE
  5
19FB6
  8
0
 10
4362.5603048024668169
 20
213.728032743117808
 30
0.0
 11
4362.5880081332516056
 21
213.7530349624124995
 31
0.0
  0
LINE
  5
19FB7
  8
0
 10
4361.5537026232686912
 20
214.7328034114053139
 30
0.0
 11
4361.1796719632839086
 21
215.1013767337620948
 31
0.0
  0
LINE
  5
19FB8
  8
0
 10
4361.6701629912658973
 20
214.6200774100178137
 30
0.0
 11
4361.6441521916885904
 21
214.6453257101960048
 31
0.0
  0
LINE
  5
19FB9
  8
0
 10
4362.0225232205657449
 20
214.2824345384177889
 30
0.0
 11
4361.6701629917661194
 21
214.6200774091178118
 31
0.0
  0
LINE
  5
19FBA
  8
0
 10
4362.4946033683090718
 20
213.8382270398041101
 30
0.0
 11
4362.1139773967561268
 21
214.1957566483274888
 31
0.0
  0
LINE
  5
19FBB
  8
0
 10
4361.5973569353664061
 20
214.6206398617177911
 30
0.0
 11
4361.5314956624670231
 21
214.6820564923177983
 31
0.0
  0
LINE
  5
19FBC
  8
0
 10
4362.9248323156671177
 20
213.4507716160177893
 30
0.0
 11
4362.5866298026830918
 21
213.7517910209012086
 31
0.0
  0
LINE
  5
19FBD
  8
0
 10
4362.06905363999158
 20
214.1707274530544964
 30
0.0
 11
4362.0010863870656976
 21
214.2298104846177864
 31
0.0
  0
LINE
  5
19FBE
  8
0
 10
4362.0998612578659959
 20
214.1883981376178099
 30
0.0
 11
4362.1295470068971554
 21
214.2132635483218053
 31
0.0
  0
LINE
  5
19FBF
  8
0
 10
4362.089659929566551
 20
214.1766562096177893
 30
0.0
 11
4362.1193184745179678
 21
214.2015232373520917
 31
0.0
  0
LINE
  5
19FC0
  8
0
 10
4362.0854972325660128
 20
214.1718636154178057
 30
0.0
 11
4362.1152828658568978
 21
214.1968518532557084
 31
0.0
  0
LINE
  5
19FC1
  8
0
 10
4362.0843943482668692
 20
214.1705935767178062
 30
0.0
 11
4362.1141678500698617
 21
214.1955765111264895
 31
0.0
  0
LINE
  5
19FC2
  8
0
 10
4361.6369956197659121
 20
214.6460483682178051
 30
0.0
 11
4361.6695484384963493
 21
214.6714357655293952
 31
0.0
  0
LINE
  5
19FC3
  8
0
 10
4361.6232345163671198
 20
214.6312849784177956
 30
0.0
 11
4361.6557902642225599
 21
214.6567000695114871
 31
0.0
  0
LINE
  5
19FC4
  8
0
 10
4361.612686241166557
 20
214.6199682456177129
 30
0.0
 11
4361.6445936831660219
 21
214.6448970714178017
 31
0.0
  0
LINE
  5
19FC5
  8
0
 10
4361.6153547958656418
 20
214.622831190217795
 30
0.0
 11
4361.6477193047303444
 21
214.6481120904664124
 31
0.0
  0
LINE
  5
19FC6
  8
0
 10
4362.4721824291664234
 20
213.7993928340177945
 30
0.0
 11
4362.4950267153872119
 21
213.8389602984534008
 31
0.0
  0
LINE
  5
19FC7
  8
0
 10
4362.4734326480665914
 20
213.8009312606178014
 30
0.0
 11
4362.4961241275059365
 21
213.8402688013102022
 31
0.0
  0
LINE
  5
19FC8
  8
0
 10
4362.4781212716661685
 20
213.8067143463177899
 30
0.0
 11
4362.5016565079040447
 21
213.8475599345061937
 31
0.0
  0
LINE
  5
19FC9
  8
0
 10
4361.1749933723658614
 20
215.1048236296178118
 30
0.0
 11
4361.2102942346837153
 21
215.1304241797436987
 31
0.0
  0
LINE
  5
19FCA
  8
0
 10
4361.1597544414671574
 20
215.0895785060178014
 30
0.0
 11
4361.1950641369949153
 21
215.1152116416070896
 31
0.0
  0
LINE
  5
19FCB
  8
0
 10
4361.150010211065819
 20
215.0798305842178024
 30
0.0
 11
4361.1847250615783196
 21
215.1050472792746007
 31
0.0
  0
LINE
  5
19FCC
  8
0
 10
4361.9988160880666328
 20
214.2449856234177901
 30
0.0
 11
4362.0223308454669677
 21
214.2826171018178059
 31
0.0
  0
LINE
  5
19FCD
  8
0
 10
4361.9999202748658718
 20
214.2462545297177883
 30
0.0
 11
4362.0237289100523412
 21
214.2843644574145969
 31
0.0
  0
LINE
  5
19FCE
  8
0
 10
4362.0040868924670576
 20
214.2510437158177865
 30
0.0
 11
4362.0284352450544247
 21
214.290042618075887
 31
0.0
  0
LINE
  5
19FCF
  8
0
 10
4362.0142947983658814
 20
214.2627799260177994
 30
0.0
 11
4362.0391977084473183
 21
214.3027100175542046
 31
0.0
  0
LINE
  5
19FD0
  8
0
 10
4361.529756357766928
 20
214.697301612917812
 30
0.0
 11
4361.5566636294061027
 21
214.7371932835208099
 31
0.0
  0
LINE
  5
19FD1
  8
0
 10
4361.5324261794667109
 20
214.7001633761178141
 30
0.0
 11
4361.5571077105350923
 21
214.7367628628088028
 31
0.0
  0
LINE
  5
19FD2
  8
0
 10
4361.5403097131656978
 20
214.7086136084178065
 30
0.0
 11
4361.5655963233830335
 21
214.7461338062867924
 31
0.0
  0
LINE
  5
19FD3
  8
0
 10
4361.5540772139656838
 20
214.7233710325178038
 30
0.0
 11
4361.5795767413892463
 21
214.761246790934706
 31
0.0
  0
LINE
  5
19FD4
  8
0
 10
4361.0698309683666594
 20
215.1600098269177863
 30
0.0
 11
4361.095051805701587
 21
215.1947303799059057
 31
0.0
  0
LINE
  5
19FD5
  8
0
 10
4361.0795788900659318
 20
215.1697540573177889
 30
0.0
 11
4361.1052082354026425
 21
215.2050585315901969
 31
0.0
  0
LINE
  5
19FD6
  8
0
 10
4361.0948240137668108
 20
215.1849929882178003
 30
0.0
 11
4361.1204359553958056
 21
215.220309558442608
 31
0.0
  0
ARC
  5
19FD7
  8
0
 10
4362.0768023686669039
 20
214.1796413457178119
 30
0.0
 40
0.0118110236
 50
229.0000000012047963
 51
310.0000000000126192
  0
ARC
  5
19FD8
  8
0
 10
4362.0088324055222984
 20
214.2387267342357973
 30
0.0
 40
0.0118110248990322
 50
148.0000023248198033
 51
229.0174236320391117
  0
ARC
  5
19FD9
  8
0
 10
4362.8925446576658942
 20
214.2278675160177954
 30
0.0
 40
0.6085961616
 50
230.9681039172957924
 51
232.7957920423054929
  0
ARC
  5
19FDA
  8
0
 10
4362.5524016850667977
 20
213.7368100442178047
 30
0.0
 40
0.0118110236
 50
231.0000000001938076
 51
311.9999999999855049
  0
ARC
  5
19FDB
  8
0
 10
4362.4824110756662776
 20
213.7934873222177998
 30
0.0
 40
0.0118110236
 50
150.0000000001926139
 51
229.0389510048154875
  0
ARC
  5
19FDC
  8
0
 10
4361.6054146485066667
 20
214.6292754603425976
 30
0.0
 40
0.0118110247080877
 50
226.9826612534608046
 51
307.9999980165147235
  0
ARC
  5
19FDD
  8
0
 10
4361.539548141378873
 20
214.6906969720211862
 30
0.0
 40
0.0118110247707273
 50
146.000002095195299
 51
227.0173799664721912
  0
ARC
  5
19FDE
  8
0
 10
4362.950727397143055
 20
213.4805740696367877
 30
0.0
 40
0.0394809002731938
 50
229.0129198629927032
 51
313.9140804806955884
  0
ARC
  5
19FDF
  8
0
 10
4360.8726078718964345
 20
212.0608769330056873
 30
0.0
 40
2.4178576480698091
 50
43.8241540002188117
 51
48.5476466204070221
  0
ARC
  5
19FE0
  8
0
 10
4363.0264277998012403
 20
214.2241971647831065
 30
0.0
 40
0.6378232627693651
 50
226.9802994954303017
 51
230.0671365594812983
  0
ARC
  5
19FE1
  8
0
 10
4362.8113448770291143
 20
214.1687181035341894
 30
0.0
 40
0.4491442224023256
 50
221.1651860885712892
 51
226.1368970209568943
  0
ARC
  5
19FE2
  8
0
 10
4360.6223721740261681
 20
211.6432685188717073
 30
0.0
 40
2.884949225731273
 50
46.3443175645526324
 51
47.0512173187144498
  0
ARC
  5
19FE3
  8
0
 10
4367.1836700646636018
 20
218.7761497438349068
 30
0.0
 40
6.8074130530957202
 50
227.5430026669583015
 51
227.8332625489412919
  0
ARC
  5
19FE4
  8
0
 10
4360.8622037293598623
 20
211.8608731510992129
 30
0.0
 40
2.561148205310432
 50
46.8567242627841409
 51
47.6380853001701468
  0
ARC
  5
19FE5
  8
0
 10
4311.672451338718929
 20
158.1556699211361092
 30
0.0
 40
75.3887320707167987
 50
47.4904738264985795
 51
47.5168335503800279
  0
ARC
  5
19FE6
  8
0
 10
4361.2421067562236203
 20
212.5004365511279047
 30
0.0
 40
1.835552029186531
 50
46.8609676147203302
 51
48.0843032219102469
  0
ARC
  5
19FE7
  8
0
 10
4363.910358141100005
 20
215.3451676105125898
 30
0.0
 40
2.0655381260176089
 50
225.7219974079638121
 51
226.7816053289145088
  0
ARC
  5
19FE8
  8
0
 10
4344.7047342175392259
 20
194.6376055160810949
 30
0.0
 40
26.1762078110277585
 50
47.1839165142475991
 51
47.2674988829258922
  0
ARC
  5
19FE9
  8
0
 10
4367.8406066213219674
 20
219.6021300993095906
 30
0.0
 40
7.860620248061589
 50
226.8764485821774883
 51
227.1527965612526998
  0
ARC
  5
19FEA
  8
0
 10
4360.7800294082935579
 20
213.8702972288184867
 30
0.0
 40
1.197107789672424
 50
40.3307842343297835
 51
49.8472297618242379
  0
ARC
  5
19FEB
  8
0
 10
4361.8124123539473658
 20
214.8147153855094018
 30
0.0
 40
0.2076874409537279
 50
224.8984603315300035
 51
234.7712526833720972
  0
ARC
  5
19FEC
  8
0
 10
4361.7650142861193672
 20
214.9419635380342015
 30
0.0
 40
0.2644669395875407
 50
216.3310805371052936
 51
224.5114924700550887
  0
ARC
  5
19FED
  8
0
 10
4361.2763562207155701
 20
214.4491099195103914
 30
0.0
 40
0.4145877787714572
 50
45.3169317173717872
 51
50.8189509264185233
  0
ARC
  5
19FEE
  8
0
 10
4361.855710440862822
 20
215.0357696779024081
 30
0.0
 40
0.4136909354676995
 50
219.8871282755133052
 51
225.0542087947247012
  0
ARC
  5
19FEF
  8
0
 10
4361.3531743840467243
 20
214.3568337148726926
 30
0.0
 40
0.4260237101131455
 50
40.0018884598112479
 51
45.1665510562611203
  0
ARC
  5
19FF0
  8
0
 10
4361.9584527414672266
 20
214.9674506739567903
 30
0.0
 40
0.4372801751825324
 50
225.6929032886299922
 51
230.3657406372234107
  0
ARC
  5
19FF1
  8
0
 10
4361.0661619982456614
 20
214.0561245528315908
 30
0.0
 40
0.8298542916919521
 50
43.0610983494399093
 51
45.6348022124944208
  0
ARC
  5
19FF2
  8
0
 10
4422.2210671614184321
 20
280.3673237155285278
 30
0.0
 40
89.3783167626822035
 50
227.3330597042503882
 51
227.3559554797392934
  0
ARC
  5
19FF3
  8
0
 10
4360.9819342698010587
 20
214.1437792322410871
 30
0.0
 40
0.8261077853690402
 50
45.7464913897687993
 51
48.4107983602257335
  0
ARC
  5
19FF4
  8
0
 10
4362.4200988692109604
 20
215.6005298906621874
 30
0.0
 40
1.2228999602645541
 50
223.3127635292169089
 51
225.0139252507555057
  0
ARC
  5
19FF5
  8
0
 10
4360.3344258441111378
 20
214.3446781368186009
 30
0.0
 40
1.1766657476017379
 50
40.1515393323686425
 51
49.8309477410156916
  0
ARC
  5
19FF6
  8
0
 10
4361.3815439758600405
 20
215.3060289863587968
 30
0.0
 40
0.2507674941821527
 50
225.5036536466155042
 51
233.9022167837775044
  0
ARC
  5
19FF7
  8
0
 10
4361.3075825160140084
 20
215.400301748391314
 30
0.0
 40
0.2652325776120884
 50
216.1553138375286096
 51
224.0995936679885858
  0
ARC
  5
19FF8
  8
0
 10
4360.8388126664067386
 20
214.9320834640647888
 30
0.0
 40
0.3814210097402718
 50
45.1863215842396784
 51
51.0861229139190485
  0
ARC
  5
19FF9
  8
0
 10
4361.3845149746903189
 20
215.4779274654605956
 30
0.0
 40
0.3946357459786529
 50
219.1330312703074128
 51
224.4351873367587018
  0
ARC
  5
19FFA
  8
0
 10
4360.908645355578301
 20
214.8367759252205929
 30
0.0
 40
0.3994523332117378
 50
39.046684364015249
 51
44.6795648519552984
  0
ARC
  5
19FFB
  8
0
 10
4361.6870667041876004
 20
215.6501754637471038
 30
0.0
 40
0.7312886148033541
 50
227.324611137259609
 51
230.1909665987236053
  0
ARC
  5
19FFC
  8
0
 10
4360.6498250773529435
 20
214.7461705539614059
 30
0.0
 40
0.6320069280383115
 50
45.016233700782152
 51
48.4756320089521182
  0
ARC
  5
19FFD
  8
0
 10
4361.7655843531565552
 20
215.8512795793074019
 30
0.0
 40
0.9406644424623808
 50
222.2064381065856082
 51
224.419233626774087
  0
ARC
  5
19FFE
  8
0
 10
4360.6556429231532093
 20
214.5831181607985911
 30
0.0
 40
0.743194398467301
 50
41.8363471953636292
 51
44.7778678708092528
  0
ARC
  5
19FFF
  8
0
 10
4361.7997568074160881
 20
215.7338568377053036
 30
0.0
 40
0.8818290291638836
 50
225.6098376575592965
 51
227.9706284087920949
  0
ARC
  5
1A000
  8
0
 10
4361.1267751118975866
 20
213.2907240156611124
 30
0.0
 40
1.3625823508032939
 50
41.1696049382971125
 51
49.5342189151879211
  0
ARC
  5
1A001
  8
0
 10
4362.2888423813819827
 20
214.3753567177064951
 30
0.0
 40
0.2319713243573165
 50
225.3858445839235003
 51
233.9955159366992063
  0
ARC
  5
1A002
  8
0
 10
4362.2862345322682813
 20
214.5442368222780942
 30
0.0
 40
0.3503435948039821
 50
218.2444059097327056
 51
224.5472603018392022
  0
ARC
  5
1A003
  8
0
 10
4361.661652613987826
 20
213.7337012456395939
 30
0.0
 40
0.654458139093164
 50
42.5885765263132967
 51
45.8427481203850675
  0
ARC
  5
1A004
  8
0
 10
4362.8973568850587981
 20
215.0260673178474065
 30
0.0
 40
1.1357507860292639
 50
226.6499332498474928
 51
228.4123772066477045
  0
ARC
  5
1A005
  8
0
 10
4361.62093222153635
 20
213.8693771093327882
 30
0.0
 40
0.5856775430408871
 50
45.6674151697664072
 51
49.5670638140692432
  0
ARC
  5
1A006
  8
0
 10
4362.6007892196139437
 20
214.8689890526597992
 30
0.0
 40
0.8165316892821864
 50
222.7072068936994924
 51
225.3664196464112024
  0
ARC
  5
1A007
  8
0
 10
4360.9169507272199553
 20
213.1248417339978118
 30
0.0
 40
1.6029506829936431
 50
46.2972698950679913
 51
47.6658080455464983
  0
ARC
  5
1A008
  8
0
 10
4364.2294192814197231
 20
216.5613103586144064
 30
0.0
 40
3.171030434534031
 50
225.2371950707508859
 51
225.9142822655790042
  0
ARC
  5
1A009
  8
0
 10
4360.351382442351678
 20
212.3560304469083064
 30
0.0
 40
2.5495035112947981
 50
45.4364240614992312
 51
46.2447556799217168
  0
ARC
  5
1A00A
  8
0
 10
4363.9565167067630682
 20
216.1459906418591004
 30
0.0
 40
2.682001140390168
 50
226.6288828626769885
 51
227.3777982209676907
  0
ARC
  5
1A00B
  8
0
 10
4362.4893750707997242
 20
213.8003839984131957
 30
0.0
 40
0.0129120602357651
 50
150.6419142686260955
 51
202.9833795121365085
  0
ARC
  5
1A00C
  8
0
 10
4362.5037663706698368
 20
213.8073218059406884
 30
0.0
 40
0.0288801246266205
 50
204.5067825190315034
 51
221.1309422413958998
  0
ARC
  5
1A00D
  8
0
 10
4362.6204651310717963
 20
213.9120808435507968
 30
0.0
 40
0.185699582552912
 50
221.7921637464357048
 51
228.3419854737072114
  0
ARC
  5
1A00E
  8
0
 10
4362.7477380900500066
 20
214.050590776836799
 30
0.0
 40
0.3737922874415087
 50
227.878506244963603
 51
236.618433620393489
  0
ARC
  5
1A00F
  8
0
 10
4362.5730827509796654
 20
213.7854969525450031
 30
0.0
 40
0.0563348550413281
 50
236.6018828264616047
 51
247.7607280524746898
  0
ARC
  5
1A010
  8
0
 10
4362.5576804562715552
 20
213.7477067177185859
 30
0.0
 40
0.0155264636373517
 50
247.5904929357593005
 51
278.4822083442593907
  0
ARC
  5
1A011
  8
0
 10
4362.5579018679081855
 20
213.7446575193430931
 30
0.0
 40
0.0124800933875986
 50
279.5417461224625981
 51
311.8697021662883913
  0
ARC
  5
1A012
  8
0
 10
4362.4838072402762919
 20
213.7949324260283106
 30
0.0
 40
0.0119840802714661
 50
149.9624833572522107
 51
176.6767331176380935
  0
ARC
  5
1A013
  8
0
 10
4362.4846891747556583
 20
213.7949053635167047
 30
0.0
 40
0.0128661230389607
 50
176.7840926665878101
 51
208.5632493671718066
  0
ARC
  5
1A014
  8
0
 10
4362.4979652200599958
 20
213.802893989692393
 30
0.0
 40
0.0283538151820264
 50
209.9145894030025943
 51
225.8007820282485909
  0
ARC
  5
1A015
  8
0
 10
4362.6223270586378931
 20
213.9233083986570136
 30
0.0
 40
0.2014482277803674
 50
224.3188034670695004
 51
228.4148108152043051
  0
ARC
  5
1A016
  8
0
 10
4362.8666834430932795
 20
214.1975546947776934
 30
0.0
 40
0.5687640007049155
 50
228.3397732442938093
 51
231.0687695342340078
  0
ARC
  5
1A017
  8
0
 10
4362.6623870711810014
 20
213.9199338057831881
 30
0.0
 40
0.2241833508032668
 50
232.0604097789058073
 51
237.9891004863586943
  0
ARC
  5
1A018
  8
0
 10
4362.55466897126189
 20
213.7459567013628998
 30
0.0
 40
0.0195805691130437
 50
235.4055553876576141
 51
263.6525083294715728
  0
ARC
  5
1A019
  8
0
 10
4362.5534125946078348
 20
213.7386528915874067
 30
0.0
 40
0.0121906172716785
 50
265.7264976991596086
 51
311.8734211203940276
  0
ARC
  5
1A01A
  8
0
 10
4363.0176046100996246
 20
214.3830651435332015
 30
0.0
 40
0.8080707602264137
 50
227.7867487018249903
 51
234.2044889757011106
  0
ARC
  5
1A01B
  8
0
 10
4362.4464169178081647
 20
213.677483992193288
 30
0.0
 40
0.1130190254619768
 50
38.9769550630616592
 51
63.0230448311269171
  0
ARC
  5
1A01C
  8
0
 10
4362.5873957492722184
 20
213.8515783499715894
 30
0.0
 40
0.1158941179976709
 50
219.2795095517674895
 51
242.7204903424060944
  0
ARC
  5
1A01D
  8
0
 10
4362.4063794950179727
 20
213.6280418945773931
 30
0.0
 40
0.168290319087985
 50
42.9895480224818769
 51
59.0104518775539617
  0
ARC
  5
1A01E
  8
0
 10
4362.6169739621209374
 20
213.8881044027228029
 30
0.0
 40
0.1696187459276764
 50
223.0526916961287043
 51
238.9473082039525877
  0
ARC
  5
1A01F
  8
0
 10
4361.9783236534522075
 20
214.1349924817428985
 30
0.0
 40
0.1126860179671796
 50
36.9403748425832816
 51
61.0596251596979229
  0
ARC
  5
1A020
  8
0
 10
4362.1248456245866691
 20
214.3035467283091862
 30
0.0
 40
0.1155611341103537
 50
217.2447530493936938
 51
240.755246952919407
  0
ARC
  5
1A021
  8
0
 10
4361.9313051549042939
 20
214.0809038885142002
 30
0.0
 40
0.1678917291215611
 50
40.970253086300211
 51
57.0297468513960482
  0
ARC
  5
1A022
  8
0
 10
4362.1513420138826405
 20
214.3340273392308006
 30
0.0
 40
0.1707643038068206
 50
221.1061971409386899
 51
236.8938027967907942
  0
ARC
  5
1A023
  8
0
 10
4361.8169365186922732
 20
213.9493378240842105
 30
0.0
 40
0.3350022008234385
 50
44.9949749932445684
 51
53.0050250388873465
  0
ARC
  5
1A024
  8
0
 10
4362.2573136449736921
 20
214.4559337577082943
 30
0.0
 40
0.3378732235911015
 50
225.0290618710295121
 51
232.9709381610975072
  0
ARC
  5
1A025
  8
0
 10
4362.0251142035403973
 20
214.2561187057737015
 30
0.0
 40
0.0127055650580055
 50
148.380496966977006
 51
191.3040328218822026
  0
ARC
  5
1A026
  8
0
 10
4362.0361625614568766
 20
214.2599727288445877
 30
0.0
 40
0.0243485683344441
 50
195.1038867419356961
 51
218.9921907366322102
  0
ARC
  5
1A027
  8
0
 10
4362.0938788283619942
 20
214.3043367635548861
 30
0.0
 40
0.0971393037175259
 50
217.9099194039721965
 51
223.4257353128751902
  0
ARC
  5
1A028
  8
0
 10
4362.305444934658226
 20
214.5103519184492029
 30
0.0
 40
0.3924325800019268
 50
224.0372510376548121
 51
231.8999729946845036
  0
ARC
  5
1A029
  8
0
 10
4362.1212879647409864
 20
214.2648205233896874
 30
0.0
 40
0.0858366196045278
 50
227.5020131032202073
 51
242.995795827261901
  0
ARC
  5
1A02A
  8
0
 10
4362.0922873384215563
 20
214.2044020879907009
 30
0.0
 40
0.0189048756666964
 50
238.1573350014311075
 51
270.0507195927106068
  0
ARC
  5
1A02B
  8
0
 10
4362.0918222738564509
 20
214.1980464301018969
 30
0.0
 40
0.0125584557885728
 50
272.1986668548537978
 51
309.8011559101262264
  0
ARC
  5
1A02C
  8
0
 10
4362.0817659543517948
 20
214.1862161007815075
 30
0.0
 40
0.0123978370595797
 50
253.288877744419807
 51
309.5478169569302054
  0
ARC
  5
1A02D
  8
0
 10
4362.0884876231611997
 20
214.2037878730544946
 30
0.0
 40
0.0311910560527564
 50
234.1505141876862979
 51
250.7437280391525007
  0
ARC
  5
1A02E
  8
0
 10
4362.3281200144501781
 20
214.5345356040917864
 30
0.0
 40
0.4396243119680303
 50
228.2542599661022109
 51
234.0813121867151096
  0
ARC
  5
1A02F
  8
0
 10
4362.3579098605423496
 20
214.5754872767747941
 30
0.0
 40
0.4900394181819632
 50
225.6580094728398933
 51
228.8435845508751072
  0
ARC
  5
1A030
  8
0
 10
4362.0849665905052461
 20
214.2988263926511934
 30
0.0
 40
0.1014226254336183
 50
218.6696334029138029
 51
226.6944173058805916
  0
ARC
  5
1A031
  8
0
 10
4362.0174713509695721
 20
214.2452741277234907
 30
0.0
 40
0.0152682024546365
 50
186.4274428433328126
 51
220.0260441318856977
  0
ARC
  5
1A032
  8
0
 10
4362.0143654796484043
 20
214.2446335868449125
 30
0.0
 40
0.0121135918665056
 50
148.0507217014474861
 51
185.0611917856161028
  0
ARC
  5
1A033
  8
0
 10
4362.0100010566084165
 20
214.2399595061999094
 30
0.0
 40
0.0118848425156734
 50
148.0169586865710016
 51
183.8716619404600863
  0
ARC
  5
1A034
  8
0
 10
4362.0111824682962833
 20
214.2402527570434927
 30
0.0
 40
0.0130850894622077
 50
184.8035379600667909
 51
220.2657875465100119
  0
ARC
  5
1A035
  8
0
 10
4362.1262311295558902
 20
214.3462601651181956
 30
0.0
 40
0.1695154982058927
 50
222.47329656555209
 51
228.583458686786912
  0
ARC
  5
1A036
  8
0
 10
4362.0778343709953333
 20
214.1810252151159091
 30
0.0
 40
0.0119437999184589
 50
254.6556544967075979
 51
309.909477227318007
  0
ARC
  5
1A037
  8
0
 10
4362.0794651985179371
 20
214.1856001885705894
 30
0.0
 40
0.0167911416700771
 50
233.5918535856600045
 51
253.4200945912789962
  0
ARC
  5
1A038
  8
0
 10
4362.1920335399117903
 20
214.3424799248977877
 30
0.0
 40
0.2098775890657507
 50
229.371142877442395
 51
234.2790805953418953
  0
ARC
  5
1A039
  8
0
 10
4362.640216792821775
 20
214.8916905642591928
 30
0.0
 40
0.9187011032419967
 50
228.9935948456109998
 51
230.4611404505334065
  0
ARC
  5
1A03A
  8
0
 10
4362.7710518397561827
 20
215.047309934644403
 30
0.0
 40
1.1219887490501279
 50
227.5723097090348972
 51
229.1659823124603861
  0
ARC
  5
1A03B
  8
0
 10
4361.5138073960806651
 20
214.5970660505894898
 30
0.0
 40
0.1124870468576343
 50
34.9184101115450432
 51
59.0815897818263025
  0
ARC
  5
1A03C
  8
0
 10
4361.6658450333807195
 20
214.7601064552708863
 30
0.0
 40
0.1153621820804472
 50
215.2238864572146895
 51
238.7761134361138033
  0
ARC
  5
1A03D
  8
0
 10
4361.4618434385893124
 20
214.5413415300247095
 30
0.0
 40
0.1675886202843824
 50
38.9555423267682031
 51
55.0444577171996272
  0
ARC
  5
1A03E
  8
0
 10
4361.6889963664871175
 20
214.7849332224795944
 30
0.0
 40
0.1687675738350251
 50
219.0121064620871891
 51
234.9878935819126866
  0
ARC
  5
1A03F
  8
0
 10
4361.3414598455683517
 20
214.4122459336541056
 30
0.0
 40
0.3316846440319414
 50
42.9548382786470029
 51
51.0451616928494118
  0
ARC
  5
1A040
  8
0
 10
4361.7965622669871664
 20
214.9002835293595979
 30
0.0
 40
0.3372614805796058
 50
223.0218361726730052
 51
230.9781636491877919
  0
ARC
  5
1A041
  8
0
 10
4361.5650197812155966
 20
214.7162230124702944
 30
0.0
 40
0.0130703469204798
 50
146.8462006099240114
 51
202.7159138256882045
  0
ARC
  5
1A042
  8
0
 10
4361.5966141341168623
 20
214.7320324833733025
 30
0.0
 40
0.0483776813426034
 50
205.5388687194034105
 51
222.3060765148480868
  0
ARC
  5
1A043
  8
0
 10
4361.8341456839489183
 20
214.9408638445376027
 30
0.0
 40
0.3646494828373493
 50
221.4517410151154024
 51
232.832282073007292
  0
ARC
  5
1A044
  8
0
 10
4361.6364572480224524
 20
214.6782597541782138
 30
0.0
 40
0.0359719793786328
 50
231.0476698184313875
 51
254.0702139746312014
  0
ARC
  5
1A045
  8
0
 10
4361.6291920321127691
 20
214.6562272240601885
 30
0.0
 40
0.0128259536308111
 50
258.2695118270696071
 51
307.4754640559492032
  0
ARC
  5
1A046
  8
0
 10
4361.5503222346533221
 20
214.7018644515817982
 30
0.0
 40
0.0120748376598859
 50
146.0172072858823071
 51
180.1660044533747111
  0
ARC
  5
1A047
  8
0
 10
4361.5517063967317881
 20
214.7019433644449009
 30
0.0
 40
0.0134594309836419
 50
180.484858975239689
 51
207.2440077426759899
  0
ARC
  5
1A048
  8
0
 10
4361.5696410347181882
 20
214.7120969839538986
 30
0.0
 40
0.0340624254106292
 50
208.6185560573310056
 51
221.6664376700574053
  0
ARC
  5
1A049
  8
0
 10
4361.8817990330162502
 20
214.9932925562769128
 30
0.0
 40
0.4541970250014299
 50
221.9869136769721933
 51
228.0557640267848001
  0
ARC
  5
1A04A
  8
0
 10
4361.7454875270186676
 20
214.8298998778730891
 30
0.0
 40
0.2416813906875244
 50
226.2003791907104926
 51
235.4815509442663028
  0
ARC
  5
1A04B
  8
0
 10
4361.6155163758467097
 20
214.6414814145942103
 30
0.0
 40
0.0127881587330007
 50
236.9043629748906881
 51
307.1237150455281153
  0
ARC
  5
1A04C
  8
0
 10
4361.5425383990259434
 20
214.6934570967914908
 30
0.0
 40
0.0121338850668363
 50
146.4482318134502918
 51
216.1378449969614053
  0
ARC
  5
1A04D
  8
0
 10
4361.6359872953917147
 20
214.7711241603090002
 30
0.0
 40
0.1336229787099354
 50
219.4045484991117974
 51
226.0040767812631088
  0
ARC
  5
1A04E
  8
0
 10
4362.264329045514387
 20
215.4036554513820079
 30
0.0
 40
1.0251880593680349
 50
225.296431722585794
 51
227.2541873066695928
  0
ARC
  5
1A04F
  8
0
 10
4361.9258232428228439
 20
215.0264263812601939
 30
0.0
 40
0.5184553103406423
 50
226.4304092742835905
 51
231.0444092094031134
  0
ARC
  5
1A050
  8
0
 10
4361.6081014866767873
 20
214.6333604874110961
 30
0.0
 40
0.0130368852020297
 50
230.7962763738503895
 51
274.7412257808873051
  0
ARC
  5
1A051
  8
0
 10
4361.6080379278446344
 20
214.6322036080651969
 30
0.0
 40
0.011890280651256
 50
275.5072490404323275
 51
307.9784800638012143
  0
ARC
  5
1A052
  8
0
 10
4361.0502187352512919
 20
215.0602183461861898
 30
0.0
 40
0.1124208610188903
 50
32.9110857076459808
 51
57.0889141202687895
  0
ARC
  5
1A053
  8
0
 10
4361.2073554343787691
 20
215.2173550448422077
 30
0.0
 40
0.1147386615228494
 50
213.1588656675268965
 51
236.8411341603867015
  0
ARC
  5
1A054
  8
0
 10
4360.9953947546728159
 20
215.0053943674276979
 30
0.0
 40
0.1674878009840519
 50
36.9506371016504573
 51
53.0493627256167386
  0
ARC
  5
1A055
  8
0
 10
4361.2319757302811922
 20
215.2419753423222915
 30
0.0
 40
0.1703603764740023
 50
217.0872406552142024
 51
232.9127591720373971
  0
ARC
  5
1A056
  8
0
 10
4360.8671590441499575
 20
214.8771586583011981
 30
0.0
 40
0.3341869171019326
 50
40.9851730841001967
 51
49.0148269158895502
  0
ARC
  5
1A057
  8
0
 10
4361.3396349024978917
 20
215.349634516648706
 30
0.0
 40
0.3356315237100138
 50
221.0024816347767
 51
228.9975183652362887
  0
ARC
  5
1A058
  8
0
 10
4361.1674830365045636
 20
215.115396567841799
 30
0.0
 40
0.0129688922984263
 50
249.3901146466936041
 51
305.3875390553287161
  0
ARC
  5
1A059
  8
0
 10
4361.1834446328939521
 20
215.1499363646285872
 30
0.0
 40
0.0509925741897694
 50
229.2856154023043018
 51
246.2627700633296115
  0
ARC
  5
1A05A
  8
0
 10
4361.3907717231995775
 20
215.4015213121548982
 30
0.0
 40
0.3769879095744253
 50
221.8160661827635067
 51
230.3432017301805104
  0
ARC
  5
1A05B
  8
0
 10
4361.2161979949405577
 20
215.2493737322010929
 30
0.0
 40
0.1454678865809373
 50
214.4530680322500871
 51
222.9984044108188925
  0
ARC
  5
1A05C
  8
0
 10
4361.114934984676438
 20
215.1802205960732124
 30
0.0
 40
0.0228468951948283
 50
194.0250346207413941
 51
215.1167708591044914
  0
ARC
  5
1A05D
  8
0
 10
4361.1052555034630132
 20
215.1775543550108978
 30
0.0
 40
0.0128120740432451
 50
144.5075584671118918
 51
192.9473125674776952
  0
ARC
  5
1A05E
  8
0
 10
4361.0896867668498089
 20
215.1625414932553042
 30
0.0
 40
0.0124173368083492
 50
144.4899115345376117
 51
200.3975589761053868
  0
ARC
  5
1A05F
  8
0
 10
4361.1187090877001538
 20
215.1774811182818041
 30
0.0
 40
0.0449950701113384
 50
205.3541943321029066
 51
222.5115401951246099
  0
ARC
  5
1A060
  8
0
 10
4361.483159059323043
 20
215.4932088777837862
 30
0.0
 40
0.5271694748175514
 50
221.0401010557069128
 51
225.8736873612166107
  0
ARC
  5
1A061
  8
0
 10
4361.390490455138206
 20
215.3921066265122022
 30
0.0
 40
0.3900970184241893
 50
225.3047479463712079
 51
229.3583324281578086
  0
ARC
  5
1A062
  8
0
 10
4361.1613654619768567
 20
215.1202614318083874
 30
0.0
 40
0.0347341095707077
 50
224.071681985319799
 51
249.2939836852127087
  0
ARC
  5
1A063
  8
0
 10
4361.152580318434957
 20
215.0995307313492049
 30
0.0
 40
0.0122684485697017
 50
253.4441025531706941
 51
305.7861811085180079
  0
ARC
  5
1A064
  8
0
 10
4361.079459351532023
 20
215.1530203739183946
 30
0.0
 40
0.011897745689887
 50
144.0233449933521968
 51
189.1441340869702969
  0
ARC
  5
1A065
  8
0
 10
4361.0824208829635609
 20
215.1539643767196139
 30
0.0
 40
0.0149787676244853
 50
190.9091906406272017
 51
220.6809626558913919
  0
ARC
  5
1A066
  8
0
 10
4361.2806785408956785
 20
215.3211131778998038
 30
0.0
 40
0.2742941853105733
 50
220.1637370558765099
 51
224.2595180982904139
  0
ARC
  5
1A067
  8
0
 10
4361.974702610775239
 20
215.9845988999998951
 30
0.0
 40
1.234431654427224
 50
223.8331135466974899
 51
226.1054456952614089
  0
ARC
  5
1A068
  8
0
 10
4361.2652334524782418
 20
215.2418799454804059
 30
0.0
 40
0.2073500665202092
 50
225.0840244402349981
 51
231.3810376920214082
  0
ARC
  5
1A069
  8
0
 10
4361.1429446083557195
 20
215.0896745544694113
 30
0.0
 40
0.0121171637212819
 50
233.9768211458869018
 51
305.6692251458305236
  0
LINE
  5
1A06A
  8
0
 10
4367.929565816266404
 20
217.7289846882177926
 30
0.0
 11
4368.1357563674655466
 21
217.7289846882177926
 31
0.0
  0
ARC
  5
1A06B
  8
0
 10
4368.1357563674655466
 20
217.7589846882177937
 30
0.0
 40
0.03
 50
270.0
 51
0.0
  0
LINE
  5
1A06C
  8
0
 10
4367.929565816266404
 20
220.0907698920678115
 30
0.0
 11
4368.1357563674655466
 21
220.0907698920678115
 31
0.0
  0
ATTDEF
  5
1A06E
  8
DEFPOINTS
 10
4368.1659271462067409
 20
218.9133684871239893
 30
0.0
 40
0.001
  1
22645t
  3

  2
MODELNUMBER
 70
     0
1001
ACDBATTR
1070
     0
1070
     1
  0
ATTDEF
  5
1A06F
  8
DEFPOINTS
 10
4368.1658013365513398
 20
218.9117016467448025
 30
0.0
 40
0.001
  1
PARALLEL
  3

  2
TRADENAME
 70
     0
1001
ACDBATTR
1070
     0
1070
     1
  0
ATTDEF
  5
1A070
  8
DEFPOINTS
 10
4368.1659271462067409
 20
218.9100351537906874
 30
0.0
 40
0.001
  1
SHOWERHEAD
  3

  2
PRODUCT
 70
     0
1001
ACDBATTR
1070
     0
1070
     1
  0
ENDSEC
  0
EOF
