  0
SECTION
  2
HEADER
  9
$ACADVER
  1
AC1009
  9
$INSBASE
 10
4664.1339118243804478
 20
228.7568832549125943
 30
0.0
  9
$EXTMIN
 10
4645.9470014169855858
 20
227.8996345276925979
 30
0.0
  9
$EXTMAX
 10
4664.1479201163865582
 20
230.8121353214878013
 30
0.0
  9
$LIMMIN
 10
0.0
 20
0.0
  9
$LIMMAX
 10
11.6929133858000007
 20
8.2677165353999982
  9
$ORTHOMODE
 70
     0
  9
$REGENMODE
 70
     1
  9
$FILLMODE
 70
     1
  9
$QTEXTMODE
 70
     0
  9
$MIRRTEXT
 70
     0
  9
$DRAGMODE
 70
     2
  9
$LTSCALE
 40
0.6431102362
  9
$OSMODE
 70
  4095
  9
$ATTMODE
 70
     1
  9
$TEXTSIZE
 40
0.2
  9
$TRACEWID
 40
0.05
  9
$TEXTSTYLE
  7
STANDARD
  9
$CLAYER
  8
0
  9
$CELTYPE
  6
BYLAYER
  9
$CECOLOR
 62
   256
  9
$DIMSCALE
 40
1.0
  9
$DIMASZ
 40
0.1875
  9
$DIMEXO
 40
0.0625
  9
$DIMDLI
 40
0.4443307087
  9
$DIMRND
 40
0.0
  9
$DIMDLE
 40
0.0
  9
$DIMEXE
 40
0.125
  9
$DIMTP
 40
0.01
  9
$DIMTM
 40
0.01
  9
$DIMTXT
 40
2.0
  9
$DIMCEN
 40
0.1052362205
  9
$DIMTSZ
 40
0.0
  9
$DIMTOL
 70
     1
  9
$DIMLIM
 70
     0
  9
$DIMTIH
 70
     1
  9
$DIMTOH
 70
     1
  9
$DIMSE1
 70
     0
  9
$DIMSE2
 70
     0
  9
$DIMTAD
 70
     0
  9
$DIMZIN
 70
     0
  9
$DIMBLK
  1

  9
$DIMASO
 70
     1
  9
$DIMSHO
 70
     1
  9
$DIMPOST
  1
\X
  9
$DIMAPOST
  1

  9
$DIMALT
 70
     1
  9
$DIMALTD
 70
     2
  9
$DIMALTF
 40
25.3999999999999986
  9
$DIMLFAC
 40
1.0
  9
$DIMTOFL
 70
     0
  9
$DIMTVP
 40
0.0
  9
$DIMTIX
 70
     0
  9
$DIMSOXD
 70
     0
  9
$DIMSAH
 70
     0
  9
$DIMBLK1
  1

  9
$DIMBLK2
  1

  9
$DIMSTYLE
  2
STANDARD
  9
$DIMCLRD
 70
     0
  9
$DIMCLRE
 70
     0
  9
$DIMCLRT
 70
     0
  9
$DIMTFAC
 40
1.0
  9
$DIMGAP
 40
0.09
  9
$LUNITS
 70
     2
  9
$LUPREC
 70
     4
  9
$SKETCHINC
 40
0.1
  9
$FILLETRAD
 40
0.0
  9
$AUNITS
 70
     0
  9
$AUPREC
 70
     0
  9
$MENU
  1
.
  9
$ELEVATION
 40
0.0
  9
$PELEVATION
 40
0.0
  9
$THICKNESS
 40
0.0
  9
$LIMCHECK
 70
     0
  9
$BLIPMODE
 70
     0
  9
$CHAMFERA
 40
0.0
  9
$CHAMFERB
 40
0.0
  9
$SKPOLY
 70
     0
  9
$TDCREATE
 40
2458060.468368056230247
  9
$TDUPDATE
 40
2459842.6313657411374152
  9
$TDINDWG
 40
0.5504121528
  9
$TDUSRTIMER
 40
0.5504121528
  9
$USRTIMER
 70
     1
  9
$ANGBASE
 50
0.0
  9
$ANGDIR
 70
     0
  9
$PDMODE
 70
     0
  9
$PDSIZE
 40
0.3125
  9
$PLINEWID
 40
0.0
  9
$COORDS
 70
     1
  9
$SPLFRAME
 70
     0
  9
$SPLINETYPE
 70
     6
  9
$SPLINESEGS
 70
     8
  9
$ATTDIA
 70
     1
  9
$ATTREQ
 70
     1
  9
$HANDLING
 70
     1
  9
$HANDSEED
  5
19577
  9
$SURFTAB1
 70
     6
  9
$SURFTAB2
 70
     6
  9
$SURFTYPE
 70
     6
  9
$SURFU
 70
     6
  9
$SURFV
 70
     6
  9
$UCSNAME
  2

  9
$UCSORG
 10
0.0
 20
0.0
 30
0.0
  9
$UCSXDIR
 10
1.0
 20
0.0
 30
0.0
  9
$UCSYDIR
 10
0.0
 20
1.0
 30
0.0
  9
$PUCSNAME
  2

  9
$PUCSORG
 10
0.0
 20
0.0
 30
0.0
  9
$PUCSXDIR
 10
1.0
 20
0.0
 30
0.0
  9
$PUCSYDIR
 10
0.0
 20
1.0
 30
0.0
  9
$USERI1
 70
     0
  9
$USERI2
 70
     0
  9
$USERI3
 70
     0
  9
$USERI4
 70
     0
  9
$USERI5
 70
     0
  9
$USERR1
 40
0.0
  9
$USERR2
 40
0.0
  9
$USERR3
 40
0.0
  9
$USERR4
 40
0.0
  9
$USERR5
 40
0.0
  9
$WORLDVIEW
 70
     1
  9
$SHADEDGE
 70
     3
  9
$SHADEDIF
 70
    70
  9
$TILEMODE
 70
     1
  9
$MAXACTVP
 70
    64
  9
$PLIMCHECK
 70
     0
  9
$PEXTMIN
 10
1.0000000000000000E+20
 20
1.0000000000000000E+20
 30
1.0000000000000000E+20
  9
$PEXTMAX
 10
-1.0000000000000000E+20
 20
-1.0000000000000000E+20
 30
-1.0000000000000000E+20
  9
$PLIMMIN
 10
0.0
 20
0.0
  9
$PLIMMAX
 10
12.0
 20
9.0
  9
$UNITMODE
 70
     0
  9
$VISRETAIN
 70
     1
  9
$PLINEGEN
 70
     0
  9
$PSLTSCALE
 70
     1
  0
ENDSEC
  0
SECTION
  2
TABLES
  0
TABLE
  2
VPORT
 70
     1
  0
VPORT
  2
*ACTIVE
 70
     0
 10
0.0
 20
0.0
 11
1.0
 21
1.0
 12
853.3087007395073442
 22
103.3555063438627997
 13
0.0
 23
0.0
 14
1.0
 24
1.0
 15
0.0
 25
0.0
 16
0.0
 26
0.0
 36
17.1152628219792007
 17
3803.5440673828129547
 27
125.9952621967499056
 37
0.0
 40
10.8936851151266492
 41
2.0416666666666661
 42
50.0
 43
0.0
 44
0.0
 50
0.0
 51
0.0
 71
     0
 72
   100
 73
     1
 74
     1
 75
     0
 76
     0
 77
     0
 78
     0
  0
ENDTAB
  0
TABLE
  2
LTYPE
 70
     2
  0
LTYPE
  2
CONTINUOUS
 70
     0
  3
Solid line
 72
    65
 73
     0
 40
0.0
  0
LTYPE
  2
PHANTOM2
 70
     0
  3
___ _ _ ___ _ _ ___ _ _ ___ _ _
 72
    65
 73
     6
 40
1.25
 49
0.625
 49
-0.125
 49
0.125
 49
-0.125
 49
0.125
 49
-0.125
  0
ENDTAB
  0
TABLE
  2
LAYER
 70
     2
  0
LAYER
  2
0
 70
     0
 62
   255
  6
CONTINUOUS
  0
LAYER
  2
DEFPOINTS
 70
     0
 62
     7
  6
CONTINUOUS
  0
ENDTAB
  0
TABLE
  2
STYLE
 70
     1
  0
STYLE
  2
STANDARD
 70
     0
 40
0.0
 41
0.8
 50
0.0
 71
     0
 42
0.2
  3
txt
  4

  0
ENDTAB
  0
TABLE
  2
VIEW
 70
     0
  0
ENDTAB
  0
TABLE
  2
UCS
 70
     0
  0
ENDTAB
  0
TABLE
  2
APPID
 70
     9
  0
APPID
  2
ACAD
 70
     0
  0
APPID
  2
ACAD_MLEADERVER
 70
     0
  0
APPID
  2
ACAD_EXEMPT_FROM_CAD_STANDARDS
 70
     0
  0
APPID
  2
ACAD_NAV_VCDISPLAY
 70
     0
  0
APPID
  2
ACAECLAYERSTANDARD
 70
     0
  0
APPID
  2
ACCMTRANSPARENCY
 70
     0
  0
APPID
  2
ACAD_DSTYLE_DIMJAG
 70
     0
  0
APPID
  2
ACAD_DSTYLE_DIMTALN
 70
     0
  0
APPID
  2
ACDBATTR
 70
     0
  0
ENDTAB
  0
TABLE
  2
DIMSTYLE
 70
     1
  0
DIMSTYLE
  2
STANDARD
 70
     0
  3

  4

  5

  6

  7

 40
1.0
 41
0.1875
 42
0.0625
 43
0.38
 44
0.125
 45
0.0
 46
0.0
 47
0.01
 48
0.01
140
0.15625
141
0.09
142
0.0
143
25.3999999999999986
144
1.0
145
0.0
146
1.0
147
0.09
 71
     1
 72
     0
 73
     1
 74
     1
 75
     0
 76
     0
 77
     0
 78
     4
170
     0
171
     2
172
     0
173
     0
174
     0
175
     0
176
     0
177
     0
178
     0
  0
ENDTAB
  0
ENDSEC
  0
SECTION
  2
BLOCKS
  0
BLOCK
  8
0
  2
$MODEL_SPACE
 70
     0
 10
0.0
 20
0.0
 30
0.0
  3
$MODEL_SPACE
  1

  0
ENDBLK
  5
21
  8
0
  0
BLOCK
 67
     1
  8
0
  2
$PAPER_SPACE
 70
     0
 10
0.0
 20
0.0
 30
0.0
  3
$PAPER_SPACE
  1

  0
ENDBLK
  5
1D
 67
     1
  8
0
  0
ENDSEC
  0
SECTION
  2
ENTITIES
  0
ATTDEF
  5
3930
  8
DEFPOINTS
 10
4664.137253449718628
 20
228.7558409037928016
 30
0.0
 40
0.001
  1
K-22697T
  3

  2
MODELNUMBER
 70
     0
1001
ACDBATTR
1070
     0
1070
     1
  0
ATTDEF
  5
3931
  8
DEFPOINTS
 10
4664.137253449718628
 20
228.7541742371261932
 30
0.0
 40
0.001
  1

  3

  2
TRADENAME
 70
     0
1001
ACDBATTR
1070
     0
1070
     1
  0
ATTDEF
  5
3932
  8
DEFPOINTS
 10
4664.137253449718628
 20
228.7525075704594997
 30
0.0
 40
0.001
  1
TOILET SEAT
  3

  2
PRODUCT
 70
     0
1001
ACDBATTR
1070
     0
1070
     1
  0
LINE
  5
193E8
  8
0
 10
4646.1839170926159568
 20
229.6808362217223021
 30
0.0
 11
4653.4350022567095948
 21
229.6808362217223021
 31
0.0
  0
LINE
  5
193E9
  8
0
 10
4646.0257014169847025
 20
228.9473844176717989
 30
0.0
 11
4656.0930403602560546
 21
228.9473844176717989
 31
0.0
  0
LINE
  5
193EA
  8
0
 10
4648.6102814103924175
 20
228.3220858206751984
 30
0.0
 11
4653.2440370257772884
 21
228.3220858206751984
 31
0.0
  0
LINE
  5
193EB
  8
0
 10
4647.4092802315180961
 20
230.233097787602901
 30
0.0
 11
4655.3848597401283769
 21
230.233097787602901
 31
0.0
  0
ARC
  5
193EC
  8
0
 10
4645.6926197348593632
 20
224.2238816529169867
 30
0.0
 40
5.0126978957550739
 50
55.1944932108707818
 51
70.4427513805615746
  0
ARC
  5
193ED
  8
0
 10
4648.6102814103924175
 20
228.4209858206752131
 30
0.0
 40
0.0989
 50
235.1944932108717126
 51
270.0
  0
ARC
  5
193EE
  8
0
 10
4647.0973885232288012
 20
229.0154625856278869
 30
0.0
 40
1.1504397431297451
 50
168.4312765376631091
 51
179.4321418850302905
  0
ARC
  5
193EF
  8
0
 10
4646.0257014169847025
 20
229.0260844176717967
 30
0.0
 40
0.0787
 50
179.4321418850302905
 51
270.0
  0
ARC
  5
193F0
  8
0
 10
4646.4636999624299278
 20
229.1533697456742118
 30
0.0
 40
0.5020324337079695
 50
144.4759707323532893
 51
169.3470358184356996
  0
ARC
  5
193F1
  8
0
 10
4646.2195536056942728
 20
229.298474184681595
 30
0.0
 40
0.2203018626323796
 50
109.708013542638696
 51
138.283564578683098
  0
ARC
  5
193F2
  8
0
 10
4646.3807810154194158
 20
228.8219887435303974
 30
0.0
 40
0.723301389647395
 50
91.1561605120135994
 51
109.0029517462473052
  0
ARC
  5
193F3
  8
0
 10
4646.4419057734357921
 20
227.7848244533113871
 30
0.0
 40
1.7619461820637039
 50
84.1117851784404849
 51
92.4630280663310771
  0
ARC
  5
193F4
  8
0
 10
4646.9845960870470662
 20
233.145396748582499
 30
0.0
 40
3.6260309621945588
 50
264.2714251426875194
 51
269.2300551513939126
  0
ARC
  5
193F5
  8
0
 10
4647.1422529249621221
 20
238.3877013637307982
 30
0.0
 40
8.8704093925838592
 50
268.6668148177167268
 51
271.0766910402820145
  0
ARC
  5
193F6
  8
0
 10
4613.1974259375601832
 20
5329.4210134879767793
 30
0.0
 40
5100.0162342036210248
 50
270.3832262357450986
 51
270.4769750414740201
  0
ARC
  5
193F7
  8
0
 10
4655.171576932246353
 20
333.8062197275910989
 30
0.0
 40
104.2258347402717931
 50
270.2649127789109116
 51
273.0463062647269226
  0
ARC
  5
193F8
  8
0
 10
4655.840837142915916
 20
304.3759973976559081
 30
0.0
 40
74.8069958981930512
 50
273.7323499088856806
 51
274.8843386685009023
  0
ARC
  5
193F9
  8
0
 10
4661.9965349528038132
 20
233.4383118982397036
 30
0.0
 40
3.6039987983625239
 50
273.3995560402021852
 51
285.1114545717978217
  0
ARC
  5
193FA
  8
0
 10
4661.6789215454300574
 20
233.9861428142313002
 30
0.0
 40
4.2188685338121896
 50
287.3367232242292175
 51
293.5145123396058011
  0
ARC
  5
193FB
  8
0
 10
4663.5704801024021435
 20
229.5020453609853917
 30
0.0
 40
0.6498586256766985
 50
54.0789012551230925
 51
108.6958703807345046
  0
ARC
  5
193FC
  8
0
 10
4663.5752352568124479
 20
229.6511902244614873
 30
0.0
 40
0.5328936236818482
 50
341.363764402052027
 51
45.0478607983143675
  0
ARC
  5
193FD
  8
0
 10
4663.4377791685128614
 20
229.7808595141192995
 30
0.0
 40
0.7089882744485989
 50
291.2567406646695076
 51
334.9706905528880156
  0
ARC
  5
193FE
  8
0
 10
4662.9925517185083663
 20
231.1167516887499005
 30
0.0
 40
2.116547206839289
 50
268.4655719310533755
 51
289.378040045913508
  0
ARC
  5
193FF
  8
0
 10
4653.6767935030957233
 20
1217.3674376552698959
 30
0.0
 40
988.4098431052817659
 50
270.454478314398898
 51
270.536734928732983
  0
ARC
  5
19400
  8
0
 10
4671.4659671945319133
 20
-1433.5910873540578905
 30
0.0
 40
1662.6095443610709026
 50
90.3428597223737313
 51
90.5297794544278958
  0
ARC
  5
19401
  8
0
 10
4646.1487919816072463
 20
307.371577012350599
 30
0.0
 40
77.1487770981173924
 50
270.4434634786688889
 51
270.9361635153147176
  0
ARC
  5
19402
  8
0
 10
4646.7536792945884372
 20
229.2212901975402133
 30
0.0
 40
1.0038506113750301
 50
90.4434634786689031
 51
99.0901474244476645
  0
ARC
  5
19403
  8
0
 10
4646.7536529910503305
 20
229.2214545970400081
 30
0.0
 40
1.0036841209197811
 50
99.0901474244476645
 51
110.8934501484058046
  0
ARC
  5
19404
  8
0
 10
4646.5997884068083295
 20
229.6245243678235965
 30
0.0
 40
0.5722451908228439
 50
110.8934501484058046
 51
125.1278743251137939
  0
ARC
  5
19405
  8
0
 10
4646.4194503033677393
 20
229.8808543638506876
 30
0.0
 40
0.2588334832953541
 50
125.1278743251137939
 51
146.4346247682618127
  0
ARC
  5
19406
  8
0
 10
4646.728108815475025
 20
229.6760508960524874
 30
0.0
 40
0.6292582901290417
 50
146.4346247682618127
 51
171.278161463419508
  0
ARC
  5
19407
  8
0
 10
4646.1839170926159568
 20
229.7595362217222998
 30
0.0
 40
0.0787
 50
171.278161463419508
 51
270.0
  0
ARC
  5
19408
  8
0
 10
4654.3879395603908051
 20
313.6376939317682968
 30
0.0
 40
83.4105539354349048
 50
270.6848135651060829
 51
273.0549019527530277
  0
ARC
  5
19409
  8
0
 10
4656.0512066914679963
 20
282.472089933564007
 30
0.0
 40
52.200598310310987
 50
273.0549019527530277
 51
275.7340133125263719
  0
ARC
  5
1940A
  8
0
 10
4657.9315689242012013
 20
263.7457817270753253
 30
0.0
 40
33.3801206019558165
 50
275.7340133125263719
 51
279.3333053346701718
  0
ARC
  5
1940B
  8
0
 10
4663.4011199841488633
 20
230.466535321487811
 30
0.0
 40
0.3456
 50
15.7536786286089896
 51
99.3333053347218708
  0
ARC
  5
1940C
  8
0
 10
4661.7839184653248594
 20
230.0103252302550061
 30
0.0
 40
2.0259179460532359
 50
9.5417832479284588
 51
15.7536786286089896
  0
ARC
  5
1940D
  8
0
 10
4663.7135558107529505
 20
230.3346825597392069
 30
0.0
 40
0.0692094950929877
 50
332.4127577530285862
 51
9.5417832479268512
  0
ARC
  5
1940E
  8
0
 10
4665.6385004604862843
 20
223.3686400903800973
 30
0.0
 40
7.1800598364004049
 50
105.0435217215129029
 51
108.2719648628127942
  0
ARC
  5
1940F
  8
0
 10
4660.9588448365511795
 20
238.8572098658655136
 30
0.0
 40
9.0042120764344542
 50
278.6250570327900959
 51
285.6468839833351012
  0
ARC
  5
19410
  8
0
 10
4660.8302461783732724
 20
240.149056493155399
 30
0.0
 40
10.3009499615472304
 50
272.9434624234061175
 51
278.2546630727335923
  0
ARC
  5
19411
  8
0
 10
4656.1612613168699681
 20
318.6466319451085951
 30
0.0
 40
88.936962818546121
 50
270.6246624460773091
 51
273.3505761195082755
  0
ARC
  5
19412
  8
0
 10
4651.6360647021410841
 20
624.7432740246423464
 30
0.0
 40
395.0665335599960031
 50
270.2608975373050839
 51
270.7969272826287011
  0
ARC
  5
19413
  8
0
 10
4650.1271990644499965
 20
229.8202736904003132
 30
0.0
 40
0.3354242140802226
 50
303.2686763516218207
 51
335.4362886480878956
  0
ARC
  5
19414
  8
0
 10
4650.372243089865151
 20
229.9013178326754883
 30
0.0
 40
0.4321498720176588
 50
210.6769592857384907
 51
237.0793058536806939
  0
ARC
  5
19415
  8
0
 10
4664.2553177740483079
 20
230.4286576499382022
 30
0.0
 40
0.5030899090312282
 50
194.7035817696828133
 51
231.2189555826666947
  0
ARC
  5
19416
  8
0
 10
4662.2842093233521155
 20
229.5462254039551055
 30
0.0
 40
0.8015782255993483
 50
31.7722124374483492
 51
40.2263775068255711
  0
LINE
  5
19417
  8
0
 10
4650.0168628629517116
 20
228.7504831675547052
 30
0.0
 11
4650.6997291184588903
 21
228.7504831675547052
 31
0.0
  0
LINE
  5
19418
  8
0
 10
4658.1830054200927407
 20
228.7977272619546909
 30
0.0
 11
4657.4947560201189845
 21
228.7977272619546909
 31
0.0
  0
ARC
  5
19419
  8
0
 10
4651.6408979968864514
 20
228.6372608676335858
 30
0.0
 40
0.8977964142432767
 50
159.7921072836184067
 51
169.6303043982904057
  0
ARC
  5
1941A
  8
0
 10
4649.2433846352460023
 20
228.6891151259711137
 30
0.0
 40
0.723787988008652
 50
8.8453733809561612
 51
20.9056446368288817
  0
ARC
  5
1941B
  8
0
 10
4658.7541342889544467
 20
228.7327885861207051
 30
0.0
 40
0.5254219196887256
 50
153.6261356464389962
 51
167.7562807875281123
  0
ARC
  5
1941C
  8
0
 10
4656.8515760897043947
 20
228.7193147709452035
 30
0.0
 40
0.5986949259140245
 50
12.0596807342833401
 51
23.5953844312481991
  0
ARC
  5
1941D
  8
0
 10
4658.1830054200927407
 20
228.8567272619546884
 30
0.0
 40
0.059
 50
270.0
 51
347.7562807874883219
  0
ARC
  5
1941E
  8
0
 10
4657.4947560201189845
 20
228.8567272619546031
 30
0.0
 40
0.059
 50
192.0596807342452905
 51
270.0
  0
ARC
  5
1941F
  8
0
 10
4650.0168628629517116
 20
228.8094831675547027
 30
0.0
 40
0.059
 50
188.8453733809174935
 51
270.0
  0
ARC
  5
19420
  8
0
 10
4650.6997291184588903
 20
228.8094831675547027
 30
0.0
 40
0.059
 50
270.0
 51
349.6303043982633767
  0
ARC
  5
19421
  8
0
 10
4662.8324655047117631
 20
226.1808806065425017
 30
0.0
 40
2.8211788336568948
 50
92.7785657941844448
 51
105.6251018514224
  0
ARC
  5
19422
  8
0
 10
4662.7837897894150956
 20
226.3549230073932961
 30
0.0
 40
2.6404578261520428
 50
105.6251018514224
 51
126.2575177419528956
  0
ARC
  5
19423
  8
0
 10
4662.9167300357357817
 20
226.1736652670909962
 30
0.0
 40
2.865241005041089
 50
126.2575177419528956
 51
142.0244974492408119
  0
ARC
  5
19424
  8
0
 10
4660.5820648196877301
 20
227.9960986517625088
 30
0.0
 40
0.096502588283023
 50
271.6177484876316726
 51
322.0244974492409256
  0
ARC
  5
19425
  8
0
 10
4660.8491045730233964
 20
253.4981935379589117
 30
0.0
 40
25.599923554812051
 50
267.3588363763752795
 51
269.4084191813287248
  0
ARC
  5
19426
  8
0
 10
4666.0668389612010287
 20
373.6372267453133986
 30
0.0
 40
145.8521320108355894
 50
265.5775916547594875
 51
267.4860742081507965
  0
ARC
  5
19427
  8
0
 10
4647.0129674906329456
 20
127.5383971337254962
 30
0.0
 40
100.9832069784856969
 50
85.5658385005166764
 51
86.3211198403729156
  0
ARC
  5
19428
  8
0
 10
4650.4635137925879462
 20
144.1415956002284133
 30
0.0
 40
84.2263987310691249
 50
87.9390595839643368
 51
88.1081798608596074
  0
LINE
  5
19429
  8
0
 10
4663.0527824740311189
 20
228.7568832549125943
 30
0.0
 11
4664.1339118243804478
 21
228.7568832549125943
 31
0.0
  0
LINE
  5
1942A
  8
0
 10
4663.0527824740311189
 20
228.7568832549125943
 30
0.0
 11
4663.0610782033945725
 21
229.0013140981677111
 31
0.0
  0
LINE
  5
1942B
  8
0
 10
4664.1053452508522241
 20
229.596793456367692
 30
0.0
 11
4664.1339118243804478
 21
228.7568832549125943
 31
0.0
  0
ENDSEC
  0
EOF
