  0
SECTION
  2
HEADER
  9
$ACADVER
  1
AC1009
  9
$INSBASE
 10
3001.0945662093231476
 20
79.0186417673645849
 30
0.0
  9
$EXTMIN
 10
2982.2978323014422131
 20
67.2134402590308326
 30
0.0
  9
$EXTMAX
 10
3210.9212200539800506
 20
148.5339485028586921
 30
0.0
  9
$LIMMIN
 10
0.0
 20
0.0
  9
$LIMMAX
 10
11.6929133858000007
 20
8.2677165353999982
  9
$ORTHOMODE
 70
     0
  9
$REGENMODE
 70
     1
  9
$FILLMODE
 70
     1
  9
$QTEXTMODE
 70
     0
  9
$MIRRTEXT
 70
     0
  9
$DRAGMODE
 70
     2
  9
$LTSCALE
 40
0.6431102362
  9
$OSMODE
 70
  4095
  9
$ATTMODE
 70
     1
  9
$TEXTSIZE
 40
0.2
  9
$TRACEWID
 40
0.05
  9
$TEXTSTYLE
  7
STANDARD
  9
$CLAYER
  8
0
  9
$CELTYPE
  6
BYLAYER
  9
$CECOLOR
 62
   256
  9
$DIMSCALE
 40
1.0
  9
$DIMASZ
 40
0.1875
  9
$DIMEXO
 40
0.0625
  9
$DIMDLI
 40
0.4443307087
  9
$DIMRND
 40
0.0
  9
$DIMDLE
 40
0.0
  9
$DIMEXE
 40
0.125
  9
$DIMTP
 40
0.01
  9
$DIMTM
 40
0.01
  9
$DIMTXT
 40
2.0
  9
$DIMCEN
 40
0.1052362205
  9
$DIMTSZ
 40
0.0
  9
$DIMTOL
 70
     1
  9
$DIMLIM
 70
     0
  9
$DIMTIH
 70
     1
  9
$DIMTOH
 70
     1
  9
$DIMSE1
 70
     0
  9
$DIMSE2
 70
     0
  9
$DIMTAD
 70
     0
  9
$DIMZIN
 70
     0
  9
$DIMBLK
  1

  9
$DIMASO
 70
     1
  9
$DIMSHO
 70
     1
  9
$DIMPOST
  1
\X
  9
$DIMAPOST
  1

  9
$DIMALT
 70
     1
  9
$DIMALTD
 70
     2
  9
$DIMALTF
 40
25.3999999999999986
  9
$DIMLFAC
 40
1.0
  9
$DIMTOFL
 70
     0
  9
$DIMTVP
 40
0.0
  9
$DIMTIX
 70
     0
  9
$DIMSOXD
 70
     0
  9
$DIMSAH
 70
     0
  9
$DIMBLK1
  1

  9
$DIMBLK2
  1

  9
$DIMSTYLE
  2
STANDARD
  9
$DIMCLRD
 70
     0
  9
$DIMCLRE
 70
     0
  9
$DIMCLRT
 70
     0
  9
$DIMTFAC
 40
1.0
  9
$DIMGAP
 40
0.09
  9
$LUNITS
 70
     2
  9
$LUPREC
 70
     4
  9
$SKETCHINC
 40
0.1
  9
$FILLETRAD
 40
0.0
  9
$AUNITS
 70
     0
  9
$AUPREC
 70
     0
  9
$MENU
  1
.
  9
$ELEVATION
 40
0.0
  9
$PELEVATION
 40
0.0
  9
$THICKNESS
 40
0.0
  9
$LIMCHECK
 70
     0
  9
$BLIPMODE
 70
     0
  9
$CHAMFERA
 40
0.0
  9
$CHAMFERB
 40
0.0
  9
$SKPOLY
 70
     0
  9
$TDCREATE
 40
2458060.468368056230247
  9
$TDUPDATE
 40
2459948.4624999999068677
  9
$TDINDWG
 40
0.2919862269
  9
$TDUSRTIMER
 40
0.2919862269
  9
$USRTIMER
 70
     1
  9
$ANGBASE
 50
0.0
  9
$ANGDIR
 70
     0
  9
$PDMODE
 70
     0
  9
$PDSIZE
 40
0.3125
  9
$PLINEWID
 40
0.0
  9
$COORDS
 70
     1
  9
$SPLFRAME
 70
     0
  9
$SPLINETYPE
 70
     6
  9
$SPLINESEGS
 70
     8
  9
$ATTDIA
 70
     1
  9
$ATTREQ
 70
     1
  9
$HANDLING
 70
     1
  9
$HANDSEED
  5
61C9
  9
$SURFTAB1
 70
     6
  9
$SURFTAB2
 70
     6
  9
$SURFTYPE
 70
     6
  9
$SURFU
 70
     6
  9
$SURFV
 70
     6
  9
$UCSNAME
  2

  9
$UCSORG
 10
0.0
 20
0.0
 30
0.0
  9
$UCSXDIR
 10
1.0
 20
0.0
 30
0.0
  9
$UCSYDIR
 10
0.0
 20
1.0
 30
0.0
  9
$PUCSNAME
  2

  9
$PUCSORG
 10
0.0
 20
0.0
 30
0.0
  9
$PUCSXDIR
 10
1.0
 20
0.0
 30
0.0
  9
$PUCSYDIR
 10
0.0
 20
1.0
 30
0.0
  9
$USERI1
 70
     0
  9
$USERI2
 70
     0
  9
$USERI3
 70
     0
  9
$USERI4
 70
     0
  9
$USERI5
 70
     0
  9
$USERR1
 40
0.0
  9
$USERR2
 40
0.0
  9
$USERR3
 40
0.0
  9
$USERR4
 40
0.0
  9
$USERR5
 40
0.0
  9
$WORLDVIEW
 70
     1
  9
$SHADEDGE
 70
     3
  9
$SHADEDIF
 70
    70
  9
$TILEMODE
 70
     1
  9
$MAXACTVP
 70
    64
  9
$PLIMCHECK
 70
     0
  9
$PEXTMIN
 10
1.0000000000000000E+20
 20
1.0000000000000000E+20
 30
1.0000000000000000E+20
  9
$PEXTMAX
 10
-1.0000000000000000E+20
 20
-1.0000000000000000E+20
 30
-1.0000000000000000E+20
  9
$PLIMMIN
 10
0.0
 20
0.0
  9
$PLIMMAX
 10
12.0
 20
9.0
  9
$UNITMODE
 70
     0
  9
$VISRETAIN
 70
     1
  9
$PLINEGEN
 70
     0
  9
$PSLTSCALE
 70
     1
  0
ENDSEC
  0
SECTION
  2
TABLES
  0
TABLE
  2
VPORT
 70
     1
  0
VPORT
  2
*ACTIVE
 70
     0
 10
0.0
 20
0.0
 11
1.0
 21
1.0
 12
81.3818235713980016
 22
-2.8537273655674511
 13
0.0
 23
0.0
 14
1.0
 24
1.0
 15
0.0
 25
0.0
 16
0.0
 26
0.0
 36
215.6888699471975031
 17
2919.75537109375
 27
87.2746505737304688
 37
0.0
 40
33.9921184314306117
 41
2.8524096385542159
 42
50.0
 43
0.0
 44
0.0
 50
0.0
 51
0.0
 71
     0
 72
   100
 73
     1
 74
     1
 75
     0
 76
     0
 77
     0
 78
     0
  0
ENDTAB
  0
TABLE
  2
LTYPE
 70
     2
  0
LTYPE
  2
CONTINUOUS
 70
     0
  3
Solid line
 72
    65
 73
     0
 40
0.0
  0
LTYPE
  2
PHANTOM2
 70
     0
  3
___ _ _ ___ _ _ ___ _ _ ___ _ _
 72
    65
 73
     6
 40
1.25
 49
0.625
 49
-0.125
 49
0.125
 49
-0.125
 49
0.125
 49
-0.125
  0
ENDTAB
  0
TABLE
  2
LAYER
 70
     2
  0
LAYER
  2
0
 70
     0
 62
   255
  6
CONTINUOUS
  0
LAYER
  2
DEFPOINTS
 70
     0
 62
     7
  6
CONTINUOUS
  0
ENDTAB
  0
TABLE
  2
STYLE
 70
     1
  0
STYLE
  2
STANDARD
 70
     0
 40
0.0
 41
0.8
 50
0.0
 71
     0
 42
0.2
  3
txt
  4

  0
ENDTAB
  0
TABLE
  2
VIEW
 70
     0
  0
ENDTAB
  0
TABLE
  2
UCS
 70
     0
  0
ENDTAB
  0
TABLE
  2
APPID
 70
     9
  0
APPID
  2
ACAD
 70
     0
  0
APPID
  2
ACAD_MLEADERVER
 70
     0
  0
APPID
  2
ACAD_EXEMPT_FROM_CAD_STANDARDS
 70
     0
  0
APPID
  2
ACAD_NAV_VCDISPLAY
 70
     0
  0
APPID
  2
ACAECLAYERSTANDARD
 70
     0
  0
APPID
  2
ACCMTRANSPARENCY
 70
     0
  0
APPID
  2
ACAD_DSTYLE_DIMJAG
 70
     0
  0
APPID
  2
ACAD_DSTYLE_DIMTALN
 70
     0
  0
APPID
  2
ACDBATTR
 70
     0
  0
ENDTAB
  0
TABLE
  2
DIMSTYLE
 70
     1
  0
DIMSTYLE
  2
STANDARD
 70
     0
  3

  4

  5

  6

  7

 40
1.0
 41
0.1875
 42
0.0625
 43
0.38
 44
0.125
 45
0.0
 46
0.0
 47
0.01
 48
0.01
140
0.15625
141
0.09
142
0.0
143
25.3999999999999986
144
1.0
145
0.0
146
1.0
147
0.09
 71
     1
 72
     0
 73
     1
 74
     1
 75
     0
 76
     0
 77
     0
 78
     4
170
     0
171
     2
172
     0
173
     0
174
     0
175
     0
176
     0
177
     0
178
     0
  0
ENDTAB
  0
ENDSEC
  0
SECTION
  2
BLOCKS
  0
BLOCK
  8
0
  2
$MODEL_SPACE
 70
     0
 10
0.0
 20
0.0
 30
0.0
  3
$MODEL_SPACE
  1

  0
ENDBLK
  5
21
  8
0
  0
BLOCK
 67
     1
  8
0
  2
$PAPER_SPACE
 70
     0
 10
0.0
 20
0.0
 30
0.0
  3
$PAPER_SPACE
  1

  0
ENDBLK
  5
1D
 67
     1
  8
0
  0
BLOCK
  8
0
  2
_FILLED
 70
     0
 10
0.0
 20
0.0
 30
0.0
  3
_FILLED
  1

  0
SOLID
  5
5A61
  8
0
  6
BYBLOCK
 62
     0
 10
0.0
 20
0.0
 30
0.0
 11
-1.0
 21
0.1666666667
 31
0.0
 12
-1.0
 22
-0.1666666667
 32
0.0
 13
-1.0
 23
-0.1666666667
 33
0.0
  0
ENDBLK
  5
5A62
  8
0
  6
BYBLOCK
 62
     0
  0
ENDSEC
  0
SECTION
  2
ENTITIES
  0
ATTDEF
  5
3930
  8
DEFPOINTS
 10
3001.0947381027581287
 20
79.0172469319904849
 30
0.0
 40
0.001
  1
K-22757K
  3

  2
MODELNUMBER
 70
     0
1001
ACDBATTR
1070
     0
1070
     1
  0
ATTDEF
  5
3931
  8
DEFPOINTS
 10
3001.0947381027581287
 20
79.0155802653238197
 30
0.0
 40
0.001
  1
PARLIAMENT GRANDE
  3

  2
TRADENAME
 70
     0
1001
ACDBATTR
1070
     0
1070
     1
  0
ATTDEF
  5
3932
  8
DEFPOINTS
 10
3001.0947381027581287
 20
79.0139135986571546
 30
0.0
 40
0.001
  1
TOILET
  3

  2
PRODUCT
 70
     0
1001
ACDBATTR
1070
     0
1070
     1
  0
LINE
  5
5EF0
  8
0
 10
2995.7821490542660285
 20
79.0186417673645849
 30
0.0
 11
3006.406983364379812
 21
79.0186417673645849
 31
0.0
  0
LINE
  5
5EF1
  8
0
 10
2994.0194257218231542
 20
94.3729717305645437
 30
0.0
 11
3008.1697066968231411
 21
94.3729717305645437
 31
0.0
  0
LINE
  5
5EF2
  8
0
 10
2993.9422589051819159
 20
91.1519851242840105
 30
0.0
 11
2993.7821699969681504
 21
94.1225857607869045
 31
0.0
  0
ARC
  5
5EF3
  8
0
 10
2994.0194257218231542
 20
94.1353717305645716
 30
0.0
 40
0.2376
 50
90.0
 51
183.084748064578406
  0
ARC
  5
5EF4
  8
0
 10
3242.2193114976948891
 20
117.3546053851455042
 30
0.0
 40
249.6559075058316921
 50
186.0245703450744941
 51
187.9660511279942909
  0
ARC
  5
5EF5
  8
0
 10
3079.5307274803180917
 20
94.6861693475030961
 30
0.0
 40
85.3957296971285444
 50
188.0309441841039018
 51
190.4391678511736075
  0
ARC
  5
5EF6
  8
0
 10
2995.7821490542660285
 20
79.2562417673645712
 30
0.0
 40
0.2376
 50
190.4391678511624093
 51
270.0
  0
LINE
  5
5EF7
  8
0
 10
2995.1237157585569548
 20
80.4721197342291532
 30
0.0
 11
2995.3204654925621071
 21
80.5065210282191259
 31
0.0
  0
LINE
  5
5EF8
  8
0
 10
2995.2266550272720451
 20
79.8779110152456155
 30
0.0
 11
2995.4227038946628454
 21
79.9121712758941101
 31
0.0
  0
ARC
  5
5EF9
  8
0
 10
2995.2241661412658686
 20
79.8894524638830035
 30
0.0
 40
0.011806760360073
 50
212.7921453725273011
 51
282.1693422628692929
  0
ARC
  5
5EFA
  8
0
 10
2995.1245364515821166
 20
80.4601656622201347
 30
0.0
 40
0.0119822107575366
 50
93.9274129649043346
 51
173.0555619260846072
  0
LINE
  5
5EFB
  8
0
 10
2995.1126421439239493
 20
80.4616143926920273
 30
0.0
 11
2995.2142408961080946
 21
79.8830580054420523
 31
0.0
  0
ARC
  5
5EFC
  8
0
 10
2996.2269580672559641
 20
80.3590975182877685
 30
0.0
 40
1.119021754269258
 50
174.7435947736090043
 51
205.1764180258637111
  0
LINE
  5
5EFD
  8
0
 10
2993.9246915429230285
 20
94.6091922030645378
 30
0.0
 11
3008.2644406438798796
 21
94.6091938362651206
 31
0.0
  0
LINE
  5
5EFE
  8
0
 10
2993.6608890012230404
 20
94.7076173998686954
 30
0.0
 11
3008.5282434174228001
 21
94.7076173998604247
 31
0.0
  0
LINE
  5
5EFF
  8
0
 10
2993.7365932578181855
 20
95.7902809492849769
 30
0.0
 11
2993.6608890012230404
 21
94.7076173998686954
 31
0.0
  0
ARC
  5
5F00
  8
0
 10
3001.215505318220039
 20
-83.7721773569850399
 30
0.0
 40
180.1540114752384056
 50
90.0384632070038577
 51
91.3406117649097951
  0
ARC
  5
5F01
  8
0
 10
2998.2390795439428075
 20
34.7068747253450525
 30
0.0
 40
61.6380900174622468
 50
91.1512798482377065
 51
93.3623583663594303
  0
ARC
  5
5F02
  8
0
 10
2995.4603785328549748
 20
81.479984232587114
 30
0.0
 40
14.7825563484023892
 50
93.2435647504168941
 51
94.5328730303143345
  0
ARC
  5
5F03
  8
0
 10
2994.3267484683378825
 20
95.3815393393072384
 30
0.0
 40
0.8354825572632822
 50
92.3769793789765146
 51
114.4629688754718018
  0
ARC
  5
5F04
  8
0
 10
2994.1540738921098637
 20
95.7610889984905498
 30
0.0
 40
0.4185
 50
114.4629688754735071
 51
176.0001555590953046
  0
LINE
  5
5F05
  8
0
 10
2993.9246915429230285
 20
94.6091922030645662
 30
0.0
 11
2993.9386636451031336
 21
94.7076173998685533
 31
0.0
  0
LINE
  5
5F06
  8
0
 10
2994.5664663032730459
 20
94.3769087384645786
 30
0.0
 11
2995.6541677638260808
 21
94.3769087384645786
 31
0.0
  0
ARC
  5
5F07
  8
0
 10
2994.653613972407129
 20
94.8336817896360742
 30
0.0
 40
0.4650121896382852
 50
208.8658549769513968
 51
259.198360086709215
  0
ARC
  5
5F08
  8
0
 10
2995.5669788105519729
 20
94.8337601604220879
 30
0.0
 40
0.4650969095980575
 50
280.804826279283418
 51
331.1289015258357722
  0
LINE
  5
5F09
  8
0
 10
2996.2156246829290467
 20
94.5737591321645539
 30
0.0
 11
2997.7190015349160603
 21
94.5737591321645539
 31
0.0
  0
ARC
  5
5F0A
  8
0
 10
2996.1095319550818203
 20
94.4487315381398531
 30
0.0
 40
0.1637216700613172
 50
54.3640679263934601
 51
78.5457431397860546
  0
ARC
  5
5F0B
  8
0
 10
2996.2294730840208103
 20
94.6151014056303268
 30
0.0
 40
0.0413782932797043
 50
233.6054072004612863
 51
267.6091430862526863
  0
ARC
  5
5F0C
  8
0
 10
2997.805325636139969
 20
94.5479392460240717
 30
0.0
 40
0.0797383160704429
 50
129.8092502021991095
 51
148.2110347824578014
  0
ARC
  5
5F0D
  8
0
 10
2997.7062133409599483
 20
94.6121403620799128
 30
0.0
 40
0.0383997258173566
 50
271.7783971762859778
 51
324.6889812723417208
  0
ARC
  5
5F0E
  8
0
 10
2996.6144625865940725
 20
94.7608674118440319
 30
0.0
 40
0.4405464580764461
 50
205.1328536972688994
 51
241.7012349921280077
  0
ARC
  5
5F0F
  8
0
 10
2997.3236156165899047
 20
94.7577174042090462
 30
0.0
 40
0.4360856226292074
 50
298.0824688344096103
 51
335.0492036169500807
  0
ARC
  5
5F10
  8
0
 10
2997.9735353632340775
 20
94.7279159991324065
 30
0.0
 40
0.2388164785023561
 50
209.8104477790535043
 51
262.7507462458889904
  0
ARC
  5
5F11
  8
0
 10
2997.9493045276849443
 20
94.6209180669013392
 30
0.0
 40
0.1300437007822767
 50
267.3976618499319216
 51
354.8269003226703262
  0
LINE
  5
5F12
  8
0
 10
3008.2468735134639246
 20
91.1519851242840105
 30
0.0
 11
3008.4069624216781449
 21
94.1225857607869045
 31
0.0
  0
ARC
  5
5F13
  8
0
 10
3008.1697066968231411
 20
94.1353717305645716
 30
0.0
 40
0.2376
 50
356.9152519354216224
 51
90.0
  0
ARC
  5
5F14
  8
0
 10
2759.9698209209509514
 20
117.3546053851455042
 30
0.0
 40
249.6559075058316921
 50
352.0339488720056238
 51
353.9754296549255059
  0
ARC
  5
5F15
  8
0
 10
2922.6584049383282036
 20
94.6861693475030961
 30
0.0
 40
85.3957296971285444
 50
349.560832148826421
 51
351.9690558158961267
  0
ARC
  5
5F16
  8
0
 10
3006.406983364379812
 20
79.2562417673645712
 30
0.0
 40
0.2376
 50
270.0
 51
349.5608321488375054
  0
LINE
  5
5F17
  8
0
 10
3007.0654166600879762
 20
80.4721197342291532
 30
0.0
 11
3006.8686669260841882
 21
80.5065210282191259
 31
0.0
  0
LINE
  5
5F18
  8
0
 10
3006.9624773913737954
 20
79.8779110152456155
 30
0.0
 11
3006.7664285239829951
 21
79.9121712758941101
 31
0.0
  0
ARC
  5
5F19
  8
0
 10
3006.9649662773799719
 20
79.8894524638830035
 30
0.0
 40
0.011806760360073
 50
257.8306577371307071
 51
327.2078546274710789
  0
ARC
  5
5F1A
  8
0
 10
3007.0645959670641787
 20
80.4601656622201347
 30
0.0
 40
0.0119822107575366
 50
6.944438073915415
 51
86.0725870350956797
  0
LINE
  5
5F1B
  8
0
 10
3007.0764902747218912
 20
80.4616143926920273
 30
0.0
 11
3006.9748915225382007
 21
79.8830580054420523
 31
0.0
  0
ARC
  5
5F1C
  8
0
 10
3005.9621743513898764
 20
80.3590975182877685
 30
0.0
 40
1.119021754269258
 50
334.8235819741361752
 51
5.2564052263909939
  0
LINE
  5
5F1D
  8
0
 10
3008.4525391608281097
 20
95.7902809492849769
 30
0.0
 11
3008.5282434174228001
 21
94.7076173998686954
 31
0.0
  0
ARC
  5
5F1E
  8
0
 10
3000.9736271004258015
 20
-83.7721773569850399
 30
0.0
 40
180.1540114752384056
 50
88.6593882350902334
 51
89.9615367929700653
  0
ARC
  5
5F1F
  8
0
 10
3003.950052874703033
 20
34.7068747253450525
 30
0.0
 40
61.6380900174622468
 50
86.6376416336405839
 51
88.8487201517623078
  0
ARC
  5
5F20
  8
0
 10
3006.7287538857917752
 20
81.479984232587114
 30
0.0
 40
14.7825563484023892
 50
85.4671269696856655
 51
86.7564352495831059
  0
ARC
  5
5F21
  8
0
 10
3007.8623839503088675
 20
95.3815393393072384
 30
0.0
 40
0.8354825572632822
 50
65.5370311245281556
 51
87.6230206210234854
  0
ARC
  5
5F22
  8
0
 10
3008.0350585265359769
 20
95.7610889984905498
 30
0.0
 40
0.4185
 50
3.9998444409046692
 51
65.5370311245265071
  0
LINE
  5
5F23
  8
0
 10
3008.2644408757228121
 20
94.6091922030645662
 30
0.0
 11
3008.2504687735431617
 21
94.7076173998685533
 31
0.0
  0
LINE
  5
5F24
  8
0
 10
3007.6226661153727946
 20
94.3769087384645786
 30
0.0
 11
3006.5349646548202145
 21
94.3769087384645786
 31
0.0
  0
ARC
  5
5F25
  8
0
 10
3007.535518446237802
 20
94.8336817896360742
 30
0.0
 40
0.4650121896382852
 50
280.801639913290785
 51
331.1341450230482906
  0
ARC
  5
5F26
  8
0
 10
3006.6221536080938677
 20
94.8337601604220879
 30
0.0
 40
0.4650969095980575
 50
208.8710984741638015
 51
259.195173720716582
  0
LINE
  5
5F27
  8
0
 10
3005.9735077357167938
 20
94.5737591321645539
 30
0.0
 11
3004.4701308837297802
 21
94.5737591321645539
 31
0.0
  0
ARC
  5
5F28
  8
0
 10
3006.0796004635640202
 20
94.4487315381398531
 30
0.0
 40
0.1637216700613172
 50
101.4542568602139028
 51
125.6359320736064973
  0
ARC
  5
5F29
  8
0
 10
3005.9596593346250302
 20
94.6151014056303268
 30
0.0
 40
0.0413782932797043
 50
272.3908569137472
 51
306.3945927995387137
  0
ARC
  5
5F2A
  8
0
 10
3004.3838067825058715
 20
94.5479392460240717
 30
0.0
 40
0.0797383160704429
 50
31.7889652175422093
 51
50.1907497978008621
  0
ARC
  5
5F2B
  8
0
 10
3004.4829190776858923
 20
94.6121403620799128
 30
0.0
 40
0.0383997258173566
 50
215.3110187276583076
 51
268.2216028237140222
  0
ARC
  5
5F2C
  8
0
 10
3005.5746698320531323
 20
94.7608674118440319
 30
0.0
 40
0.4405464580764461
 50
298.2987650078720208
 51
334.8671463027311006
  0
ARC
  5
5F2D
  8
0
 10
3004.8655168020559358
 20
94.7577174042090462
 30
0.0
 40
0.4360856226292074
 50
204.9507963830500046
 51
241.9175311655903897
  0
ARC
  5
5F2E
  8
0
 10
3004.2155970554122177
 20
94.7279159991324065
 30
0.0
 40
0.2388164785023561
 50
277.2492537541110096
 51
330.1895522209464957
  0
ARC
  5
5F2F
  8
0
 10
3004.2398278909608962
 20
94.6209180669013392
 30
0.0
 40
0.1300437007822767
 50
185.1730996773295885
 51
272.6023381500680784
  0
ARC
  5
5F30
  8
0
 10
2994.2912063151939037
 20
95.8775323713201857
 30
0.0
 40
0.3390361437623693
 50
99.262125981990053
 51
119.739840504576307
  0
ARC
  5
5F31
  8
0
 10
2994.1385449081280967
 20
96.1419809211746212
 30
0.0
 40
0.0337172343658961
 50
117.4096909038385945
 51
164.1890698114222005
  0
ARC
  5
5F32
  8
0
 10
2994.1241823419018147
 20
96.1502239712490052
 30
0.0
 40
0.018103623349971
 50
177.0120259806182901
 51
245.8122669622806029
  0
ARC
  5
5F33
  8
0
 10
2994.3920947803371746
 20
96.8612082800299135
 30
0.0
 40
0.7778565322151636
 50
249.2702894679507892
 51
268.9464215906738218
  0
ARC
  5
5F34
  8
0
 10
2996.0588408226972206
 20
121.7352310062791929
 30
0.0
 40
25.7067712434633613
 50
266.2505684493140734
 51
268.8462257122599794
  0
ARC
  5
5F35
  8
0
 10
3000.3972140265200323
 20
311.7857764449547062
 30
0.0
 40
215.8067455692045087
 50
268.710643797493276
 51
270.18514438154358
  0
ARC
  5
5F36
  8
0
 10
3007.8979261034519368
 20
95.8775323713201857
 30
0.0
 40
0.3390361437623693
 50
60.2601594954236575
 51
80.7378740180099754
  0
ARC
  5
5F37
  8
0
 10
3008.0505875105181985
 20
96.1419809211746212
 30
0.0
 40
0.0337172343658961
 50
15.8109301885778102
 51
62.5903090961613771
  0
ARC
  5
5F38
  8
0
 10
3008.0649500767440259
 20
96.1502239712490052
 30
0.0
 40
0.018103623349971
 50
294.1877330377192834
 51
2.9879740193816828
  0
ARC
  5
5F39
  8
0
 10
3007.7970376383091207
 20
96.8612082800299135
 30
0.0
 40
0.7778565322151636
 50
271.0535784093261782
 51
290.7297105320491823
  0
ARC
  5
5F3A
  8
0
 10
3006.1302915959490747
 20
121.7352310062791929
 30
0.0
 40
25.7067712434633613
 50
271.1537742877400206
 51
273.7494315506859266
  0
ARC
  5
5F3B
  8
0
 10
3001.7919183921271724
 20
311.7857764449547062
 30
0.0
 40
215.8067455692045087
 50
269.8148556184563063
 51
271.289356202506724
  0
ENDSEC
  0
EOF
