  0
SECTION
  2
HEADER
  9
$ACADVER
  1
AC1009
  9
$INSBASE
 10
3794.5862014328517944
 20
38.3611327972734628
 30
0.0
  9
$EXTMIN
 10
3769.2948384733208513
 20
37.7353712311465017
 30
-0.0015258207003583
  9
$EXTMAX
 10
3802.3674762103241846
 20
43.4731534944519566
 30
0.0000000349246037
  9
$LIMMIN
 10
0.0
 20
0.0
  9
$LIMMAX
 10
11.6929133858000007
 20
8.2677165353999982
  9
$ORTHOMODE
 70
     0
  9
$REGENMODE
 70
     1
  9
$FILLMODE
 70
     1
  9
$QTEXTMODE
 70
     0
  9
$MIRRTEXT
 70
     0
  9
$DRAGMODE
 70
     2
  9
$LTSCALE
 40
0.6431102362
  9
$OSMODE
 70
  4095
  9
$ATTMODE
 70
     1
  9
$TEXTSIZE
 40
0.2
  9
$TRACEWID
 40
0.05
  9
$TEXTSTYLE
  7
STANDARD
  9
$CLAYER
  8
0
  9
$CELTYPE
  6
BYLAYER
  9
$CECOLOR
 62
   256
  9
$DIMSCALE
 40
1.0
  9
$DIMASZ
 40
0.1875
  9
$DIMEXO
 40
0.0625
  9
$DIMDLI
 40
0.4443307087
  9
$DIMRND
 40
0.0
  9
$DIMDLE
 40
0.0
  9
$DIMEXE
 40
0.125
  9
$DIMTP
 40
0.01
  9
$DIMTM
 40
0.01
  9
$DIMTXT
 40
2.0
  9
$DIMCEN
 40
0.1052362205
  9
$DIMTSZ
 40
0.0
  9
$DIMTOL
 70
     1
  9
$DIMLIM
 70
     0
  9
$DIMTIH
 70
     1
  9
$DIMTOH
 70
     1
  9
$DIMSE1
 70
     0
  9
$DIMSE2
 70
     0
  9
$DIMTAD
 70
     0
  9
$DIMZIN
 70
     0
  9
$DIMBLK
  1

  9
$DIMASO
 70
     1
  9
$DIMSHO
 70
     1
  9
$DIMPOST
  1
\X
  9
$DIMAPOST
  1

  9
$DIMALT
 70
     1
  9
$DIMALTD
 70
     2
  9
$DIMALTF
 40
25.3999999999999986
  9
$DIMLFAC
 40
1.0
  9
$DIMTOFL
 70
     0
  9
$DIMTVP
 40
0.0
  9
$DIMTIX
 70
     0
  9
$DIMSOXD
 70
     0
  9
$DIMSAH
 70
     0
  9
$DIMBLK1
  1

  9
$DIMBLK2
  1

  9
$DIMSTYLE
  2
STANDARD
  9
$DIMCLRD
 70
     0
  9
$DIMCLRE
 70
     0
  9
$DIMCLRT
 70
     0
  9
$DIMTFAC
 40
1.0
  9
$DIMGAP
 40
0.09
  9
$LUNITS
 70
     2
  9
$LUPREC
 70
     4
  9
$SKETCHINC
 40
0.1
  9
$FILLETRAD
 40
0.0
  9
$AUNITS
 70
     0
  9
$AUPREC
 70
     0
  9
$MENU
  1
.
  9
$ELEVATION
 40
0.0
  9
$PELEVATION
 40
0.0
  9
$THICKNESS
 40
0.0
  9
$LIMCHECK
 70
     0
  9
$BLIPMODE
 70
     0
  9
$CHAMFERA
 40
0.0
  9
$CHAMFERB
 40
0.0
  9
$SKPOLY
 70
     0
  9
$TDCREATE
 40
2458060.468368056230247
  9
$TDUPDATE
 40
2459867.5236921301111579
  9
$TDINDWG
 40
0.494983912
  9
$TDUSRTIMER
 40
0.494983912
  9
$USRTIMER
 70
     1
  9
$ANGBASE
 50
0.0
  9
$ANGDIR
 70
     0
  9
$PDMODE
 70
     0
  9
$PDSIZE
 40
0.3125
  9
$PLINEWID
 40
0.0
  9
$COORDS
 70
     1
  9
$SPLFRAME
 70
     0
  9
$SPLINETYPE
 70
     6
  9
$SPLINESEGS
 70
     8
  9
$ATTDIA
 70
     1
  9
$ATTREQ
 70
     1
  9
$HANDLING
 70
     1
  9
$HANDSEED
  5
F6C8
  9
$SURFTAB1
 70
     6
  9
$SURFTAB2
 70
     6
  9
$SURFTYPE
 70
     6
  9
$SURFU
 70
     6
  9
$SURFV
 70
     6
  9
$UCSNAME
  2

  9
$UCSORG
 10
0.0
 20
0.0
 30
0.0
  9
$UCSXDIR
 10
1.0
 20
0.0
 30
0.0
  9
$UCSYDIR
 10
0.0
 20
1.0
 30
0.0
  9
$PUCSNAME
  2

  9
$PUCSORG
 10
0.0
 20
0.0
 30
0.0
  9
$PUCSXDIR
 10
1.0
 20
0.0
 30
0.0
  9
$PUCSYDIR
 10
0.0
 20
1.0
 30
0.0
  9
$USERI1
 70
     0
  9
$USERI2
 70
     0
  9
$USERI3
 70
     0
  9
$USERI4
 70
     0
  9
$USERI5
 70
     0
  9
$USERR1
 40
0.0
  9
$USERR2
 40
0.0
  9
$USERR3
 40
0.0
  9
$USERR4
 40
0.0
  9
$USERR5
 40
0.0
  9
$WORLDVIEW
 70
     1
  9
$SHADEDGE
 70
     3
  9
$SHADEDIF
 70
    70
  9
$TILEMODE
 70
     1
  9
$MAXACTVP
 70
    64
  9
$PLIMCHECK
 70
     0
  9
$PEXTMIN
 10
1.0000000000000000E+20
 20
1.0000000000000000E+20
 30
1.0000000000000000E+20
  9
$PEXTMAX
 10
-1.0000000000000000E+20
 20
-1.0000000000000000E+20
 30
-1.0000000000000000E+20
  9
$PLIMMIN
 10
0.0
 20
0.0
  9
$PLIMMAX
 10
12.0
 20
9.0
  9
$UNITMODE
 70
     0
  9
$VISRETAIN
 70
     1
  9
$PLINEGEN
 70
     0
  9
$PSLTSCALE
 70
     1
  0
ENDSEC
  0
SECTION
  2
TABLES
  0
TABLE
  2
VPORT
 70
     1
  0
VPORT
  2
*ACTIVE
 70
     0
 10
0.0
 20
0.0
 11
1.0
 21
1.0
 12
-43.4966014472402094
 22
-50.2887811552671735
 13
0.0
 23
0.0
 14
1.0
 24
1.0
 15
0.0
 25
0.0
 16
0.0
 26
0.0
 36
327.1425206445442768
 17
3829.3277587890629547
 27
90.8930435180664063
 37
0.0
 40
20.9665291109399909
 41
1.5824829931972779
 42
50.0
 43
0.0
 44
0.0
 50
0.0
 51
0.0
 71
     0
 72
   100
 73
     1
 74
     1
 75
     0
 76
     0
 77
     0
 78
     1
  0
ENDTAB
  0
TABLE
  2
LTYPE
 70
     2
  0
LTYPE
  2
CONTINUOUS
 70
     0
  3
Solid line
 72
    65
 73
     0
 40
0.0
  0
LTYPE
  2
PHANTOM2
 70
     0
  3
___ _ _ ___ _ _ ___ _ _ ___ _ _
 72
    65
 73
     6
 40
1.25
 49
0.625
 49
-0.125
 49
0.125
 49
-0.125
 49
0.125
 49
-0.125
  0
ENDTAB
  0
TABLE
  2
LAYER
 70
     2
  0
LAYER
  2
0
 70
     0
 62
   255
  6
CONTINUOUS
  0
LAYER
  2
DEFPOINTS
 70
     0
 62
     7
  6
CONTINUOUS
  0
ENDTAB
  0
TABLE
  2
STYLE
 70
     1
  0
STYLE
  2
STANDARD
 70
     0
 40
0.0
 41
0.8
 50
0.0
 71
     0
 42
0.2
  3
txt
  4

  0
ENDTAB
  0
TABLE
  2
VIEW
 70
     0
  0
ENDTAB
  0
TABLE
  2
UCS
 70
     0
  0
ENDTAB
  0
TABLE
  2
APPID
 70
    10
  0
APPID
  2
ACAD
 70
     0
  0
APPID
  2
ACAD_MLEADERVER
 70
     0
  0
APPID
  2
ACAD_EXEMPT_FROM_CAD_STANDARDS
 70
     0
  0
APPID
  2
ACAD_NAV_VCDISPLAY
 70
     0
  0
APPID
  2
ACAECLAYERSTANDARD
 70
     0
  0
APPID
  2
ACCMTRANSPARENCY
 70
     0
  0
APPID
  2
ACAD_DSTYLE_DIMJAG
 70
     0
  0
APPID
  2
ACAD_DSTYLE_DIMTALN
 70
     0
  0
APPID
  2
ACDBATTR
 70
     0
  0
APPID
  2
ACAD_DSTYLE_DIMRADIAL_EXTENSION
 70
     0
  0
ENDTAB
  0
TABLE
  2
DIMSTYLE
 70
     1
  0
DIMSTYLE
  2
STANDARD
 70
     0
  3

  4

  5

  6

  7

 40
1.0
 41
0.1875
 42
0.0625
 43
0.38
 44
0.125
 45
0.0
 46
0.0
 47
0.01
 48
0.01
140
0.15625
141
0.09
142
0.0
143
25.3999999999999986
144
1.0
145
0.0
146
1.0
147
0.09
 71
     1
 72
     0
 73
     1
 74
     1
 75
     0
 76
     0
 77
     0
 78
     4
170
     0
171
     2
172
     0
173
     0
174
     0
175
     0
176
     0
177
     0
178
     0
  0
ENDTAB
  0
ENDSEC
  0
SECTION
  2
BLOCKS
  0
BLOCK
  8
0
  2
$MODEL_SPACE
 70
     0
 10
0.0
 20
0.0
 30
0.0
  3
$MODEL_SPACE
  1

  0
ENDBLK
  5
21
  8
0
  0
BLOCK
 67
     1
  8
0
  2
$PAPER_SPACE
 70
     0
 10
0.0
 20
0.0
 30
0.0
  3
$PAPER_SPACE
  1

  0
ENDBLK
  5
1D
 67
     1
  8
0
  0
BLOCK
  8
0
  2
_FILLED
 70
     0
 10
0.0
 20
0.0
 30
0.0
  3
_FILLED
  1

  0
SOLID
  5
EF8B
  8
0
  6
BYBLOCK
 62
     0
 10
0.0
 20
0.0
 30
0.0
 11
-1.0
 21
0.1666666667
 31
0.0
 12
-1.0
 22
-0.1666666667
 32
0.0
 13
-1.0
 23
-0.1666666667
 33
0.0
  0
ENDBLK
  5
EF8C
  8
0
  6
BYBLOCK
 62
     0
  0
ENDSEC
  0
SECTION
  2
ENTITIES
  0
ATTDEF
  5
E40F
  8
DEFPOINTS
 10
3794.5841080680720552
 20
38.3652703603746588
 30
0.0
 40
0.001
  1
K-22771K
  3

  2
MODELNUMBER
 70
     0
1001
ACDBATTR
1070
     0
1070
     1
  0
ATTDEF
  5
E410
  8
DEFPOINTS
 10
3794.5841080680720552
 20
38.3636036937080007
 30
0.0
 40
0.001
  1
C3
  3

  2
TRADENAME
 70
     0
1001
ACDBATTR
1070
     0
1070
     1
  0
ATTDEF
  5
E411
  8
DEFPOINTS
 10
3794.5841080680720552
 20
38.3619370270413427
 30
0.0
 40
0.001
  1
TOILET SEAT
  3

  2
PRODUCT
 70
     0
1001
ACDBATTR
1070
     0
1070
     1
  0
LINE
  5
F0FB
  8
0
 10
3788.8855216751458101
 20
38.6170433145704308
 30
0.0
 11
3800.287081027808199
 21
38.6170433145704308
 31
0.0
  0
ARC
  5
F0FC
  8
0
 10
3788.5064930407279462
 20
41.0819835445805595
 30
0.0
 40
2.4439306424240912
 50
255.7296603351184956
 51
259.1136372031169799
  0
ARC
  5
F0FD
  8
0
 10
3788.4922851601368166
 20
41.0081083761497993
 30
0.0
 40
2.3687016295264272
 50
259.1136372031169799
 51
265.0313409473822048
  0
ARC
  5
F0FE
  8
0
 10
3789.076808765611986
 20
47.7316005859766221
 30
0.0
 40
9.1175545202746342
 50
265.0313409473822048
 51
266.7997417514778249
  0
ARC
  5
F0FF
  8
0
 10
3788.9996588635508488
 20
46.3517850786477794
 30
0.0
 40
7.7355838470498979
 50
266.7997417514778249
 51
269.1545801045404005
  0
LINE
  5
F100
  8
0
 10
3787.5244066174441286
 20
38.3611327972739176
 30
0.0
 11
3794.0055928288479663
 21
38.3611327972739176
 31
0.0
  0
LINE
  5
F101
  8
0
 10
3795.163063777239131
 20
38.3611327972739176
 30
0.0
 11
3795.4465468919747764
 21
38.3611327972739176
 31
0.0
  0
LINE
  5
F102
  8
0
 10
3789.5414307509181526
 20
43.4709979507867388
 30
0.0
 11
3789.7878271674449024
 21
43.4709979507867388
 31
0.0
  0
LINE
  5
F103
  8
0
 10
3789.8871261459648849
 20
43.4709979507867388
 30
0.0
 11
3799.2853766494381489
 21
43.4709979507867388
 31
0.0
  0
LINE
  5
F104
  8
0
 10
3799.3846756279558576
 20
43.4709979507867388
 30
0.0
 11
3799.5995538674728778
 21
43.4709979507867388
 31
0.0
  0
LINE
  5
F105
  8
0
 10
3786.9929190826601371
 20
41.9745621674648177
 30
0.0
 11
3787.3018488568509383
 21
42.8993953823867429
 31
0.0
  0
ARC
  5
F106
  8
0
 10
3787.7034442062331436
 20
42.7652471288433702
 30
0.0
 40
0.4234082882667467
 50
133.5197742711575017
 51
161.5287031105052904
  0
ARC
  5
F107
  8
0
 10
3787.8764401054800146
 20
42.5830734480833897
 30
0.0
 40
0.674634941149053
 50
119.0730558223170021
 51
133.5197742711573881
  0
ARC
  5
F108
  8
0
 10
3788.0574665506119345
 20
42.2574728886892288
 30
0.0
 40
1.047175272005415
 50
104.1483995149272062
 51
119.0730558223170021
  0
ARC
  5
F109
  8
0
 10
3789.6440771052839409
 20
35.9634187646853221
 30
0.0
 40
7.5381266944154701
 50
100.3418645035278018
 51
104.1483995149272062
  0
ARC
  5
F10A
  8
0
 10
3789.2517919169849847
 20
37.2447616805053912
 30
0.0
 40
6.2091339466850952
 50
94.927074332423885
 51
98.9032675596574649
  0
ARC
  5
F10B
  8
0
 10
3789.5353771394788964
 20
33.8793645699301678
 30
0.0
 40
9.5864540158278224
 50
92.2064866931693246
 51
94.8881718858932857
  0
ARC
  5
F10C
  8
0
 10
3789.5572397931991873
 20
37.2554155058227821
 30
0.0
 40
6.2156025497100513
 50
89.8542711876614533
 51
93.6061811905195356
  0
LINE
  5
F10D
  8
0
 10
3790.7486816177820401
 20
38.8506109918105977
 30
0.0
 11
3798.423921085173788
 21
38.8506109918105977
 31
0.0
  0
ARC
  5
F10E
  8
0
 10
3797.7831713296150156
 20
232.563376333815512
 30
0.0
 40
193.8404485703449041
 50
267.6503448750682992
 51
267.9202736386056927
  0
ARC
  5
F10F
  8
0
 10
3790.1828876745180423
 20
47.3361786399152393
 30
0.0
 40
8.4573881867890321
 50
260.1870789246638083
 51
267.6503448750682992
  0
ARC
  5
F110
  8
0
 10
3789.2563195357329278
 20
41.9791243529764131
 30
0.0
 40
3.020793742744039
 50
244.4145249997004896
 51
260.1870789246638083
  0
ARC
  5
F111
  8
0
 10
3788.8576411794288106
 20
41.1464767992538896
 30
0.0
 40
2.0976218299858189
 50
227.9329714697790052
 51
244.4145249997004896
  0
ARC
  5
F112
  8
0
 10
3788.6717458151329083
 20
40.9405041687719375
 30
0.0
 40
1.8201658677606509
 50
209.9396909147313011
 51
227.9329714697790052
  0
ARC
  5
F113
  8
0
 10
3788.6951094395108157
 20
40.9539603936762191
 30
0.0
 40
1.847127487384542
 50
186.2964662160057117
 51
209.9396909147313011
  0
ARC
  5
F114
  8
0
 10
3788.7790000489330851
 20
40.9632167661017235
 30
0.0
 40
1.9315272194915261
 50
176.5115394635238886
 51
186.2964662160057117
  0
ARC
  5
F115
  8
0
 10
456.7881762380055761
 20
354.6282344827441761
 30
0.0
 40
3344.7915903925982093
 50
354.6210807862613024
 51
354.6310592275938234
  0
ARC
  5
F116
  8
0
 10
3787.9265262449989677
 20
41.5457713025035105
 30
0.0
 40
1.0273674802356609
 50
155.3314364783124972
 51
173.5768840209335906
  0
ARC
  5
F117
  8
0
 10
3788.353009595623007
 20
40.7020361148633398
 30
0.0
 40
1.9764393466943171
 50
251.0671108621081089
 51
262.7401704400302265
  0
ARC
  5
F118
  8
0
 10
3788.8845348461100002
 20
45.3976737189828015
 30
0.0
 40
6.7019279245432202
 50
263.3054458022460835
 51
269.8184177636742902
  0
LINE
  5
F119
  8
0
 10
3788.8632950788278322
 20
38.6957794510867501
 30
0.0
 11
3800.3093076241270865
 21
38.6957794510867501
 31
0.0
  0
LINE
  5
F11A
  8
0
 10
3787.839278001250932
 20
38.4201878166867488
 30
0.0
 11
3789.8552023308511707
 21
38.4201875278867533
 31
0.0
  0
ARC
  5
F11B
  8
0
 10
3789.8540807449130625
 20
38.4459131130336118
 30
0.0
 40
0.0257500230323512
 50
272.4964046622707201
 51
305.8262527879688264
  0
ARC
  5
F11C
  8
0
 10
3789.3305614599639739
 20
39.1710899183992822
 30
0.0
 40
0.9201514098568466
 50
305.8262527879688264
 51
308.9921933750871972
  0
LINE
  5
F11D
  8
0
 10
3789.9095340674512045
 20
38.4559190738867471
 30
0.0
 11
3790.0697068258118634
 21
38.6170409059112387
 31
0.0
  0
LINE
  5
F11E
  8
0
 10
3787.9721001008520034
 20
38.4201876798867517
 30
0.0
 11
3787.9725556879511714
 21
38.3611327799867468
 31
0.0
  0
LINE
  5
F11F
  8
0
 10
3789.2016428551519311
 20
38.4201875581867398
 30
0.0
 11
3789.2038414036528593
 21
38.3611330991344914
 31
0.0
  0
LINE
  5
F120
  8
0
 10
3790.1202907710521686
 20
38.6170383681867406
 30
0.0
 11
3790.1296484536478602
 21
38.361133099160682
 31
0.0
  0
LINE
  5
F121
  8
0
 10
3790.4252729172508225
 20
38.617038345286737
 30
0.0
 11
3790.6056757954520435
 21
38.3687964816867435
 31
0.0
  0
ARC
  5
F122
  8
0
 10
3790.620735733481979
 20
38.3797408732843124
 30
0.0
 40
0.0186166979056861
 50
216.0067379753947989
 51
271.6319912762608055
  0
ARC
  5
F123
  8
0
 10
3791.684321611499854
 20
38.3843011957404485
 30
0.0
 40
0.0243332836481305
 50
287.8002781884426895
 51
322.4850874933795239
  0
LINE
  5
F124
  8
0
 10
3791.7036226472519047
 20
38.3694830071867372
 30
0.0
 11
3791.8867760869511585
 21
38.6170376599867424
 31
0.0
  0
LINE
  5
F125
  8
0
 10
3792.3197219424519062
 20
38.6170373307867507
 30
0.0
 11
3792.3245784364030442
 21
38.3611330992227693
 31
0.0
  0
LINE
  5
F126
  8
0
 10
3795.176852428768143
 20
38.3611330993034514
 30
0.0
 11
3795.176852428768143
 21
38.5855426943867528
 31
0.0
  0
ARC
  5
F127
  8
0
 10
3795.1886634529691946
 20
38.5855426943867528
 30
0.0
 40
0.0118110242009895
 50
89.9992577244811685
 51
180.0000000000044906
  0
LINE
  5
F128
  8
0
 10
3795.188663605983038
 20
38.5973537185867528
 30
0.0
 11
3795.4209470632317789
 21
38.5973507093192723
 31
0.0
  0
ARC
  5
F129
  8
0
 10
3795.4209469102161165
 20
38.5855395322618904
 30
0.0
 40
0.0118111770583713
 50
0.0153394034791188
 51
89.9992577244811685
  0
LINE
  5
F12A
  8
0
 10
3795.4327580868521181
 20
38.5855426943867528
 30
0.0
 11
3795.432818166485049
 21
38.3611330993106918
 31
0.0
  0
ARC
  5
F12B
  8
0
 10
3795.1821733886081347
 20
38.4697991147987395
 30
0.0
 40
0.0198972095283128
 50
105.5139915379281064
 51
163.7297198621332086
  0
LINE
  5
F12C
  8
0
 10
3795.16307304745078
 20
38.5382157273104866
 30
0.0
 11
3795.1630386345918851
 21
37.880848884014398
 31
0.0
  0
ARC
  5
F12D
  8
0
 10
3795.1236386346458858
 20
37.8808509465867473
 30
0.0
 40
0.0394
 50
270.0
 51
359.9970005916133005
  0
ARC
  5
F12E
  8
0
 10
3795.1512617217131265
 20
38.5382980111403626
 30
0.0
 40
0.0118116123502489
 50
359.6008542976733224
 51
89.9985343897981949
  0
LINE
  5
F12F
  8
0
 10
3795.1768525750521803
 20
38.5501096322867483
 30
0.0
 11
3793.9957502128518172
 21
38.5501096322867483
 31
0.0
  0
ARC
  5
F130
  8
0
 10
3793.8894510002510287
 20
38.3729442691867391
 30
0.0
 40
0.0118110235999991
 50
179.9999999999957083
 51
270.0
  0
LINE
  5
F131
  8
0
 10
3793.8776399766511531
 20
38.3729442691867391
 30
0.0
 11
3793.8776399766520626
 21
38.5855426943867528
 31
0.0
  0
ARC
  5
F132
  8
0
 10
3793.8894510002510287
 20
38.5855426943867528
 30
0.0
 40
0.0118110236000018
 50
90.0000000001823963
 51
180.0
  0
LINE
  5
F133
  8
0
 10
3793.8894510002510287
 20
38.5973537179867421
 30
0.0
 11
3793.9839391891518972
 21
38.5973537179870476
 31
0.0
  0
ARC
  5
F134
  8
0
 10
3793.9839391891518972
 20
38.5855426942870778
 30
0.0
 40
0.0118110236999618
 50
359.9999941770852843
 51
90.0000000001823963
  0
LINE
  5
F135
  8
0
 10
3793.9957502128518172
 20
38.5855426930867509
 30
0.0
 11
3793.9957501912449516
 21
38.3729442691867391
 31
0.0
  0
ARC
  5
F136
  8
0
 10
3793.9839390201259448
 20
38.3729442703871015
 30
0.0
 40
0.0118111711186063
 50
270.000819936169421
 51
359.9999941770830105
  0
ARC
  5
F137
  8
0
 10
3794.0174037441320252
 20
38.5382986119064981
 30
0.0
 40
0.0118110115802565
 50
89.9999416916215864
 51
180.000031142513194
  0
LINE
  5
F138
  8
0
 10
3794.0055927325520315
 20
38.5382986054867516
 30
0.0
 11
3794.0055930898997758
 21
37.8808509251712877
 31
0.0
  0
ARC
  5
F139
  8
0
 10
3793.9924940606729251
 20
38.4738353369514883
 30
0.0
 40
0.0133896889629338
 50
11.9667512847779598
 51
75.9255313345380927
  0
LINE
  5
F13A
  8
0
 10
3793.9957502128518172
 20
38.4005033304867425
 30
0.0
 11
3794.0055927324519871
 21
38.4005033304867425
 31
0.0
  0
LINE
  5
F13B
  8
0
 10
3794.1138604490520265
 20
38.6170370394867533
 30
0.0
 11
3794.1138604490520265
 21
38.5501096322867483
 31
0.0
  0
LINE
  5
F13C
  8
0
 10
3795.0587423387519266
 20
38.6170370394867533
 30
0.0
 11
3795.0587423387519266
 21
38.5501096322867483
 31
0.0
  0
ARC
  5
F13D
  8
0
 10
3794.4118797640680896
 20
38.5585890352163005
 30
0.0
 40
0.2686256194408211
 50
167.4329483198876005
 51
181.8088931569917008
  0
LINE
  5
F13E
  8
0
 10
3794.4878761970508094
 20
38.6170370334867528
 30
0.0
 11
3794.4878761971099266
 21
38.589309912261001
 31
0.0
  0
ARC
  5
F13F
  8
0
 10
3794.4918939906970081
 20
38.5893099122693997
 30
0.0
 40
0.004017793587364
 50
180.0000001196964945
 51
228.4116809791148057
  0
ARC
  5
F140
  8
0
 10
3794.4927838003950455
 20
38.5903125406891121
 30
0.0
 40
0.0053583252158096
 50
228.4116809791150047
 51
268.5326849891652046
  0
ARC
  5
F141
  8
0
 10
3794.4938654416200734
 20
38.6325392798325424
 30
0.0
 40
0.047598915249874
 50
268.5326849891652046
 51
272.945335751140874
  0
ARC
  5
F142
  8
0
 10
3794.4957607386809286
 20
38.5957024432561369
 30
0.0
 40
0.0107133533060975
 50
272.9453357511669083
 51
291.4988242784248769
  0
ARC
  5
F143
  8
0
 10
3794.5863013939519988
 20
38.000815001986723
 30
0.0
 40
0.5912975896000205
 50
81.5769195034180541
 51
98.4231029758109628
  0
ARC
  5
F144
  8
0
 10
3794.6786505712070721
 20
38.6040680335228075
 30
0.0
 40
0.0192095954269486
 50
252.6295309978590922
 51
269.1126160485791274
  0
ARC
  5
F145
  8
0
 10
3794.6778073568088985
 20
38.5944979401636914
 30
0.0
 40
0.0096526364924523
 50
273.2409488456178224
 51
311.3535240914604856
  0
ARC
  5
F146
  8
0
 10
3794.6808020451139782
 20
38.5892429464730782
 30
0.0
 40
0.0039251259627765
 50
329.5240647643323086
 51
0.9852621776800894
  0
LINE
  5
F147
  8
0
 10
3794.6847265907517794
 20
38.5893104398834765
 30
0.0
 11
3794.6847265907517794
 21
38.617045037042331
 31
0.0
  0
LINE
  5
F148
  8
0
 10
3790.8958168673821092
 20
40.0092300041149826
 30
0.0
 11
3798.2767858355719
 21
40.0092300041149826
 31
0.0
  0
ARC
  5
F149
  8
0
 10
3789.8782775937911538
 20
20.5195463684453898
 30
0.0
 40
19.5162279755025097
 50
87.0113511565406412
 51
88.6005688457387208
  0
ARC
  5
F14A
  8
0
 10
3790.5588883194841401
 20
48.3797001684087391
 30
0.0
 40
8.3522380877299653
 50
263.2693244010964122
 51
268.6005688457386782
  0
ARC
  5
F14B
  8
0
 10
3790.0644568658522076
 20
44.1901645768609015
 30
0.0
 40
4.1336280162507331
 50
252.6326201124383886
 51
263.2693244010964122
  0
ARC
  5
F14C
  8
0
 10
3789.4061713062510535
 20
42.0853741868232305
 30
0.0
 40
1.9282975503173949
 50
231.9269383874263042
 51
252.6326201124383886
  0
ARC
  5
F14D
  8
0
 10
3789.3628674536771541
 20
42.0300932288781226
 30
0.0
 40
1.858074990130917
 50
213.0645033379084055
 51
231.9269383874263042
  0
ARC
  5
F14E
  8
0
 10
3789.8645474118570746
 20
42.356691568636883
 30
0.0
 40
2.456697789539863
 50
195.2143741897392886
 51
213.0645033379084055
  0
ARC
  5
F14F
  8
0
 10
3793.9378346676021465
 20
43.7070637588015884
 30
0.0
 40
6.745661782625576
 50
190.0316236870795024
 51
197.2030232731447086
  0
ARC
  5
F150
  8
0
 10
3788.449317196228094
 20
42.7310703042569031
 30
0.0
 40
1.17105487201307
 50
177.826710378151688
 51
189.7861078587959014
  0
ARC
  5
F151
  8
0
 10
3787.9440961004538622
 20
42.7242236702361922
 30
0.0
 40
0.6669638113121157
 50
166.3070552894515117
 51
175.5925454664611891
  0
LINE
  5
F152
  8
0
 10
3789.5442853714339435
 20
39.5308245548868911
 30
0.0
 11
3799.6283173315200656
 21
39.5308245548868911
 31
0.0
  0
ARC
  5
F153
  8
0
 10
3789.8434812283039719
 20
45.3130066633923718
 30
0.0
 40
5.7899177970579796
 50
257.3858692158589747
 51
267.0379029406803966
  0
ARC
  5
F154
  8
0
 10
3789.0896439045841362
 20
41.9444349850931175
 30
0.0
 40
2.338027610149878
 50
234.9031125354817107
 51
257.3858692158589747
  0
ARC
  5
F155
  8
0
 10
3788.7220123041779516
 20
41.4212877201981513
 30
0.0
 40
1.6986247212100889
 50
217.3165388921395049
 51
234.9031125354817107
  0
ARC
  5
F156
  8
0
 10
3789.2346554521291182
 20
41.8120510521739988
 30
0.0
 40
2.3432168238280591
 50
203.7977454506566062
 51
217.3165388921395049
  0
ARC
  5
F157
  8
0
 10
3789.6152965619289716
 20
41.9799158937154502
 30
0.0
 40
2.7592291547700389
 50
193.7783625367929972
 51
203.7977454506566062
  0
ARC
  5
F158
  8
0
 10
3788.088799034846943
 20
41.6055833358025779
 30
0.0
 40
1.187504126624161
 50
184.021224329081889
 51
193.7783625367929972
  0
ARC
  5
F159
  8
0
 10
3787.9124482221818653
 20
41.5931860381436707
 30
0.0
 40
1.010718091777512
 50
178.2141299720522909
 51
184.021224329081889
  0
LINE
  5
F15A
  8
0
 10
3787.6517127661518316
 20
38.8701668134867475
 30
0.0
 11
3787.6659296572652238
 21
39.4202552058380817
 31
0.0
  0
ARC
  5
F15B
  8
0
 10
3800.9203051655467789
 20
40.0804686230691871
 30
0.0
 40
1.410660578256008
 50
284.2914139026814837
 51
291.873755849028214
  0
ARC
  5
F15C
  8
0
 10
3800.6661096622269724
 20
41.0819835445805595
 30
0.0
 40
2.4439306424240912
 50
280.8863627968829064
 51
284.270339664881476
  0
ARC
  5
F15D
  8
0
 10
3800.6803175428181021
 20
41.0081083761497993
 30
0.0
 40
2.3687016295264272
 50
274.9686590526176815
 51
280.8863627968829064
  0
ARC
  5
F15E
  8
0
 10
3800.0957939373420231
 20
47.7316005859766221
 30
0.0
 40
9.1175545202746342
 50
273.2002582485221751
 51
274.9686590526176815
  0
ARC
  5
F15F
  8
0
 10
3800.1729438394031604
 20
46.3517850786477794
 30
0.0
 40
7.7355838470498979
 50
270.8454198954595995
 51
273.2002582485221751
  0
ARC
  5
F160
  8
0
 10
3801.6373519636508718
 20
38.4884479076389567
 30
0.0
 40
0.1277592975955567
 50
274.7791461887036917
 51
297.1027334038431036
  0
LINE
  5
F161
  8
0
 10
3801.6955574868029544
 20
38.3747177216867428
 30
0.0
 11
3801.9821224585029995
 21
38.5253416862352509
 31
0.0
  0
LINE
  5
F162
  8
0
 10
3801.9821224585029995
 20
38.5253416862352509
 30
0.0
 11
3801.9821225653017791
 21
38.6682198354867523
 31
0.0
  0
LINE
  5
F163
  8
0
 10
3802.1796836202947816
 20
41.9745621674648177
 30
0.0
 11
3801.8707538461030708
 21
42.8993953823867429
 31
0.0
  0
ARC
  5
F164
  8
0
 10
3801.469158496721775
 20
42.7652471288433702
 30
0.0
 40
0.4234082882667467
 50
18.4712968894946492
 51
46.4802257288425196
  0
ARC
  5
F165
  8
0
 10
3801.2961625974739945
 20
42.5830734480833897
 30
0.0
 40
0.674634941149053
 50
46.4802257288425196
 51
60.9269441776829481
  0
ARC
  5
F166
  8
0
 10
3801.1151361523420746
 20
42.2574728886892288
 30
0.0
 40
1.047175272005415
 50
60.9269441776829481
 51
75.8516004850727796
  0
ARC
  5
F167
  8
0
 10
3799.5285255976709777
 20
35.9634187646853221
 30
0.0
 40
7.5381266944154701
 50
75.8516004850727796
 51
79.6581354964722124
  0
ARC
  5
F168
  8
0
 10
3799.9208107859699339
 20
37.2447616805053912
 30
0.0
 40
6.2091339466850952
 50
81.0967324403425351
 51
85.072925667576115
  0
ARC
  5
F169
  8
0
 10
3799.6372255634760222
 20
33.8793645699301678
 30
0.0
 40
9.5864540158278224
 50
85.1118281141067285
 51
87.7935133068306612
  0
ARC
  5
F16A
  8
0
 10
3799.6153629097548219
 20
37.2554155058227821
 30
0.0
 40
6.2156025497100513
 50
86.3938188094804786
 51
90.1457288123385325
  0
ARC
  5
F16B
  8
0
 10
3791.3894313733389936
 20
232.563376333815512
 30
0.0
 40
193.8404485703449041
 50
272.0797263613941936
 51
272.3496551249318145
  0
ARC
  5
F16C
  8
0
 10
3798.9897150284368763
 20
47.3361786399152393
 30
0.0
 40
8.4573881867890321
 50
272.3496551249318145
 51
279.8129210753361917
  0
ARC
  5
F16D
  8
0
 10
3799.9162831672210814
 20
41.9791243529764131
 30
0.0
 40
3.020793742744039
 50
279.8129210753361917
 51
295.585475000299482
  0
ARC
  5
F16E
  8
0
 10
3800.3149615235251986
 20
41.1464767992538896
 30
0.0
 40
2.0976218299858189
 50
295.585475000299482
 51
312.0670285302210232
  0
ARC
  5
F16F
  8
0
 10
3800.5008568878211008
 20
40.9405041687719375
 30
0.0
 40
1.8201658677606509
 50
312.0670285302210232
 51
330.0603090852687274
  0
ARC
  5
F170
  8
0
 10
3800.4774932634431934
 20
40.9539603936762191
 30
0.0
 40
1.847127487384542
 50
330.0603090852685
 51
353.7035337839943168
  0
ARC
  5
F171
  8
0
 10
3800.3936026540209241
 20
40.9632167661017235
 30
0.0
 40
1.9315272194915261
 50
353.7035337839940894
 51
3.488460536476063
  0
ARC
  5
F172
  8
0
 10
7132.3844264649487741
 20
354.6282344827441761
 30
0.0
 40
3344.7915903925982093
 50
185.3689407724060914
 51
185.3789192137386976
  0
ARC
  5
F173
  8
0
 10
3801.2460764579550414
 20
41.5457713025035105
 30
0.0
 40
1.0273674802356609
 50
6.4231159790663437
 51
24.6685635216874601
  0
ARC
  5
F174
  8
0
 10
3801.4381831749938101
 20
38.7905503850782125
 30
0.0
 40
0.0206659668642535
 50
291.8212725148936215
 51
357.2760782789217728
  0
LINE
  5
F175
  8
0
 10
3801.4588257918030649
 20
38.7895682660867465
 30
0.0
 11
3801.4608694879120776
 21
38.8325235861888984
 31
0.0
  0
ARC
  5
F176
  8
0
 10
3801.5003804761099673
 20
38.8696888048997025
 30
0.0
 40
0.0205150303463629
 50
284.3994672363986069
 51
1.335135894986913
  0
ARC
  5
F177
  8
0
 10
3802.5672520753569188
 20
36.0447264833861425
 30
0.0
 40
2.999315774672012
 50
110.7324166807805028
 51
111.6464574772079033
  0
ARC
  5
F178
  8
0
 10
3800.8195931073319116
 20
40.7020361148633398
 30
0.0
 40
1.9764393466943171
 50
277.2598295599697735
 51
288.9328891378918911
  0
ARC
  5
F179
  8
0
 10
3800.2880678568449184
 20
45.3976737189828015
 30
0.0
 40
6.7019279245432202
 50
270.1815822363255961
 51
276.6945541977538028
  0
ARC
  5
F17A
  8
0
 10
3801.4657157185520191
 20
38.8779283445139825
 30
0.0
 40
0.1081105706908718
 50
270.8588879422844116
 51
277.0008649706369965
  0
LINE
  5
F17B
  8
0
 10
3801.4673362809880928
 20
38.7698299205083572
 30
0.0
 11
3801.4418007306890104
 21
38.7697414803798068
 31
0.0
  0
LINE
  5
F17C
  8
0
 10
3801.9861521926400201
 20
39.8884102358710919
 30
0.0
 11
3802.0213721283039376
 21
38.6682198354306479
 31
0.0
  0
LINE
  5
F17D
  8
0
 10
3802.0213721283039376
 20
38.6682198354306479
 30
0.0
 11
3801.8672788194539862
 21
38.6682194015812826
 31
0.0
  0
LINE
  5
F17E
  8
0
 10
3801.8672788194539862
 20
38.6682194015812826
 30
0.0
 11
3801.862962860503103
 21
38.5474969626867505
 31
0.0
  0
LINE
  5
F17F
  8
0
 10
3801.862962860503103
 20
38.5474969626867505
 30
0.0
 11
3801.5380825650208862
 21
38.374697799691468
 31
0.0
  0
ARC
  5
F180
  8
0
 10
3801.4807100925481791
 20
38.4825639807912623
 30
0.0
 40
0.1221749304182707
 50
276.3252795900863248
 51
298.0078701038553959
  0
LINE
  5
F181
  8
0
 10
3801.8234469696831184
 20
38.8567381837664527
 30
0.0
 11
3801.8118942987030096
 21
38.8054944573534328
 31
0.0
  0
LINE
  5
F182
  8
0
 10
3801.8118942987030096
 20
38.8054944573534328
 30
0.0
 11
3801.8109999459120445
 21
38.7551477068562278
 31
0.0
  0
LINE
  5
F183
  8
0
 10
3801.8109999459120445
 20
38.7551477068562278
 30
0.0
 11
3801.815137571332798
 21
38.5220593782790388
 31
0.0
  0
LINE
  5
F184
  8
0
 10
3801.8109999459120445
 20
38.7551477068562278
 30
0.0
 11
3801.4724385117638121
 21
38.7700270027867475
 31
0.0
  0
LINE
  5
F185
  8
0
 10
3801.3919843155108538
 20
38.7510017951508914
 30
0.0
 11
3801.3723394092021408
 21
38.4574993601300505
 31
0.0
  0
ARC
  5
F186
  8
0
 10
3801.3324364723771396
 20
38.4601701708691124
 30
0.0
 40
0.0399922192094949
 50
271.2726469704743977
 51
356.1707510932301943
  0
LINE
  5
F187
  8
0
 10
3801.3333247017030772
 20
38.4201878166867488
 30
0.0
 11
3799.3174003721028384
 21
38.4201875278867533
 31
0.0
  0
ARC
  5
F188
  8
0
 10
3799.3185219580418561
 20
38.4459131130336118
 30
0.0
 40
0.0257500230323512
 50
234.173747212031202
 51
267.5035953377292799
  0
ARC
  5
F189
  8
0
 10
3799.8420412429900352
 20
39.1710899183992822
 30
0.0
 40
0.9201514098568466
 50
231.0078066249128028
 51
234.173747212031202
  0
LINE
  5
F18A
  8
0
 10
3799.2630686355028047
 20
38.4559190738867471
 30
0.0
 11
3799.1028958771430553
 21
38.6170409059112387
 31
0.0
  0
LINE
  5
F18B
  8
0
 10
3801.2005026021029153
 20
38.4201876798867517
 30
0.0
 11
3801.2000470150028377
 21
38.3611327799867468
 31
0.0
  0
LINE
  5
F18C
  8
0
 10
3799.9709598478029875
 20
38.4201875581867398
 30
0.0
 11
3799.9687612993020593
 21
38.3611330991344914
 31
0.0
  0
LINE
  5
F18D
  8
0
 10
3799.0523119319032048
 20
38.6170383681867406
 30
0.0
 11
3799.042954249306149
 21
38.361133099160682
 31
0.0
  0
LINE
  5
F18E
  8
0
 10
3798.7473297857031866
 20
38.617038345286737
 30
0.0
 11
3798.5669269075028751
 21
38.3687964816867435
 31
0.0
  0
ARC
  5
F18F
  8
0
 10
3798.5518669694729397
 20
38.3797408732843124
 30
0.0
 40
0.0186166979056861
 50
268.3680087237393082
 51
323.9932620246049737
  0
ARC
  5
F190
  8
0
 10
3797.4882810914541551
 20
38.3843011957404485
 30
0.0
 40
0.0243332836481305
 50
217.5149125066205045
 51
252.1997218115571968
  0
LINE
  5
F191
  8
0
 10
3797.4689800557030139
 20
38.3694830071867372
 30
0.0
 11
3797.2858266160028506
 21
38.6170376599867424
 31
0.0
  0
LINE
  5
F192
  8
0
 10
3796.8528807605030124
 20
38.6170373307867507
 30
0.0
 11
3796.8480242665518745
 21
38.3611330992227693
 31
0.0
  0
ARC
  5
F193
  8
0
 10
3799.2943251091628554
 20
20.5195463684453898
 30
0.0
 40
19.5162279755025097
 50
91.399431154261265
 51
92.9886488434593588
  0
ARC
  5
F194
  8
0
 10
3798.6137143834707786
 20
48.3797001684087391
 30
0.0
 40
8.3522380877299653
 50
271.3994311542613218
 51
276.7306755989035878
  0
ARC
  5
F195
  8
0
 10
3799.1081458371018016
 20
44.1901645768609015
 30
0.0
 40
4.1336280162507331
 50
276.7306755989035878
 51
287.3673798875615262
  0
ARC
  5
F196
  8
0
 10
3799.7664313967029557
 20
42.0853741868232305
 30
0.0
 40
1.9282975503173949
 50
287.3673798875615262
 51
308.0730616125737242
  0
ARC
  5
F197
  8
0
 10
3799.809735249276855
 20
42.0300932288781226
 30
0.0
 40
1.858074990130917
 50
308.0730616125737242
 51
326.935496662091623
  0
ARC
  5
F198
  8
0
 10
3799.308055291097844
 20
42.356691568636883
 30
0.0
 40
2.456697789539863
 50
326.935496662091623
 51
344.7856258102603988
  0
ARC
  5
F199
  8
0
 10
3795.2347680353532269
 20
43.7070637588015884
 30
0.0
 40
6.745661782625576
 50
342.7969767268552914
 51
349.968376312920384
  0
ARC
  5
F19A
  8
0
 10
3800.7232855067268247
 20
42.7310703042569031
 30
0.0
 40
1.17105487201307
 50
350.2138921412040986
 51
2.1732896218482591
  0
ARC
  5
F19B
  8
0
 10
3801.228506602500147
 20
42.7242236702361922
 30
0.0
 40
0.6669638113121157
 50
4.407454533538802
 51
13.6929447105484599
  0
ARC
  5
F19C
  8
0
 10
3799.3291214746509468
 20
45.3130066633923718
 30
0.0
 40
5.7899177970579796
 50
272.9620970593194897
 51
282.6141307841410253
  0
ARC
  5
F19D
  8
0
 10
3800.082958798369873
 20
41.9444349850931175
 30
0.0
 40
2.338027610149878
 50
282.6141307841410253
 51
305.0968874645183178
  0
ARC
  5
F19E
  8
0
 10
3800.4505903987760576
 20
41.4212877201981513
 30
0.0
 40
1.6986247212100889
 50
305.0968874645183178
 51
322.6834611078605235
  0
ARC
  5
F19F
  8
0
 10
3799.9379472508258004
 20
41.8120510521739988
 30
0.0
 40
2.3432168238280591
 50
322.6834611078605235
 51
336.2022545493433086
  0
ARC
  5
F1A0
  8
0
 10
3799.5573061410250375
 20
41.9799158937154502
 30
0.0
 40
2.7592291547700389
 50
336.2022545493433086
 51
346.2216374632067755
  0
ARC
  5
F1A1
  8
0
 10
3801.0838036681079757
 20
41.6055833358025779
 30
0.0
 40
1.187504126624161
 50
346.2216374632067755
 51
355.9787756709177984
  0
ARC
  5
F1A2
  8
0
 10
3801.2601544807721439
 20
41.5931860381436707
 30
0.0
 40
1.010718091777512
 50
355.9787756709177984
 51
1.785870027947696
  0
LINE
  5
F1A3
  8
0
 10
3801.520889936803087
 20
38.8701668134867475
 30
0.0
 11
3801.5066730456901496
 21
39.4202552058380817
 31
0.0
  0
ARC
  5
F1A4
  8
0
 10
3794.2638001739860556
 20
40.4027017814887017
 30
0.0
 40
7.7161041414163307
 50
348.4422538469440838
 51
355.9133474915132069
  0
ARC
  5
F1A5
  8
0
 10
3799.2444141468481575
 20
39.9651468834144765
 30
0.0
 40
2.7163071655267812
 50
343.6158821258396188
 51
354.982997262133722
  0
ARC
  5
F1A6
  8
0
 10
3801.3261805132228801
 20
39.3530767130313492
 30
0.0
 40
0.5464267315753625
 50
318.1263482719954823
 51
343.6158821258396188
  0
ARC
  5
F1A7
  8
0
 10
3801.4909469487270144
 20
39.2053769585162968
 30
0.0
 40
0.3251504433011623
 50
300.6229659861376149
 51
318.1263482719954823
  0
ARC
  5
F1A8
  8
0
 10
3801.0293403207078882
 20
39.9851975739780769
 30
0.0
 40
1.231351784797819
 50
292.9575114556599829
 51
300.6229659861376149
  0
ARC
  5
F1A9
  8
0
 10
3801.0635864910818782
 20
39.7318613725736398
 30
0.0
 40
1.0337364550801029
 50
291.7704296840137772
 51
299.3832045401541109
  0
ARC
  5
F1AA
  8
0
 10
3801.3513885144629967
 20
39.220744800207143
 30
0.0
 40
0.4471615193639859
 50
299.3832045401541109
 51
328.8494985653056801
  0
ARC
  5
F1AB
  8
0
 10
3789.7866400016300759
 20
43.449625311890351
 30
0.0
 40
0.0214055846935972
 50
49.6253582009388623
 51
86.820712440190448
  0
ARC
  5
F1AC
  8
0
 10
3789.7922637524047786
 20
43.4562391250924875
 30
0.0
 40
0.0127240469346141
 50
10.6353769052527003
 51
49.6253582009407168
  0
ARC
  5
F1AD
  8
0
 10
3789.7569945679638295
 20
43.4496161346046108
 30
0.0
 40
0.0486096899428597
 50
2.3419970033005311
 51
10.6353769052514995
  0
LINE
  5
F1AE
  8
0
 10
3789.8055636547519498
 20
43.4516025295867365
 30
0.0
 11
3789.8056003522519859
 21
43.341296368486752
 31
0.0
  0
ARC
  5
F1AF
  8
0
 10
3789.8383183395048945
 20
43.6479798855469028
 30
0.0
 40
0.3084238095970345
 50
263.9105336869512826
 51
268.9071212903554056
  0
ARC
  5
F1B0
  8
0
 10
3789.853120055231102
 20
44.423887567487732
 30
0.0
 40
1.0844726622366041
 50
268.9071212903554056
 51
271.5496976422779767
  0
ARC
  5
F1B1
  8
0
 10
3790.1419583738738766
 20
33.7474947009031965
 30
0.0
 40
9.5958265946182308
 50
90.1730641528636596
 51
91.5496976422779625
  0
ARC
  5
F1B2
  8
0
 10
3790.0569859342981545
 20
61.8789550632208218
 30
0.0
 40
18.5357620990928602
 50
270.173064152863617
 51
271.4622815492645032
  0
ARC
  5
F1B3
  8
0
 10
3791.2956384044377955
 20
13.3560495848912808
 30
0.0
 40
30.0029504507954812
 50
89.7717028378930735
 51
91.4622815492645174
  0
ARC
  5
F1B4
  8
0
 10
3791.7741934100881736
 20
133.4584491386308969
 30
0.0
 40
90.1004025143051734
 50
269.7717028378930877
 51
270.9098067494520024
  0
ARC
  5
F1B5
  8
0
 10
3793.730640493284227
 20
111.4029343841485939
 30
0.0
 40
68.0355604853922955
 50
269.5572028670626992
 51
270.7205250117108903
  0
LINE
  5
F1B6
  8
0
 10
3789.8618874883018179
 20
43.3394503460424829
 30
0.0
 11
3789.8618918316519739
 21
43.4282967761867411
 31
0.0
  0
ARC
  5
F1B7
  8
0
 10
3789.9902197294891266
 20
43.4282905027438773
 30
0.0
 40
0.1283278979912984
 50
169.5373036755422049
 51
179.9971990361783014
  0
ARC
  5
F1B8
  8
0
 10
3789.8851444966981035
 20
43.4476942930504109
 30
0.0
 40
0.0214760771159161
 50
122.524731516553004
 51
169.5373036755437965
  0
ARC
  5
F1B9
  8
0
 10
3789.8931146944228203
 20
43.4351954974906107
 30
0.0
 40
0.0362998398710097
 50
99.4957539666444859
 51
122.524731516553004
  0
LINE
  5
F1BA
  8
0
 10
3799.6310720444857907
 20
43.4709979507867388
 30
0.0
 11
3799.3846756279522197
 21
43.4709979507867388
 31
0.0
  0
ARC
  5
F1BB
  8
0
 10
3799.385862793772958
 20
43.449625311890351
 30
0.0
 40
0.0214055846935972
 50
93.1792875757537757
 51
130.3746417990610951
  0
ARC
  5
F1BC
  8
0
 10
3799.3802390429978004
 20
43.4562391250924875
 30
0.0
 40
0.0127240469346141
 50
130.3746417990593045
 51
169.3646230947472873
  0
ARC
  5
F1BD
  8
0
 10
3799.4155082274392043
 20
43.4496161346046108
 30
0.0
 40
0.0486096899428597
 50
169.3646230947485094
 51
177.6580029966995085
  0
LINE
  5
F1BE
  8
0
 10
3799.366939140651084
 20
43.4516025295867365
 30
0.0
 11
3799.3669024431519574
 21
43.341296368486752
 31
0.0
  0
ARC
  5
F1BF
  8
0
 10
3799.3341844558981393
 20
43.6479798855469028
 30
0.0
 40
0.3084238095970345
 50
271.0928787096445944
 51
276.0894663130487743
  0
ARC
  5
F1C0
  8
0
 10
3799.3193827401728413
 20
44.423887567487732
 30
0.0
 40
1.0844726622366041
 50
268.4503023577220233
 51
271.0928787096445944
  0
ARC
  5
F1C1
  8
0
 10
3799.0305444215300668
 20
33.7474947009031965
 30
0.0
 40
9.5958265946182308
 50
88.4503023577220233
 51
89.8269358471363546
  0
ARC
  5
F1C2
  8
0
 10
3799.1155168611048794
 20
61.8789550632208218
 30
0.0
 40
18.5357620990928602
 50
268.5377184507354968
 51
269.8269358471363262
  0
ARC
  5
F1C3
  8
0
 10
3797.8768643909647835
 20
13.3560495848912808
 30
0.0
 40
30.0029504507954812
 50
88.5377184507354968
 51
90.2282971621069407
  0
ARC
  5
F1C4
  8
0
 10
3797.3983093853162245
 20
133.4584491386308969
 30
0.0
 40
90.1004025143051734
 50
269.090193250547884
 51
270.2282971621069123
  0
ARC
  5
F1C5
  8
0
 10
3795.4418299623121129
 20
111.4151286085259045
 30
0.0
 40
68.0477545955708081
 50
269.279547197928423
 51
270.4427450131479986
  0
LINE
  5
F1C6
  8
0
 10
3799.3106153071021254
 20
43.3394503460424829
 30
0.0
 11
3799.3106109637519694
 21
43.4282967761867411
 31
0.0
  0
ARC
  5
F1C7
  8
0
 10
3799.1822830659139072
 20
43.4282905027438773
 30
0.0
 40
0.1283278979912984
 50
0.0028009638216264
 51
10.4626963244578501
  0
ARC
  5
F1C8
  8
0
 10
3799.2873582987049303
 20
43.4476942930504109
 30
0.0
 40
0.0214760771159161
 50
10.4626963244562496
 51
57.4752684834469889
  0
ARC
  5
F1C9
  8
0
 10
3799.2793881009802135
 20
43.4351954974906107
 30
0.0
 40
0.0362998398710097
 50
57.4752684834469889
 51
80.5042460333555567
  0
ARC
  5
F1CA
  8
0
 10
3795.4274372806071369
 20
38.4697991147987395
 30
0.0
 40
0.0198972095283128
 50
16.2702801378667417
 51
74.4860084620719363
  0
LINE
  5
F1CB
  8
0
 10
3795.4465376217640369
 20
38.5382157273104866
 30
0.0
 11
3795.4465720346229318
 21
37.8808488840143909
 31
0.0
  0
ARC
  5
F1CC
  8
0
 10
3795.4859720345689311
 20
37.8808509465867473
 30
0.0
 40
0.0394
 50
180.0029994083957945
 51
270.0
  0
ARC
  5
F1CD
  8
0
 10
3795.4583489475007809
 20
38.5382980111403626
 30
0.0
 40
0.0118116123502489
 50
90.0014656102018193
 51
180.399145702326507
  0
LINE
  5
F1CE
  8
0
 10
3795.4327580941630913
 20
38.5501096322867483
 30
0.0
 11
3796.6138604563629997
 21
38.5501096322867483
 31
0.0
  0
ARC
  5
F1CF
  8
0
 10
3796.7201596689628786
 20
38.3729442691867391
 30
0.0
 40
0.0118110235999991
 50
270.0
 51
0.0000000000042747
  0
LINE
  5
F1D0
  8
0
 10
3796.7319706925641185
 20
38.3729442691867391
 30
0.0
 11
3796.7319706925641185
 21
38.5855426943867528
 31
0.0
  0
ARC
  5
F1D1
  8
0
 10
3796.7201596689628786
 20
38.5855426943867528
 30
0.0
 40
0.0118110236000018
 50
0.0
 51
89.9999999998176179
  0
LINE
  5
F1D2
  8
0
 10
3796.7201596689628786
 20
38.5973537179867421
 30
0.0
 11
3796.6256714800638292
 21
38.5973537179870476
 31
0.0
  0
ARC
  5
F1D3
  8
0
 10
3796.6256714800629197
 20
38.5855426942870778
 30
0.0
 40
0.0118110236999618
 50
89.9999999998176179
 51
180.0000058229146873
  0
LINE
  5
F1D4
  8
0
 10
3796.6138604563629997
 20
38.5855426930867509
 30
0.0
 11
3796.6138604779698653
 21
38.3729442691867391
 31
0.0
  0
ARC
  5
F1D5
  8
0
 10
3796.6256716490879626
 20
38.3729442703871015
 30
0.0
 40
0.0118111711186063
 50
180.0000058229169042
 51
269.9991800638306927
  0
ARC
  5
F1D6
  8
0
 10
3796.5922069250827917
 20
38.5382986119064981
 30
0.0
 40
0.0118110115802565
 50
359.999968857486806
 51
90.0000583083784136
  0
LINE
  5
F1D7
  8
0
 10
3796.6040179366641496
 20
38.5382986054867516
 30
0.0
 11
3796.6040175793150411
 21
37.8808509251712877
 31
0.0
  0
ARC
  5
F1D8
  8
0
 10
3796.6171166085428013
 20
38.4738353369514883
 30
0.0
 40
0.0133896889629338
 50
104.0744686654618931
 51
168.0332487152219869
  0
LINE
  5
F1D9
  8
0
 10
3796.6138604563629997
 20
38.4005033304867425
 30
0.0
 11
3796.6040179367628298
 21
38.4005033304867425
 31
0.0
  0
LINE
  5
F1DA
  8
0
 10
3796.4957502201627904
 20
38.6170370394867533
 30
0.0
 11
3796.4957502201627904
 21
38.5501096322867483
 31
0.0
  0
LINE
  5
F1DB
  8
0
 10
3795.5508683304637998
 20
38.6170370394867533
 30
0.0
 11
3795.5508683304637998
 21
38.5501096322867483
 31
0.0
  0
ARC
  5
F1DC
  8
0
 10
3796.1977309051458178
 20
38.5585890352163005
 30
0.0
 40
0.2686256194408211
 50
358.1911068430081855
 51
12.5670516801123302
  0
LINE
  5
F1DD
  8
0
 10
3801.9821224585029995
 20
38.5253416862352509
 30
0.0
 11
3801.862962860503103
 21
38.5474969626867505
 31
0.0
  0
ARC
  5
F1DE
  8
0
 10
3788.2520977001568099
 20
40.0804686230691871
 30
0.0
 40
1.410660578256008
 50
248.1262441509717007
 51
255.7085860973184879
  0
ARC
  5
F1DF
  8
0
 10
3787.5350509020540812
 20
38.4884479076389567
 30
0.0
 40
0.1277592975955567
 50
242.8972665961337043
 51
265.2208538117408239
  0
LINE
  5
F1E0
  8
0
 10
3787.4768453789010891
 20
38.3747177216867428
 30
0.0
 11
3787.1902804072019535
 21
38.5253416862352509
 31
0.0
  0
LINE
  5
F1E1
  8
0
 10
3787.1902804072019535
 20
38.5253416862352509
 30
0.0
 11
3787.1902803004009002
 21
38.6682198354867523
 31
0.0
  0
ARC
  5
F1E2
  8
0
 10
3787.7342196907097787
 20
38.7905503850782125
 30
0.0
 40
0.0206659668642535
 50
182.7239217210781987
 51
248.1787274851062932
  0
LINE
  5
F1E3
  8
0
 10
3787.7135770739018881
 20
38.7895682660867465
 30
0.0
 11
3787.7115333777919659
 21
38.8325235861888984
 31
0.0
  0
ARC
  5
F1E4
  8
0
 10
3787.6720223895949857
 20
38.8696888048997025
 30
0.0
 40
0.0205150303463629
 50
178.6648641050130948
 51
255.6005327636013931
  0
ARC
  5
F1E5
  8
0
 10
3786.6051507903471247
 20
36.0447264833861425
 30
0.0
 40
2.999315774672012
 50
68.3535425227920541
 51
69.2675833192195114
  0
ARC
  5
F1E6
  8
0
 10
3787.7066871471520244
 20
38.8779283445139825
 30
0.0
 40
0.1081105706908718
 50
262.9991350293630035
 51
269.1411120577155884
  0
LINE
  5
F1E7
  8
0
 10
3787.7050665847159507
 20
38.7698299205083572
 30
0.0
 11
3787.7306021350150331
 21
38.7697414803798068
 31
0.0
  0
LINE
  5
F1E8
  8
0
 10
3787.1862506730649329
 20
39.8884102358710919
 30
0.0
 11
3787.1510307374001059
 21
38.6682198354306479
 31
0.0
  0
LINE
  5
F1E9
  8
0
 10
3787.1510307374001059
 20
38.6682198354306479
 30
0.0
 11
3787.3051240462500573
 21
38.6682194015812826
 31
0.0
  0
LINE
  5
F1EA
  8
0
 10
3787.3051240462500573
 20
38.6682194015812826
 30
0.0
 11
3787.30944000520185
 21
38.5474969626867505
 31
0.0
  0
LINE
  5
F1EB
  8
0
 10
3787.30944000520185
 20
38.5474969626867505
 30
0.0
 11
3787.6343203006831573
 21
38.374697799691468
 31
0.0
  0
ARC
  5
F1EC
  8
0
 10
3787.6916927731567739
 20
38.4825639807912623
 30
0.0
 40
0.1221749304182707
 50
241.9921298961446041
 51
263.6747204099136752
  0
LINE
  5
F1ED
  8
0
 10
3787.3489558960209251
 20
38.8567381837664527
 30
0.0
 11
3787.3605085670019434
 21
38.8054944573534328
 31
0.0
  0
LINE
  5
F1EE
  8
0
 10
3787.3605085670019434
 20
38.8054944573534328
 30
0.0
 11
3787.3614029197929085
 21
38.7551477068562278
 31
0.0
  0
LINE
  5
F1EF
  8
0
 10
3787.3614029197929085
 20
38.7551477068562278
 30
0.0
 11
3787.357265294372155
 21
38.5220593782790388
 31
0.0
  0
LINE
  5
F1F0
  8
0
 10
3787.3614029197929085
 20
38.7551477068562278
 30
0.0
 11
3787.6999643539411409
 21
38.7700270027867475
 31
0.0
  0
LINE
  5
F1F1
  8
0
 10
3787.7804185501931897
 20
38.7510017951508914
 30
0.0
 11
3787.8000634565028122
 21
38.4574993601300505
 31
0.0
  0
ARC
  5
F1F2
  8
0
 10
3787.8399663933278134
 20
38.4601701708691124
 30
0.0
 40
0.0399922192094949
 50
183.8292489067698057
 51
268.7273530295254886
  0
LINE
  5
F1F3
  8
0
 10
3787.651512928901866
 20
38.8701668134867475
 30
0.0
 11
3787.6657298200148034
 21
39.4202552058380817
 31
0.0
  0
ARC
  5
F1F4
  8
0
 10
3794.9086026917188974
 20
40.4027017814887017
 30
0.0
 40
7.7161041414163307
 50
184.0866525084867931
 51
191.5577461530558878
  0
ARC
  5
F1F5
  8
0
 10
3789.9279887188567955
 20
39.9651468834144765
 30
0.0
 40
2.7163071655267812
 50
185.0170027378661075
 51
196.3841178741604097
  0
ARC
  5
F1F6
  8
0
 10
3787.8462223524811634
 20
39.3530767130313492
 30
0.0
 40
0.5464267315753625
 50
196.3841178741604097
 51
221.873651728004404
  0
ARC
  5
F1F7
  8
0
 10
3787.6814559169779386
 20
39.2053769585162968
 30
0.0
 40
0.3251504433011623
 50
221.873651728004404
 51
239.3770340138624135
  0
ARC
  5
F1F8
  8
0
 10
3788.1430625449961553
 20
39.9851975739780769
 30
0.0
 40
1.231351784797819
 50
239.3770340138624135
 51
247.0424885443160008
  0
ARC
  5
F1F9
  8
0
 10
3788.1088163746230748
 20
39.7318613725736398
 30
0.0
 40
1.0337364550801029
 50
240.6167954598458891
 51
248.2295703159861944
  0
ARC
  5
F1FA
  8
0
 10
3787.8210143512410468
 20
39.220744800207143
 30
0.0
 40
0.4471615193639859
 50
211.1505014346942914
 51
240.6167954598458891
  0
LINE
  5
F1FB
  8
0
 10
3787.1902804072019535
 20
38.5253416862352509
 30
0.0
 11
3787.30944000520185
 21
38.5474969626867505
 31
0.0
  0
LINE
  5
F1FC
  8
0
 10
3787.2321543100429153
 20
38.9243550565350134
 30
0.0
 11
3787.2257046720351354
 21
38.668219625186353
 31
0.0
  0
LINE
  5
F1FD
  8
0
 10
3787.2082973761448557
 20
38.9104749639040435
 30
0.0
 11
3787.2017903004430082
 21
38.6682196925172121
 31
0.0
  0
LINE
  5
F1FE
  8
0
 10
3787.2007128979457775
 20
38.9055660477362579
 30
0.0
 11
3787.1947197901490654
 21
38.668219712424218
 31
0.0
  0
LINE
  5
F1FF
  8
0
 10
3787.1752665058979801
 20
38.9041232123486722
 30
0.0
 11
3787.1650387117579157
 21
38.6682197959912273
 31
0.0
  0
ARC
  5
F200
  8
0
 10
3788.0587629447609288
 20
38.9123760609857428
 30
0.0
 40
0.8835349834583935
 50
168.9576392916112013
 51
180.5351915649567047
  0
ARC
  5
F201
  8
0
 10
3786.1505120811880261
 20
38.9393716415262432
 30
0.0
 40
1.050744770956018
 50
358.156305690717204
 51
7.7796140818667769
  0
ARC
  5
F202
  8
0
 10
3788.0491244534318866
 20
38.9246848484270132
 30
0.0
 40
0.8409471414511493
 50
168.6985592606716864
 51
180.9682001632243953
  0
ARC
  5
F203
  8
0
 10
3786.0961961768998663
 20
38.9543301207954116
 30
0.0
 40
1.136353547418987
 50
358.4884599432544974
 51
6.8308254424460708
  0
LINE
  5
F204
  8
0
 10
3795.1236386346458858
 20
37.8414509465867468
 30
0.0
 11
3794.04499308989989
 21
37.8414509465867468
 31
0.0
  0
ARC
  5
F205
  8
0
 10
3794.04499308989989
 20
37.8808509465867473
 30
0.0
 40
0.0394
 50
180.0000311425148141
 51
270.0
  0
LINE
  5
F206
  8
0
 10
3794.1137604549298885
 20
37.8414509465867468
 30
0.0
 11
3794.1137604549298885
 21
37.735950223586741
 31
0.0
  0
LINE
  5
F207
  8
0
 10
3794.0153352581301078
 20
37.8549130782335794
 30
0.0
 11
3794.0153352581301078
 21
37.7753502235867415
 31
0.0
  0
LINE
  5
F208
  8
0
 10
3794.0547352581311316
 20
37.735950223586741
 30
0.0
 11
3794.1137604549298885
 21
37.735950223586741
 31
0.0
  0
ARC
  5
F209
  8
0
 10
3794.0547352581311316
 20
37.7753502235867415
 30
0.0
 40
0.0394
 50
180.0000000000013927
 51
270.0
  0
LINE
  5
F20A
  8
0
 10
3795.058642410774155
 20
37.8414509465867468
 30
0.0
 11
3795.058642410774155
 21
37.735950223586741
 31
0.0
  0
LINE
  5
F20B
  8
0
 10
3795.1570676075739357
 20
37.8599975591170335
 30
0.0
 11
3795.1570676075739357
 21
37.7753502235867415
 31
0.0
  0
LINE
  5
F20C
  8
0
 10
3795.1176676075738214
 20
37.735950223586741
 30
0.0
 11
3795.058642410774155
 21
37.735950223586741
 31
0.0
  0
ARC
  5
F20D
  8
0
 10
3795.1176676075738214
 20
37.7753502235867415
 30
0.0
 40
0.0394
 50
270.0
 51
359.9999999999985789
  0
LINE
  5
F20E
  8
0
 10
3795.202343132129954
 20
38.151614277986738
 30
0.0
 11
3795.202343132129954
 21
38.3611327972739176
 31
0.0
  0
LINE
  5
F20F
  8
0
 10
3795.1905431321301876
 20
38.1398142779867513
 30
0.0
 11
3795.1630521913139091
 21
38.1398142779867513
 31
0.0
  0
ARC
  5
F210
  8
0
 10
3795.1905431321301876
 20
38.151614277986738
 30
0.0
 40
0.0118
 50
270.0
 51
359.9999999999935199
  0
LINE
  5
F211
  8
0
 10
3796.5646175793149268
 20
37.8414509465867468
 30
0.0
 11
3795.4859720345689311
 21
37.8414509465867468
 31
0.0
  0
ARC
  5
F212
  8
0
 10
3796.5646175793149268
 20
37.8808509465867473
 30
0.0
 40
0.0394
 50
270.0
 51
359.9999688574852144
  0
LINE
  5
F213
  8
0
 10
3796.7754361766360489
 20
37.9088723730960666
 30
0.0
 11
3796.901943656822823
 21
38.3146669944646234
 31
0.0
  0
LINE
  5
F214
  8
0
 10
3795.5783722659311934
 20
37.735950223586741
 30
0.0
 11
3795.7771462817299835
 21
37.735950223586741
 31
0.0
  0
LINE
  5
F215
  8
0
 10
3795.836201399831225
 20
37.735950223586741
 30
0.0
 11
3796.0527368329298952
 21
37.735950223586741
 31
0.0
  0
LINE
  5
F216
  8
0
 10
3796.1117919510302272
 20
37.735950223586741
 30
0.0
 11
3796.3283273841311711
 21
37.735950223586741
 31
0.0
  0
LINE
  5
F217
  8
0
 10
3796.3898999322491363
 20
37.735950223586741
 30
0.0
 11
3796.6062406180608377
 21
37.735950223586741
 31
0.0
  0
LINE
  5
F218
  8
0
 10
3795.5192722659307947
 20
37.7950502235867418
 30
0.0
 11
3795.5192722659307947
 21
37.8196356723867524
 31
0.0
  0
ARC
  5
F219
  8
0
 10
3795.5783722659311934
 20
37.7950502235867418
 30
0.0
 40
0.0591
 50
179.9999999999986073
 51
270.0
  0
LINE
  5
F21A
  8
0
 10
3795.5302284862032138
 20
37.8008748399123817
 30
0.0
 11
3795.5065322689301865
 21
37.8414509465867468
 31
0.0
  0
ARC
  5
F21B
  8
0
 10
3795.8066738407801495
 20
37.6672281242129969
 30
0.0
 40
0.0747970834042774
 50
66.7484410139820596
 51
113.2515589860176988
  0
ARC
  5
F21C
  8
0
 10
3796.0822643919800612
 20
37.6672281242130111
 30
0.0
 40
0.0747970834042719
 50
66.7484410139817754
 51
113.2515589860179972
  0
ARC
  5
F21D
  8
0
 10
3796.3591136581899264
 20
37.6611101186487929
 30
0.0
 40
0.0809248786070768
 50
67.6396623951575151
 51
112.3603376048424991
  0
ARC
  5
F21E
  8
0
 10
3796.5971056177318133
 20
37.8755430727192319
 30
0.0
 40
0.1398914284719972
 50
273.7441154328395783
 51
304.7366654009761078
  0
ARC
  5
F21F
  8
0
 10
3796.5610862986168286
 20
37.9274905170067171
 30
0.0
 40
0.2031047840027035
 50
304.7366654009761078
 51
329.5357195962608898
  0
ARC
  5
F220
  8
0
 10
3796.294752614573099
 20
38.084149478200402
 30
0.0
 40
0.5120961453357041
 50
329.5357195962611172
 51
336.7067451657676997
  0
ARC
  5
F221
  8
0
 10
3796.4610521519321082
 20
38.0125527901168212
 30
0.0
 40
0.3310391878053658
 50
336.7067451657678134
 51
341.748008978083476
  0
LINE
  5
F222
  8
0
 10
3796.594075415629959
 20
37.8306787840859684
 30
0.0
 11
3796.594075415629959
 21
37.8546861633926
 31
0.0
  0
LINE
  5
F223
  8
0
 10
3795.5812631304329443
 20
37.7715787840859676
 30
0.0
 11
3796.534975415630015
 21
37.7715787840859676
 31
0.0
  0
ARC
  5
F224
  8
0
 10
3795.5812631304329443
 20
37.8306787840859613
 30
0.0
 40
0.0591
 50
210.2846871979604941
 51
270.0
  0
ARC
  5
F225
  8
0
 10
3796.534975415630015
 20
37.8306787840859684
 30
0.0
 40
0.0591
 50
270.0
 51
359.9999999999996021
  0
ARC
  5
F226
  8
0
 10
3796.6049147613639434
 20
37.8115109980476021
 30
0.0
 40
0.0758241537376028
 50
223.1093708535198914
 51
265.2230528453844727
  0
ARC
  5
F227
  8
0
 10
3796.4983799924971208
 20
37.711784837539561
 30
0.0
 40
0.0701037876149212
 50
43.1093708535193016
 51
58.5323026577548973
  0
LINE
  5
F228
  8
0
 10
3796.925199509308186
 20
38.3611327972739176
 30
0.0
 11
3796.874336708131068
 21
38.259507587386743
 31
0.0
  0
LINE
  5
F229
  8
0
 10
3796.874336708131068
 20
38.259507587386743
 30
0.0
 11
3796.837506224730987
 21
38.2293990158867416
 31
0.0
  0
LINE
  5
F22A
  8
0
 10
3796.837506224730987
 20
38.2293990158867416
 30
0.0
 11
3796.8387055476091518
 21
38.3611327972739176
 31
0.0
  0
LINE
  5
F22B
  8
0
 10
3796.837506224730987
 20
38.2293990158867416
 30
0.0
 11
3796.8914557596299346
 21
38.3371916006867508
 31
0.0
  0
LINE
  5
F22C
  8
0
 10
3796.8914557596299346
 20
38.3371916006867508
 30
0.0
 11
3796.9207419661220229
 21
38.3611327972739176
 31
0.0
  0
LINE
  5
F22D
  8
0
 10
3796.8914557596299346
 20
38.3371916006867508
 30
0.0
 11
3796.8914557596299346
 21
38.3611327972739176
 31
0.0
  0
LINE
  5
F22E
  8
0
 10
3796.7478320042309861
 20
38.3611327972739176
 30
0.0
 11
3796.7478320042309861
 21
38.1560911897867427
 31
0.0
  0
LINE
  5
F22F
  8
0
 10
3796.7478320042309861
 20
38.1560911897867427
 30
0.0
 11
3796.7846624876301576
 21
38.1861997611867423
 31
0.0
  0
LINE
  5
F230
  8
0
 10
3796.7846624876301576
 20
38.1861997611867423
 30
0.0
 11
3796.8380846993209161
 21
38.2929387403928203
 31
0.0
  0
LINE
  5
F231
  8
0
 10
3796.7478320042309861
 20
38.1560911897867427
 30
0.0
 11
3796.8017815391299337
 21
38.2638837745867519
 31
0.0
  0
LINE
  5
F232
  8
0
 10
3796.8017815391299337
 20
38.2638837745867519
 30
0.0
 11
3796.8380904093628487
 21
38.2935659321621316
 31
0.0
  0
LINE
  5
F233
  8
0
 10
3796.8017815391299337
 20
38.2638837745867519
 30
0.0
 11
3796.8017815391299337
 21
38.3611327972739176
 31
0.0
  0
LINE
  5
F234
  8
0
 10
3796.6040177975701226
 20
38.2823958284867416
 30
0.0
 11
3796.6182205924310438
 21
38.2823958284867416
 31
0.0
  0
LINE
  5
F235
  8
0
 10
3796.6182205924310438
 20
38.2823958284867416
 30
0.0
 11
3796.7145360429190077
 21
38.3611327972739176
 31
0.0
  0
LINE
  5
F236
  8
0
 10
3796.6256714800638292
 20
38.3611330992697077
 30
0.0
 11
3801.6479962482621886
 21
38.3611327972740099
 31
0.0
  0
LINE
  5
F237
  8
0
 10
3769.3328070232428217
 20
39.5816084269867474
 30
0.0
 11
3778.2775957764179111
 21
39.5816084269867474
 31
0.0
  0
LINE
  5
F238
  8
0
 10
3769.4666226596300476
 20
41.8256981251822992
 30
0.0
 11
3778.1437801400297758
 21
41.8256981251822992
 31
0.0
  0
LINE
  5
F239
  8
0
 10
3769.4351226596299966
 20
40.0540493717867392
 30
0.0
 11
3769.4351226596299966
 21
41.7941981251822909
 31
0.0
  0
LINE
  5
F23A
  8
0
 10
3769.3252482655229869
 20
40.0540493717867392
 30
0.0
 11
3769.5220987192178654
 21
40.0540493717867392
 31
0.0
  0
LINE
  5
F23B
  8
0
 10
3769.3131100236478233
 20
39.6009646145839298
 30
0.0
 11
3769.3055512659279884
 21
40.0340055593839423
 31
0.0
  0
LINE
  5
F23C
  8
0
 10
3769.5649402350500168
 20
39.8178288993867397
 30
0.0
 11
3778.0454625646120803
 21
39.8178288993867397
 31
0.0
  0
LINE
  5
F23D
  8
0
 10
3769.5417957188128639
 20
40.0346931841917169
 30
0.0
 11
3769.5452432354550183
 21
39.8371850869817692
 31
0.0
  0
ARC
  5
F23E
  8
0
 10
3769.3328070232428217
 20
39.6013084269867477
 30
0.0
 40
0.0197
 50
180.9999999883561088
 51
270.0
  0
ARC
  5
F23F
  8
0
 10
3769.3252482655229869
 20
40.0343493717867389
 30
0.0
 40
0.0197
 50
90.0
 51
180.9999999883563078
  0
ARC
  5
F240
  8
0
 10
3769.5220987192178654
 20
40.0343493717867389
 30
0.0
 40
0.0197
 50
0.9999999946612916
 51
90.0
  0
ARC
  5
F241
  8
0
 10
3769.5649402350500168
 20
39.83752889938674
 30
0.0
 40
0.0197
 50
180.999999994654786
 51
270.0
  0
ARC
  5
F242
  8
0
 10
3769.4666226596300476
 20
41.7941981251822909
 30
0.0
 40
0.0315
 50
90.0
 51
180.0000000000048885
  0
LINE
  5
F243
  8
0
 10
3769.4491464852308127
 20
41.7801790895867526
 30
0.0
 11
3769.4491464852308127
 21
40.0540493717867392
 31
0.0
  0
LINE
  5
F244
  8
0
 10
3769.4806464852299541
 20
41.8116790895867396
 30
0.0
 11
3778.1437801400297758
 21
41.8116790895867396
 31
0.0
  0
ARC
  5
F245
  8
0
 10
3769.4806464852299541
 20
41.7801790895867526
 30
0.0
 40
0.0315
 50
90.0
 51
180.0000000000032117
  0
LINE
  5
F246
  8
0
 10
3769.5021948030739622
 20
41.825295388486559
 30
0.0
 11
3778.1082079965872254
 21
41.825295388486559
 31
0.0
  0
LINE
  5
F247
  8
0
 10
3769.5132454700801645
 20
41.8121012538196766
 30
0.0
 11
3778.0971573295810231
 21
41.8121012538196766
 31
0.0
  0
LINE
  5
F248
  8
0
 10
3769.5027276816690573
 20
41.8123925540482801
 30
0.0
 11
3769.490101641712954
 21
41.8250185940037511
 31
0.0
  0
LINE
  5
F249
  8
0
 10
3769.490101641712954
 20
41.8250185940037369
 30
0.0
 11
3769.5021948030739622
 21
41.825295388486559
 31
0.0
  0
LINE
  5
F24A
  8
0
 10
3769.5027276816690573
 20
41.8123925540482801
 30
0.0
 11
3769.5132454700801645
 21
41.8121012538196766
 31
0.0
  0
LINE
  5
F24B
  8
0
 10
3769.5138407699300842
 20
41.7705848048867381
 30
0.0
 11
3778.1103415573311395
 21
41.7705848048867381
 31
0.0
  0
LINE
  5
F24C
  8
0
 10
3769.5138777778311123
 20
41.7666477969867529
 30
0.0
 11
3778.1103045494310209
 21
41.7666477969867529
 31
0.0
  0
LINE
  5
F24D
  8
0
 10
3769.4941777778308278
 20
41.7469477969867526
 30
0.0
 11
3769.4941777778308278
 21
40.0540493717867392
 31
0.0
  0
LINE
  5
F24E
  8
0
 10
3769.4902407699300966
 20
41.7469848048867433
 30
0.0
 11
3769.4902407699300966
 21
40.0540493717867392
 31
0.0
  0
ARC
  5
F24F
  8
0
 10
3769.5138777778311123
 20
41.7469477969867526
 30
0.0
 40
0.0197
 50
90.0
 51
180.0000000000077023
  0
ARC
  5
F250
  8
0
 10
3769.5138407699300842
 20
41.7469848048867433
 30
0.0
 40
0.0236
 50
90.0
 51
180.0000000000042064
  0
LINE
  5
F251
  8
0
 10
3778.1752801400298267
 20
40.0540493717867392
 30
0.0
 11
3778.1752801400298267
 21
41.7941981251822909
 31
0.0
  0
LINE
  5
F252
  8
0
 10
3778.2851545341382007
 20
40.0540493717867392
 30
0.0
 11
3778.0883040804428674
 21
40.0540493717867392
 31
0.0
  0
LINE
  5
F253
  8
0
 10
3778.2972927760129096
 20
39.6009646145839298
 30
0.0
 11
3778.3048515337331992
 21
40.0340055593839423
 31
0.0
  0
LINE
  5
F254
  8
0
 10
3778.0686070808478689
 20
40.0346931841917169
 30
0.0
 11
3778.0651595642061693
 21
39.8371850869817692
 31
0.0
  0
ARC
  5
F255
  8
0
 10
3778.2775957764179111
 20
39.6013084269867477
 30
0.0
 40
0.0197
 50
270.0
 51
359.0000000116436922
  0
ARC
  5
F256
  8
0
 10
3778.2851545341382007
 20
40.0343493717867389
 30
0.0
 40
0.0197
 50
359.0000000116436922
 51
90.0
  0
ARC
  5
F257
  8
0
 10
3778.0883040804428674
 20
40.0343493717867389
 30
0.0
 40
0.0197
 50
90.0
 51
179.0000000053387055
  0
ARC
  5
F258
  8
0
 10
3778.0454625646120803
 20
39.83752889938674
 30
0.0
 40
0.0197
 50
270.0
 51
359.000000005345214
  0
ARC
  5
F259
  8
0
 10
3778.1437801400297758
 20
41.7941981251822909
 30
0.0
 40
0.0315
 50
359.9999999999951115
 51
90.0
  0
LINE
  5
F25A
  8
0
 10
3778.129034407031213
 20
41.8125132170867388
 30
0.0
 11
3778.129034407031213
 21
41.8250185940037511
 31
0.0
  0
LINE
  5
F25B
  8
0
 10
3778.129034407031213
 20
41.8250185940037369
 30
0.0
 11
3778.1082079965872254
 21
41.825295388486559
 31
0.0
  0
LINE
  5
F25C
  8
0
 10
3778.129034407031213
 20
41.8125132170867388
 30
0.0
 11
3778.0971573295810231
 21
41.8121012538196766
 31
0.0
  0
LINE
  5
F25D
  8
0
 10
3778.1300045494299411
 20
41.7469477969867526
 30
0.0
 11
3778.1300045494299411
 21
40.0540493717867392
 31
0.0
  0
LINE
  5
F25E
  8
0
 10
3778.1339415573311271
 20
41.7469848048867433
 30
0.0
 11
3778.1339415573311271
 21
40.0540493717867392
 31
0.0
  0
ARC
  5
F25F
  8
0
 10
3778.1103045494310209
 20
41.7469477969867526
 30
0.0
 40
0.0197
 50
359.9999999999923261
 51
90.0
  0
ARC
  5
F260
  8
0
 10
3778.1103415573311395
 20
41.7469848048867433
 30
0.0
 40
0.0236
 50
359.9999999999956799
 51
90.0
  0
ARC
  5
F261
  8
0
 10
3778.1437801400297758
 20
41.7801790895867526
 30
0.0
 40
0.0315
 50
359.9999999999968168
 51
90.0
  0
ENDSEC
  0
EOF
