  0
SECTION
  2
HEADER
  9
$ACADVER
  1
AC1009
  9
$INSBASE
 10
1184.7580031075440274
 20
628.767273442019814
 30
0.0
  9
$EXTMIN
 10
1181.2146960119780488
 20
625.4995569065698646
 30
0.0
  9
$EXTMAX
 10
1184.7696891325310844
 20
632.0349899774699907
 30
0.0
  9
$LIMMIN
 10
0.0
 20
0.0
  9
$LIMMAX
 10
11.6929133858000007
 20
8.2677165353999982
  9
$ORTHOMODE
 70
     0
  9
$REGENMODE
 70
     1
  9
$FILLMODE
 70
     1
  9
$QTEXTMODE
 70
     0
  9
$MIRRTEXT
 70
     0
  9
$DRAGMODE
 70
     2
  9
$LTSCALE
 40
0.6431102362
  9
$OSMODE
 70
  4095
  9
$ATTMODE
 70
     1
  9
$TEXTSIZE
 40
0.2
  9
$TRACEWID
 40
0.05
  9
$TEXTSTYLE
  7
STANDARD
  9
$CLAYER
  8
0
  9
$CELTYPE
  6
BYLAYER
  9
$CECOLOR
 62
   256
  9
$DIMSCALE
 40
1.0
  9
$DIMASZ
 40
0.1875
  9
$DIMEXO
 40
0.0625
  9
$DIMDLI
 40
0.4443307087
  9
$DIMRND
 40
0.0
  9
$DIMDLE
 40
0.0
  9
$DIMEXE
 40
0.125
  9
$DIMTP
 40
0.01
  9
$DIMTM
 40
0.01
  9
$DIMTXT
 40
0.15625
  9
$DIMCEN
 40
0.1052362205
  9
$DIMTSZ
 40
0.0
  9
$DIMTOL
 70
     1
  9
$DIMLIM
 70
     0
  9
$DIMTIH
 70
     1
  9
$DIMTOH
 70
     1
  9
$DIMSE1
 70
     0
  9
$DIMSE2
 70
     0
  9
$DIMTAD
 70
     0
  9
$DIMZIN
 70
     0
  9
$DIMBLK
  1
_FILLED
  9
$DIMASO
 70
     1
  9
$DIMSHO
 70
     1
  9
$DIMPOST
  1

  9
$DIMAPOST
  1

  9
$DIMALT
 70
     1
  9
$DIMALTD
 70
     2
  9
$DIMALTF
 40
25.3999999999999986
  9
$DIMLFAC
 40
1.0
  9
$DIMTOFL
 70
     0
  9
$DIMTVP
 40
0.0
  9
$DIMTIX
 70
     0
  9
$DIMSOXD
 70
     0
  9
$DIMSAH
 70
     0
  9
$DIMBLK1
  1

  9
$DIMBLK2
  1

  9
$DIMSTYLE
  2
STANDARD
  9
$DIMCLRD
 70
     0
  9
$DIMCLRE
 70
     0
  9
$DIMCLRT
 70
     0
  9
$DIMTFAC
 40
1.0
  9
$DIMGAP
 40
0.09
  9
$LUNITS
 70
     2
  9
$LUPREC
 70
     4
  9
$SKETCHINC
 40
0.1
  9
$FILLETRAD
 40
0.0
  9
$AUNITS
 70
     0
  9
$AUPREC
 70
     0
  9
$MENU
  1
.
  9
$ELEVATION
 40
0.0
  9
$PELEVATION
 40
0.0
  9
$THICKNESS
 40
0.0
  9
$LIMCHECK
 70
     0
  9
$BLIPMODE
 70
     0
  9
$CHAMFERA
 40
0.0
  9
$CHAMFERB
 40
0.0
  9
$SKPOLY
 70
     0
  9
$TDCREATE
 40
2459868.5124768521636724
  9
$TDUPDATE
 40
2459920.6918402779847383
  9
$TDINDWG
 40
0.3906828704
  9
$TDUSRTIMER
 40
0.3906828704
  9
$USRTIMER
 70
     1
  9
$ANGBASE
 50
0.0
  9
$ANGDIR
 70
     0
  9
$PDMODE
 70
     0
  9
$PDSIZE
 40
0.3125
  9
$PLINEWID
 40
0.0
  9
$COORDS
 70
     1
  9
$SPLFRAME
 70
     0
  9
$SPLINETYPE
 70
     6
  9
$SPLINESEGS
 70
     8
  9
$ATTDIA
 70
     1
  9
$ATTREQ
 70
     1
  9
$HANDLING
 70
     1
  9
$HANDSEED
  5
72A2
  9
$SURFTAB1
 70
     6
  9
$SURFTAB2
 70
     6
  9
$SURFTYPE
 70
     6
  9
$SURFU
 70
     6
  9
$SURFV
 70
     6
  9
$UCSNAME
  2

  9
$UCSORG
 10
0.0
 20
0.0
 30
0.0
  9
$UCSXDIR
 10
1.0
 20
0.0
 30
0.0
  9
$UCSYDIR
 10
0.0
 20
1.0
 30
0.0
  9
$PUCSNAME
  2

  9
$PUCSORG
 10
0.0
 20
0.0
 30
0.0
  9
$PUCSXDIR
 10
1.0
 20
0.0
 30
0.0
  9
$PUCSYDIR
 10
0.0
 20
1.0
 30
0.0
  9
$USERI1
 70
     0
  9
$USERI2
 70
     0
  9
$USERI3
 70
     0
  9
$USERI4
 70
     0
  9
$USERI5
 70
     0
  9
$USERR1
 40
0.0
  9
$USERR2
 40
0.0
  9
$USERR3
 40
0.0
  9
$USERR4
 40
0.0
  9
$USERR5
 40
0.0
  9
$WORLDVIEW
 70
     1
  9
$SHADEDGE
 70
     3
  9
$SHADEDIF
 70
    70
  9
$TILEMODE
 70
     1
  9
$MAXACTVP
 70
    64
  9
$PLIMCHECK
 70
     0
  9
$PEXTMIN
 10
1.0000000000000000E+20
 20
1.0000000000000000E+20
 30
1.0000000000000000E+20
  9
$PEXTMAX
 10
-1.0000000000000000E+20
 20
-1.0000000000000000E+20
 30
-1.0000000000000000E+20
  9
$PLIMMIN
 10
0.0
 20
0.0
  9
$PLIMMAX
 10
12.0
 20
9.0
  9
$UNITMODE
 70
     0
  9
$VISRETAIN
 70
     1
  9
$PLINEGEN
 70
     0
  9
$PSLTSCALE
 70
     1
  0
ENDSEC
  0
SECTION
  2
TABLES
  0
TABLE
  2
VPORT
 70
     1
  0
VPORT
  2
*ACTIVE
 70
     0
 10
0.0
 20
0.0
 11
1.0
 21
1.0
 12
1191.6306656326939901
 22
627.4146577963631444
 13
0.0
 23
0.0
 14
1.0
 24
1.0
 15
0.0
 25
0.0
 16
0.0
 26
0.0
 36
1.0
 17
0.0
 27
0.0
 37
0.0
 40
29.3715089712588906
 41
2.498684210526315
 42
50.0
 43
0.0
 44
0.0
 50
0.0
 51
0.0
 71
     0
 72
   100
 73
     1
 74
     1
 75
     0
 76
     0
 77
     0
 78
     0
  0
ENDTAB
  0
TABLE
  2
LTYPE
 70
     1
  0
LTYPE
  2
CONTINUOUS
 70
     0
  3
Solid line
 72
    65
 73
     0
 40
0.0
  0
ENDTAB
  0
TABLE
  2
LAYER
 70
     2
  0
LAYER
  2
0
 70
     0
 62
     7
  6
CONTINUOUS
  0
LAYER
  2
DEFPOINTS
 70
     0
 62
     7
  6
CONTINUOUS
  0
ENDTAB
  0
TABLE
  2
STYLE
 70
     1
  0
STYLE
  2
STANDARD
 70
     0
 40
0.0
 41
0.8
 50
0.0
 71
     0
 42
0.2
  3
txt
  4

  0
ENDTAB
  0
TABLE
  2
VIEW
 70
     0
  0
ENDTAB
  0
TABLE
  2
UCS
 70
     0
  0
ENDTAB
  0
TABLE
  2
APPID
 70
    12
  0
APPID
  2
ACAD
 70
     0
  0
APPID
  2
ACAD_DSTYLE_DIMRADIAL_EXTENSION
 70
     0
  0
APPID
  2
ACAD_NAV_VCDISPLAY
 70
     0
  0
APPID
  2
ACAD_MLEADERVER
 70
     0
  0
APPID
  2
ACAD_EXEMPT_FROM_CAD_STANDARDS
 70
     0
  0
APPID
  2
ACAECLAYERSTANDARD
 70
     0
  0
APPID
  2
ACCMTRANSPARENCY
 70
     0
  0
APPID
  2
ACAD_DSTYLE_DIMJAG
 70
     0
  0
APPID
  2
ACAD_DSTYLE_DIMTALN
 70
     0
  0
APPID
  2
ACDBATTR
 70
     0
  0
APPID
  2
ACADANNOTATIVE
 70
     0
  0
APPID
  2
DCO15
 70
     0
  0
ENDTAB
  0
TABLE
  2
DIMSTYLE
 70
     1
  0
DIMSTYLE
  2
STANDARD
 70
     0
  3

  4

  5
_FILLED
  6
_FILLED
  7
_FILLED
 40
1.0
 41
0.1875
 42
0.0625
 43
0.38
 44
0.125
 45
0.0
 46
0.0
 47
0.01
 48
0.01
140
0.15625
141
0.09
142
0.0
143
25.3999999999999986
144
1.0
145
0.0
146
1.0
147
0.09
 71
     1
 72
     0
 73
     1
 74
     1
 75
     0
 76
     0
 77
     0
 78
     4
170
     1
171
     2
172
     0
173
     0
174
     0
175
     0
176
     0
177
     0
178
     0
  0
ENDTAB
  0
ENDSEC
  0
SECTION
  2
BLOCKS
  0
BLOCK
  8
0
  2
$MODEL_SPACE
 70
     0
 10
0.0
 20
0.0
 30
0.0
  3
$MODEL_SPACE
  1

  0
ENDBLK
  5
21
  8
0
  0
BLOCK
 67
     1
  8
0
  2
$PAPER_SPACE
 70
     0
 10
0.0
 20
0.0
 30
0.0
  3
$PAPER_SPACE
  1

  0
ENDBLK
  5
1D
 67
     1
  8
0
  0
BLOCK
  8
0
  2
_FILLED
 70
     0
 10
0.0
 20
0.0
 30
0.0
  3
_FILLED
  1

  0
SOLID
  5
212
  8
0
  6
BYBLOCK
 62
     0
 10
0.0
 20
0.0
 30
0.0
 11
-1.0
 21
0.1666666667
 31
0.0
 12
-1.0
 22
-0.1666666667
 32
0.0
 13
-1.0
 23
-0.1666666667
 33
0.0
  0
ENDBLK
  5
213
  8
0
  6
BYBLOCK
 62
     0
  0
ENDSEC
  0
SECTION
  2
ENTITIES
  0
LINE
  5
D45
  8
0
 10
-1.607698385787991
 20
273788.254113320785109
 30
0.0
 11
-1.607698385787991
 21
273788.2541133213089779
 31
0.0
  0
LINE
  5
7101
  8
0
 10
1181.2461960119780997
 20
626.8610600856699193
 30
0.0
 11
1181.5331960119779069
 21
626.8610600856699193
 31
0.0
  0
ARC
  5
7102
  8
0
 10
1181.2461960119780997
 20
626.8925600856698566
 30
0.0
 40
0.0315
 50
180.0
 51
270.0
  0
LINE
  5
7116
  8
0
 10
1181.2146960119780488
 20
626.8925600856698566
 30
0.0
 11
1181.2146960119780488
 21
630.7436474576697947
 31
0.0
  0
ARC
  5
7117
  8
0
 10
1181.2461960119780997
 20
630.7436474576697947
 30
0.0
 40
0.0314999999999982
 50
90.011482699863592
 51
180.0
  0
LINE
  5
7118
  8
0
 10
1183.0060345946781126
 20
630.7751474576698456
 30
0.0
 11
1183.0060345946781126
 21
628.8460135994698703
 31
0.0
  0
LINE
  5
7119
  8
0
 10
1181.9824125474779066
 20
630.7633474576698518
 30
0.0
 11
1181.9824125474779066
 21
628.8578135994699778
 31
0.0
  0
LINE
  5
711A
  8
0
 10
1181.9036723899780554
 20
630.7751474577700037
 30
0.0
 11
1181.9036723899780554
 21
628.8460135994698703
 31
0.0
  0
LINE
  5
711B
  8
0
 10
1183.0060345946781126
 20
628.8460135994698703
 30
0.0
 11
1184.2274120618760662
 21
628.8460135994698703
 31
0.0
  0
LINE
  5
711C
  8
0
 10
1182.9942345946778914
 20
628.8460135994698703
 30
0.0
 11
1181.9942125474779004
 21
628.8460135994698703
 31
0.0
  0
LINE
  5
711D
  8
0
 10
1181.9036723899780554
 20
628.8460135994698703
 30
0.0
 11
1181.643396011977984
 21
628.8460135994698703
 31
0.0
  0
LINE
  5
711E
  8
0
 10
1184.7580030986780457
 20
625.4995569065698646
 30
0.0
 11
1184.7580031164109187
 21
632.0349899774699907
 31
0.0
  0
LINE
  5
711F
  8
0
 10
1181.5646960119779578
 20
626.8925600856698566
 30
0.0
 11
1181.5646960119779578
 21
628.7673135994698441
 31
0.0
  0
ARC
  5
7120
  8
0
 10
1181.5331960119779069
 20
626.8925600856698566
 30
0.0
 40
0.0315
 50
270.0
 51
0.0
  0
ARC
  5
7121
  8
0
 10
1181.643396011977984
 20
628.7673135994698441
 30
0.0
 40
0.0787
 50
90.0
 51
180.0
  0
LINE
  5
7122
  8
0
 10
1181.9036723899780554
 20
630.6949352572371481
 30
0.0
 11
1181.9725700277779197
 21
630.7554624183699161
 31
0.0
  0
LINE
  5
7123
  8
0
 10
1181.9824125474779066
 20
630.7554624183699161
 30
0.0
 11
1181.9725700278208933
 21
630.7554624183729857
 31
0.0
  0
ARC
  5
7124
  8
0
 10
1181.9942125474779004
 20
630.7633474576698518
 30
0.0
 40
0.0117999999999982
 50
90.0187611035725581
 51
180.0000000000065086
  0
ARC
  5
7125
  8
0
 10
1182.9942345946778914
 20
630.7633474576698518
 30
0.0
 40
0.0117999999999974
 50
359.9999999999805027
 51
89.9812388569148709
  0
ARC
  5
7126
  8
0
 10
1181.9942125474779004
 20
628.8578135994699778
 30
0.0
 40
0.0118
 50
180.0000000000065086
 51
269.9999999999869829
  0
LINE
  5
7127
  8
0
 10
1181.9036723899780554
 20
628.9262357360306623
 30
0.0
 11
1181.9725700277779197
 21
628.8689708434699241
 31
0.0
  0
LINE
  5
7128
  8
0
 10
1181.9725700277779197
 20
628.8689708434699241
 30
0.0
 11
1181.9824125474779066
 21
628.8689708434699241
 31
0.0
  0
ARC
  5
7129
  8
0
 10
1182.9942345946778914
 20
628.8578135994699778
 30
0.0
 40
0.0118
 50
269.9999999999869829
 51
0.0000000000065138
  0
LINE
  5
712A
  8
0
 10
1184.7580031164109187
 20
632.0349899774699907
 30
0.0
 11
1184.3743471897139443
 21
632.0014244347560179
 31
0.0
  0
LINE
  5
712B
  8
0
 10
1184.3635756274779851
 20
625.5448775093078666
 30
0.0
 11
1184.3635756274779851
 21
631.9896693373184462
 31
0.0
  0
LINE
  5
712C
  8
0
 10
1184.7580030986780457
 20
625.4995569065698646
 30
0.0
 11
1184.3743471908519496
 21
625.5331224117709326
 31
0.0
  0
ARC
  5
712D
  8
0
 10
1184.3753756274779789
 20
625.5448775093078666
 30
0.0
 40
0.0118
 50
180.0
 51
265.0000055471879818
  0
ARC
  5
712E
  8
0
 10
1184.3753756274779789
 20
631.9896693373184462
 30
0.0
 40
0.0118
 50
94.9999999977767402
 51
180.0
  0
LINE
  5
712F
  8
0
 10
1183.4194201667210109
 20
626.7495571613269476
 30
0.0
 11
1184.2780849320060952
 21
626.7495571613269476
 31
0.0
  0
LINE
  5
7130
  8
0
 10
1183.0057834135780013
 20
626.7802599654700089
 30
0.0
 11
1182.9115403496780345
 21
626.7802599654700089
 31
0.0
  0
LINE
  5
7133
  8
0
 10
1183.4194204214779802
 20
627.7534939144699138
 30
0.0
 11
1184.2388546519180181
 21
627.7534939144699138
 31
0.0
  0
LINE
  5
7134
  8
0
 10
1183.0057834135780013
 20
627.679555549669999
 30
0.0
 11
1182.9115403496780345
 21
627.679555549669999
 31
0.0
  0
ARC
  5
7135
  8
0
 10
1207.2086264237989326
 20
627.7916453181996985
 30
0.0
 40
22.9545641835632814
 50
181.3414071623504071
 51
185.599741247651508
  0
ARC
  5
7136
  8
0
 10
1208.6748105977819705
 20
628.5557455678613223
 30
0.0
 40
24.4491216755033101
 50
176.6296190362577079
 51
183.0513809611541092
  0
ARC
  5
7137
  8
0
 10
1201.6040202719239005
 20
630.157828620926125
 30
0.0
 40
17.3368254485182192
 50
173.9556512010489087
 51
180.5443557048776881
  0
LINE
  5
7138
  8
0
 10
1183.3997353820780063
 20
626.7692419459699522
 30
0.0
 11
1183.3997353820780063
 21
627.7338088750699399
 31
0.0
  0
LINE
  5
7139
  8
0
 10
1183.3997353820780063
 20
626.7692419459699522
 30
0.0
 11
1183.4194201667210109
 21
626.7495571613269476
 31
0.0
  0
LINE
  5
713A
  8
0
 10
1183.4194204214779802
 20
627.7534939144699138
 30
0.0
 11
1183.3997353820780063
 21
627.7338088750699399
 31
0.0
  0
LINE
  5
713B
  8
0
 10
1182.8721403496779203
 20
626.8196599654700094
 30
0.0
 11
1182.8721403496779203
 21
626.8825579944053743
 31
0.0
  0
LINE
  5
713C
  8
0
 10
1182.8721403496779203
 20
627.242969396379749
 30
0.0
 11
1182.8721403496779203
 21
627.6401555496699984
 31
0.0
  0
LINE
  5
713D
  8
0
 10
1183.0254834135780584
 20
626.8413600856699759
 30
0.0
 11
1183.0254834135780584
 21
626.7999599654699523
 31
0.0
  0
ARC
  5
713E
  8
0
 10
1183.0057834135780013
 20
626.7999599654699523
 30
0.0
 40
0.0197
 50
270.0
 51
0.0
  0
LINE
  5
713F
  8
0
 10
1183.0451834135778881
 20
626.8610600856699193
 30
0.0
 11
1183.3997353820780063
 21
626.8610600856699193
 31
0.0
  0
ARC
  5
7140
  8
0
 10
1183.0451834135778881
 20
626.8413600856699759
 30
0.0
 40
0.0197
 50
90.0
 51
180.0000000000065086
  0
ARC
  5
7141
  8
0
 10
1182.9115403496780345
 20
626.8196599654700094
 30
0.0
 40
0.0394
 50
180.0
 51
270.0
  0
ARC
  5
7142
  8
0
 10
1183.0056968970880007
 20
627.6596466803849808
 30
0.0
 40
0.0199090572682154
 50
353.6397291850262832
 51
89.7510155652075667
  0
ARC
  5
7143
  8
0
 10
1182.9115403496780345
 20
627.6401555496699984
 30
0.0
 40
0.0394
 50
90.0
 51
180.0
  0
LINE
  5
7144
  8
0
 10
1183.0451834135778881
 20
627.6377411585699519
 30
0.0
 11
1183.3997353820780063
 21
627.6377411585699519
 31
0.0
  0
ARC
  5
7145
  8
0
 10
1183.0451834135778881
 20
627.6574411585698954
 30
0.0
 40
0.0197
 50
180.0
 51
270.0000000000130171
  0
ARC
  5
7146
  8
0
 10
1183.2912329312750899
 20
627.2355698385981668
 30
0.0
 40
0.4191579003255176
 50
178.9884827299690926
 51
186.6384345743923063
  0
ARC
  5
7147
  8
0
 10
1179.5259995816859373
 20
627.065006878028953
 30
0.0
 40
3.3511111044474888
 50
356.8790284913023925
 51
2.0881897745533262
  0
LINE
  5
7179
  8
0
 10
1183.031253409988949
 20
627.6435111549806152
 30
0.0
 11
1183.031253409988949
 21
626.8552900892592561
 31
0.0
  0
LINE
  5
717A
  8
0
 10
1183.4194204214779802
 20
627.7534939144699138
 30
0.0
 11
1183.4194204214779802
 21
626.7495571613269476
 31
0.0
  0
LINE
  5
717B
  8
0
 10
1181.9725700278208933
 20
630.7554624184077738
 30
0.0
 11
1181.9725700278208933
 21
628.8689708434342265
 31
0.0
  0
LINE
  5
717C
  8
0
 10
1181.2461896990339483
 20
630.775147457037292
 30
0.0
 11
1181.9036723899780554
 21
630.775147457037292
 31
0.0
  0
LINE
  5
717D
  8
0
 10
1181.9942086836510953
 20
630.775147457037292
 30
0.0
 11
1182.9942384585140189
 21
630.775147457037292
 31
0.0
  0
LINE
  5
717E
  8
0
 10
1183.0060345946781126
 20
630.775147457037292
 30
0.0
 11
1184.2781888607910332
 21
630.775147457037292
 31
0.0
  0
ATTDEF
  5
718B
  8
DEFPOINTS
 10
1184.7590224658640636
 20
628.7655856849611382
 30
0.0
 40
0.001
  1
K-22785IN-4
  3

  2
MODELNUMBER
 70
     0
1001
ACDBATTR
1070
     0
1070
     1
  0
ATTDEF
  5
718C
  8
DEFPOINTS
 10
1184.7588966562079804
 20
628.7639188445820082
 30
0.0
 40
0.001
  1
COMPOSED
  3

  2
TRADENAME
 70
     0
1001
ACDBATTR
1070
     0
1070
     1
  0
ATTDEF
  5
718D
  8
DEFPOINTS
 10
1184.7590224658640636
 20
628.7622523516278079
 30
0.0
 40
0.001
  1
VALVE TRIM
  3

  2
PRODUCT
 70
     0
1001
ACDBATTR
1070
     0
1070
     1
  0
ENDSEC
  0
EOF
