  0
SECTION
  2
HEADER
  9
$ACADVER
  1
AC1009
  9
$INSBASE
 10
4472.7964228209093562
 20
263.4205066502814816
 30
0.0
  9
$EXTMIN
 10
4470.5720133706590786
 20
261.3418065874836884
 30
0.0
  9
$EXTMAX
 10
4475.0208322711578148
 20
263.4205066502814816
 30
0.0
  9
$LIMMIN
 10
0.0
 20
0.0
  9
$LIMMAX
 10
11.6929133858000007
 20
8.2677165353999982
  9
$ORTHOMODE
 70
     0
  9
$REGENMODE
 70
     1
  9
$FILLMODE
 70
     1
  9
$QTEXTMODE
 70
     0
  9
$MIRRTEXT
 70
     0
  9
$DRAGMODE
 70
     2
  9
$LTSCALE
 40
0.6431102362
  9
$OSMODE
 70
  4095
  9
$ATTMODE
 70
     1
  9
$TEXTSIZE
 40
0.2
  9
$TRACEWID
 40
0.05
  9
$TEXTSTYLE
  7
STANDARD
  9
$CLAYER
  8
0
  9
$CELTYPE
  6
BYLAYER
  9
$CECOLOR
 62
   256
  9
$DIMSCALE
 40
1.0
  9
$DIMASZ
 40
0.1875
  9
$DIMEXO
 40
0.0625
  9
$DIMDLI
 40
0.4443307087
  9
$DIMRND
 40
0.0
  9
$DIMDLE
 40
0.0
  9
$DIMEXE
 40
0.125
  9
$DIMTP
 40
0.01
  9
$DIMTM
 40
0.01
  9
$DIMTXT
 40
2.0
  9
$DIMCEN
 40
0.1052362205
  9
$DIMTSZ
 40
0.0
  9
$DIMTOL
 70
     1
  9
$DIMLIM
 70
     0
  9
$DIMTIH
 70
     1
  9
$DIMTOH
 70
     1
  9
$DIMSE1
 70
     0
  9
$DIMSE2
 70
     0
  9
$DIMTAD
 70
     0
  9
$DIMZIN
 70
     0
  9
$DIMBLK
  1

  9
$DIMASO
 70
     1
  9
$DIMSHO
 70
     1
  9
$DIMPOST
  1
\X
  9
$DIMAPOST
  1

  9
$DIMALT
 70
     1
  9
$DIMALTD
 70
     2
  9
$DIMALTF
 40
25.3999999999999986
  9
$DIMLFAC
 40
1.0
  9
$DIMTOFL
 70
     0
  9
$DIMTVP
 40
0.0
  9
$DIMTIX
 70
     0
  9
$DIMSOXD
 70
     0
  9
$DIMSAH
 70
     0
  9
$DIMBLK1
  1

  9
$DIMBLK2
  1

  9
$DIMSTYLE
  2
STANDARD
  9
$DIMCLRD
 70
     0
  9
$DIMCLRE
 70
     0
  9
$DIMCLRT
 70
     0
  9
$DIMTFAC
 40
1.0
  9
$DIMGAP
 40
0.09
  9
$LUNITS
 70
     2
  9
$LUPREC
 70
     4
  9
$SKETCHINC
 40
0.1
  9
$FILLETRAD
 40
0.0
  9
$AUNITS
 70
     0
  9
$AUPREC
 70
     0
  9
$MENU
  1
.
  9
$ELEVATION
 40
0.0
  9
$PELEVATION
 40
0.0
  9
$THICKNESS
 40
0.0
  9
$LIMCHECK
 70
     0
  9
$BLIPMODE
 70
     0
  9
$CHAMFERA
 40
0.0
  9
$CHAMFERB
 40
0.0
  9
$SKPOLY
 70
     0
  9
$TDCREATE
 40
2458060.468368056230247
  9
$TDUPDATE
 40
2459979.5150462961755693
  9
$TDINDWG
 40
0.6298450231
  9
$TDUSRTIMER
 40
0.6298450231
  9
$USRTIMER
 70
     1
  9
$ANGBASE
 50
0.0
  9
$ANGDIR
 70
     0
  9
$PDMODE
 70
     0
  9
$PDSIZE
 40
0.3125
  9
$PLINEWID
 40
0.0
  9
$COORDS
 70
     1
  9
$SPLFRAME
 70
     0
  9
$SPLINETYPE
 70
     6
  9
$SPLINESEGS
 70
     8
  9
$ATTDIA
 70
     1
  9
$ATTREQ
 70
     1
  9
$HANDLING
 70
     1
  9
$HANDSEED
  5
C06B
  9
$SURFTAB1
 70
     6
  9
$SURFTAB2
 70
     6
  9
$SURFTYPE
 70
     6
  9
$SURFU
 70
     6
  9
$SURFV
 70
     6
  9
$UCSNAME
  2

  9
$UCSORG
 10
0.0
 20
0.0
 30
0.0
  9
$UCSXDIR
 10
1.0
 20
0.0
 30
0.0
  9
$UCSYDIR
 10
0.0
 20
1.0
 30
0.0
  9
$PUCSNAME
  2

  9
$PUCSORG
 10
0.0
 20
0.0
 30
0.0
  9
$PUCSXDIR
 10
1.0
 20
0.0
 30
0.0
  9
$PUCSYDIR
 10
0.0
 20
1.0
 30
0.0
  9
$USERI1
 70
     0
  9
$USERI2
 70
     0
  9
$USERI3
 70
     0
  9
$USERI4
 70
     0
  9
$USERI5
 70
     0
  9
$USERR1
 40
0.0
  9
$USERR2
 40
0.0
  9
$USERR3
 40
0.0
  9
$USERR4
 40
0.0
  9
$USERR5
 40
0.0
  9
$WORLDVIEW
 70
     1
  9
$SHADEDGE
 70
     3
  9
$SHADEDIF
 70
    70
  9
$TILEMODE
 70
     1
  9
$MAXACTVP
 70
    64
  9
$PLIMCHECK
 70
     0
  9
$PEXTMIN
 10
1.0000000000000000E+20
 20
1.0000000000000000E+20
 30
1.0000000000000000E+20
  9
$PEXTMAX
 10
-1.0000000000000000E+20
 20
-1.0000000000000000E+20
 30
-1.0000000000000000E+20
  9
$PLIMMIN
 10
0.0
 20
0.0
  9
$PLIMMAX
 10
12.0
 20
9.0
  9
$UNITMODE
 70
     0
  9
$VISRETAIN
 70
     1
  9
$PLINEGEN
 70
     0
  9
$PSLTSCALE
 70
     1
  0
ENDSEC
  0
SECTION
  2
TABLES
  0
TABLE
  2
VPORT
 70
     1
  0
VPORT
  2
*ACTIVE
 70
     0
 10
0.0
 20
0.0
 11
1.0
 21
1.0
 12
188.7275751646589015
 22
37.1327969387068393
 13
0.0
 23
0.0
 14
1.0
 24
1.0
 15
0.0
 25
0.0
 16
0.0
 26
0.0
 36
27.5337298366232197
 17
4284.0688476562490905
 27
225.2483596801758097
 37
0.0
 40
2.463209687063423
 41
1.811304347826086
 42
50.0
 43
0.0
 44
0.0
 50
0.0
 51
0.0
 71
     0
 72
   100
 73
     1
 74
     1
 75
     0
 76
     0
 77
     0
 78
     0
  0
ENDTAB
  0
TABLE
  2
LTYPE
 70
     2
  0
LTYPE
  2
CONTINUOUS
 70
     0
  3
Solid line
 72
    65
 73
     0
 40
0.0
  0
LTYPE
  2
PHANTOM2
 70
     0
  3
___ _ _ ___ _ _ ___ _ _ ___ _ _
 72
    65
 73
     6
 40
1.25
 49
0.625
 49
-0.125
 49
0.125
 49
-0.125
 49
0.125
 49
-0.125
  0
ENDTAB
  0
TABLE
  2
LAYER
 70
     2
  0
LAYER
  2
0
 70
     0
 62
   255
  6
CONTINUOUS
  0
LAYER
  2
DEFPOINTS
 70
     0
 62
     7
  6
CONTINUOUS
  0
ENDTAB
  0
TABLE
  2
STYLE
 70
     1
  0
STYLE
  2
STANDARD
 70
     0
 40
0.0
 41
0.8
 50
0.0
 71
     0
 42
0.2
  3
txt
  4

  0
ENDTAB
  0
TABLE
  2
VIEW
 70
     0
  0
ENDTAB
  0
TABLE
  2
UCS
 70
     0
  0
ENDTAB
  0
TABLE
  2
APPID
 70
     9
  0
APPID
  2
ACAD
 70
     0
  0
APPID
  2
ACAD_MLEADERVER
 70
     0
  0
APPID
  2
ACAD_EXEMPT_FROM_CAD_STANDARDS
 70
     0
  0
APPID
  2
ACAD_NAV_VCDISPLAY
 70
     0
  0
APPID
  2
ACAECLAYERSTANDARD
 70
     0
  0
APPID
  2
ACCMTRANSPARENCY
 70
     0
  0
APPID
  2
ACAD_DSTYLE_DIMJAG
 70
     0
  0
APPID
  2
ACAD_DSTYLE_DIMTALN
 70
     0
  0
APPID
  2
ACDBATTR
 70
     0
  0
ENDTAB
  0
TABLE
  2
DIMSTYLE
 70
     1
  0
DIMSTYLE
  2
STANDARD
 70
     0
  3

  4

  5

  6

  7

 40
1.0
 41
0.1875
 42
0.0625
 43
0.38
 44
0.125
 45
0.0
 46
0.0
 47
0.01
 48
0.01
140
0.15625
141
0.09
142
0.0
143
25.3999999999999986
144
1.0
145
0.0
146
1.0
147
0.09
 71
     1
 72
     0
 73
     1
 74
     1
 75
     0
 76
     0
 77
     0
 78
     4
170
     0
171
     2
172
     0
173
     0
174
     0
175
     0
176
     0
177
     0
178
     0
  0
ENDTAB
  0
ENDSEC
  0
SECTION
  2
BLOCKS
  0
BLOCK
  8
0
  2
$MODEL_SPACE
 70
     0
 10
0.0
 20
0.0
 30
0.0
  3
$MODEL_SPACE
  1

  0
ENDBLK
  5
21
  8
0
  0
BLOCK
 67
     1
  8
0
  2
$PAPER_SPACE
 70
     0
 10
0.0
 20
0.0
 30
0.0
  3
$PAPER_SPACE
  1

  0
ENDBLK
  5
1D
 67
     1
  8
0
  0
ENDSEC
  0
SECTION
  2
ENTITIES
  0
ATTDEF
  5
3930
  8
DEFPOINTS
 10
4472.7917842634233239
 20
263.4186247233174072
 30
0.0
 40
0.001
  1
K-22787IN-4
  3

  2
MODELNUMBER
 70
     0
1001
ACDBATTR
1070
     0
1070
     1
  0
ATTDEF
  5
3931
  8
DEFPOINTS
 10
4472.7917842634233239
 20
263.4169580566506852
 30
0.0
 40
0.001
  1
ALEO+
  3

  2
TRADENAME
 70
     0
1001
ACDBATTR
1070
     0
1070
     1
  0
ATTDEF
  5
3932
  8
DEFPOINTS
 10
4472.7917842634233239
 20
263.4152913899840769
 30
0.0
 40
0.001
  1
VALVE TRIM
  3

  2
PRODUCT
 70
     0
1001
ACDBATTR
1070
     0
1070
     1
  0
LINE
  5
BF67
  8
0
 10
4472.3615704541707601
 20
261.3579467312455904
 30
0.0
 11
4472.290829140137248
 21
261.374125916794128
 31
0.0
  0
ARC
  5
BF68
  8
0
 10
4472.5045595193450936
 20
261.9832621853972228
 30
0.0
 40
0.6414556024853387
 50
257.1197896940502119
 51
269.9931592043540718
  0
LINE
  5
BF69
  8
0
 10
4472.2733489949314389
 20
261.3956669397504129
 30
0.0
 11
4472.2579119908850771
 21
262.2861512061815006
 31
0.0
  0
ARC
  5
BF6A
  8
0
 10
4472.2958455688049071
 20
261.3960595768492112
 30
0.0
 40
0.0225
 50
180.9998929145139073
 51
257.1174997920516034
  0
LINE
  5
BF6B
  8
0
 10
4472.2579119908850771
 20
262.2861512061815006
 30
0.0
 11
4472.7964228209093562
 21
262.2861512061815006
 31
0.0
  0
LINE
  5
BF6C
  8
0
 10
4472.7964228209093562
 20
262.8535775164813799
 30
0.0
 11
4471.8399620531590699
 21
262.8535775164813799
 31
0.0
  0
LINE
  5
BF6D
  8
0
 10
4472.7964228209093562
 20
262.8457035006813953
 30
0.0
 11
4471.8320620531585519
 21
262.8457035006813953
 31
0.0
  0
LINE
  5
BF6E
  8
0
 10
4471.8320620531585519
 20
262.8614775164813864
 30
0.0
 11
4471.8320620531585519
 21
262.9298259761995951
 31
0.0
  0
ARC
  5
BF6F
  8
0
 10
4471.8399620531590699
 20
262.8614775164813864
 30
0.0
 40
0.0079
 50
180.0000000000391083
 51
270.0
  0
LINE
  5
BF70
  8
0
 10
4471.8320620531585519
 20
262.8457035006813953
 30
0.0
 11
4471.8328802227333654
 21
262.8065252620289129
 31
0.0
  0
LINE
  5
BF71
  8
0
 10
4471.8715953282580813
 20
262.8457035006813953
 30
0.0
 11
4471.8714578867593445
 21
262.8535775164813799
 31
0.0
  0
ARC
  5
BF72
  8
0
 10
4471.268244445165692
 20
262.1911687950815235
 30
0.0
 40
1.088703082891942
 50
5.0050549371131678
 51
14.4584936268894193
  0
ARC
  5
BF73
  8
0
 10
4472.0739309055970807
 20
262.3989109032473834
 30
0.0
 40
0.2566649491341235
 50
14.4584936268894193
 51
43.7642535514327378
  0
ARC
  5
BF74
  8
0
 10
4471.8957124757944257
 20
262.2282188866697084
 30
0.0
 40
0.5034392858161647
 50
43.7642535514327378
 51
61.1871738159376832
  0
ARC
  5
BF75
  8
0
 10
4471.7958098468589014
 20
261.9890364321689162
 30
0.0
 40
0.7616640176886625
 50
63.2743157106845118
 51
74.7893520087044692
  0
ARC
  5
BF76
  8
0
 10
4471.6394777237219387
 20
261.4353031451815923
 30
0.0
 40
1.3370270257204531
 50
74.5505190052449507
 51
79.6080762018946047
  0
ARC
  5
BF77
  8
0
 10
4471.8911675142599051
 20
262.807742491034503
 30
0.0
 40
0.0583
 50
181.1963491033048115
 51
259.6080762018946189
  0
ARC
  5
BF78
  8
0
 10
4472.7713212115877468
 20
218.9330311347142128
 30
0.0
 40
44.0090987916500467
 50
89.9673200226616956
 51
90.2969719967263558
  0
ARC
  5
BF79
  8
0
 10
4472.8906845720839556
 20
195.9040734638207084
 30
0.0
 40
67.0383658016882151
 50
90.2969719967263558
 51
90.7059881409283832
  0
ARC
  5
BF7A
  8
0
 10
4472.1363152436069868
 20
257.1232197276095803
 30
0.0
 40
5.8145718784843821
 50
90.7059881409283832
 51
93.4888631825399727
  0
ARC
  5
BF7B
  8
0
 10
4471.8389208948710802
 20
263.1115197149723031
 30
0.0
 40
0.1929465958318155
 50
252.9886513061142921
 51
267.9628275204765941
  0
LINE
  5
BF7C
  8
0
 10
4470.5720133706590786
 20
263.4205066502814816
 30
0.0
 11
4475.0208322711578148
 21
263.4205066502814816
 31
0.0
  0
LINE
  5
BF7D
  8
0
 10
4472.5044829331345682
 20
261.3418065874838021
 30
0.0
 11
4473.0883627086714114
 21
261.3418065874838021
 31
0.0
  0
ARC
  5
BF7E
  8
0
 10
4472.831069644688796
 20
281.0010049717253082
 30
0.0
 40
18.1156531434848382
 50
262.9979248374452254
 51
266.8387576485307022
  0
LINE
  5
BF7F
  8
0
 10
4470.5720133706590786
 20
263.4205066502814816
 30
0.0
 11
4470.6054521610649317
 21
263.0382992378142148
 31
0.0
  0
ARC
  5
BF80
  8
0
 10
4470.6250771967288529
 20
263.0400162046570927
 30
0.0
 40
0.0197
 50
184.9999962360639074
 51
262.9979248373934979
  0
LINE
  5
BF81
  8
0
 10
4470.6226756624819245
 20
263.0204631324367028
 30
0.0
 11
4474.9701699793358785
 21
263.0204631324367028
 31
0.0
  0
LINE
  5
BF82
  8
0
 10
4472.3733567781991951
 20
261.3827321360511178
 30
0.0
 11
4473.2194888636186079
 21
261.3827321360511178
 31
0.0
  0
ARC
  5
BF83
  8
0
 10
4472.2977375547407064
 20
261.3726606075799737
 30
0.0
 40
0.0070621047469913
 50
90.666528740116064
 51
168.0247569710548987
  0
ARC
  5
BF84
  8
0
 10
4472.3927000741541633
 20
259.942753809867213
 30
0.0
 40
1.440108240021452
 50
90.7696105870046352
 51
93.7841736641744887
  0
LINE
  5
BF85
  8
0
 10
4472.3243314756246036
 20
262.3965410518059116
 30
0.0
 11
4472.3259832744515734
 21
262.3019095549424833
 31
0.0
  0
ARC
  5
BF86
  8
0
 10
4472.3448437040278804
 20
262.3964222765753789
 30
0.0
 40
0.0205125721047378
 50
122.1053799294038953
 51
179.6682561040107089
  0
ARC
  5
BF87
  8
0
 10
4472.365347357959763
 20
262.3025966575362986
 30
0.0
 40
0.0393700797604571
 50
181.0000026511243902
 51
204.690375258592212
  0
LINE
  5
BF88
  8
0
 10
4473.2312751876461334
 20
261.3579467312455904
 30
0.0
 11
4473.3020165016823739
 21
261.374125916794128
 31
0.0
  0
ARC
  5
BF89
  8
0
 10
4473.0882861224727094
 20
261.9832621853971091
 30
0.0
 40
0.6414556024852622
 50
270.0068407956459282
 51
282.8802103059497881
  0
LINE
  5
BF8A
  8
0
 10
4473.319496646888183
 20
261.3956669397504129
 30
0.0
 11
4473.3349336509318164
 21
262.2861512061815006
 31
0.0
  0
ARC
  5
BF8B
  8
0
 10
4473.2970000730128959
 20
261.3960595768492112
 30
0.0
 40
0.0225
 50
282.8825002079482829
 51
359.0001070854860927
  0
LINE
  5
BF8C
  8
0
 10
4473.3349336509318164
 20
262.2861512061815006
 30
0.0
 11
4472.7964228209093562
 21
262.2861512061815006
 31
0.0
  0
LINE
  5
BF8D
  8
0
 10
4472.7964228209093562
 20
262.8535775164813799
 30
0.0
 11
4473.7528835886578236
 21
262.8535775164813799
 31
0.0
  0
LINE
  5
BF8E
  8
0
 10
4472.7964228209093562
 20
262.8457035006813953
 30
0.0
 11
4473.7607835886592511
 21
262.8457035006813953
 31
0.0
  0
LINE
  5
BF8F
  8
0
 10
4473.7607835886592511
 20
262.8614775164813864
 30
0.0
 11
4473.7607835886592511
 21
262.9298259761995951
 31
0.0
  0
ARC
  5
BF90
  8
0
 10
4473.7528835886578236
 20
262.8614775164813864
 30
0.0
 40
0.0079
 50
270.0
 51
359.9999999999608917
  0
LINE
  5
BF91
  8
0
 10
4473.7607835886592511
 20
262.8457035006813953
 30
0.0
 11
4473.7599654190853471
 21
262.8065252620289129
 31
0.0
  0
LINE
  5
BF92
  8
0
 10
4473.7212503135579027
 20
262.8457035006813953
 30
0.0
 11
4473.7213877550593679
 21
262.8535775164813799
 31
0.0
  0
ARC
  5
BF93
  8
0
 10
4474.3246011966512015
 20
262.1911687950815235
 30
0.0
 40
1.088703082891942
 50
165.5415063731105079
 51
174.9949450628868135
  0
ARC
  5
BF94
  8
0
 10
4473.5189147362198128
 20
262.3989109032473834
 30
0.0
 40
0.2566649491341235
 50
136.2357464485671983
 51
165.5415063731105079
  0
ARC
  5
BF95
  8
0
 10
4473.6971331660233773
 20
262.2282188866697084
 30
0.0
 40
0.5034392858161647
 50
118.8128261840623026
 51
136.2357464485671983
  0
ARC
  5
BF96
  8
0
 10
4473.7970357949589015
 20
261.9890364321689162
 30
0.0
 40
0.7616640176886625
 50
105.2106479912955024
 51
116.7256842893154953
  0
ARC
  5
BF97
  8
0
 10
4473.9533679180940453
 20
261.4353031451815923
 30
0.0
 40
1.3370270257204531
 50
100.3919237981052959
 51
105.4494809947550067
  0
ARC
  5
BF98
  8
0
 10
4473.7016781275569883
 20
262.807742491034503
 30
0.0
 40
0.0583
 50
280.3919237981053811
 51
358.8036508966951033
  0
ARC
  5
BF99
  8
0
 10
4472.8215244302291467
 20
218.9330311347142128
 30
0.0
 40
44.0090987916500467
 50
89.7030280032736442
 51
90.032679977338347
  0
ARC
  5
BF9A
  8
0
 10
4472.7021610697320284
 20
195.9040734638207084
 30
0.0
 40
67.0383658016882151
 50
89.2940118590716025
 51
89.7030280032736442
  0
ARC
  5
BF9B
  8
0
 10
4473.4565303982108162
 20
257.1232197276095803
 30
0.0
 40
5.8145718784843821
 50
86.511136817460013
 51
89.2940118590716025
  0
ARC
  5
BF9C
  8
0
 10
4473.7539247469467227
 20
263.1115197149723031
 30
0.0
 40
0.1929465958318155
 50
272.0371724795234059
 51
287.0113486938856795
  0
ARC
  5
BF9D
  8
0
 10
4472.7617759971299165
 20
281.0010049717253082
 30
0.0
 40
18.1156531434848382
 50
273.1612423514692978
 51
277.0020751625547746
  0
LINE
  5
BF9E
  8
0
 10
4475.0208322711578148
 20
263.4205066502814816
 30
0.0
 11
4474.9873934807528713
 21
263.0382992378142148
 31
0.0
  0
ARC
  5
BF9F
  8
0
 10
4474.9677684450880406
 20
263.0400162046570927
 30
0.0
 40
0.0197
 50
277.0020751626065021
 51
355.0000037639360926
  0
ARC
  5
BFA0
  8
0
 10
4473.2951080870761871
 20
261.3726606075799737
 30
0.0
 40
0.0070621047469913
 50
11.9752430289450906
 51
89.3334712598839644
  0
ARC
  5
BFA1
  8
0
 10
4473.2001455676627302
 20
259.942753809867213
 30
0.0
 40
1.440108240021452
 50
86.2158263358255255
 51
89.2303894129953648
  0
LINE
  5
BFA2
  8
0
 10
4473.2685141661922898
 20
262.3965410518059116
 30
0.0
 11
4473.2668623673653201
 21
262.3019095549424833
 31
0.0
  0
ARC
  5
BFA3
  8
0
 10
4473.248001937789013
 20
262.3964222765753789
 30
0.0
 40
0.0205125721047378
 50
0.3317438959892972
 51
57.8946200705961189
  0
ARC
  5
BFA4
  8
0
 10
4473.2274982838580399
 20
262.3025966575362986
 30
0.0
 40
0.0393700797604571
 50
335.3096247414076743
 51
358.9999973488755813
  0
LINE
  5
BFA5
  8
0
 10
4471.8806513309436923
 20
262.7503987913939909
 30
0.0
 11
4473.7121943108732012
 21
262.7503987913939909
 31
0.0
  0
ENDSEC
  0
EOF
