  0
SECTION
  2
HEADER
  9
$ACADVER
  1
AC1009
  9
$INSBASE
 10
3288.6101587111720619
 20
144.0135376506970033
 30
0.0
  9
$EXTMIN
 10
3286.1484168976771798
 20
140.7355301539859056
 30
-0.0000000000112498
  9
$EXTMAX
 10
3290.9074621149998165
 20
147.2909751564120882
 30
0.0000000000002956
  9
$LIMMIN
 10
0.0
 20
0.0
  9
$LIMMAX
 10
11.6929133858000007
 20
8.2677165353999982
  9
$ORTHOMODE
 70
     0
  9
$REGENMODE
 70
     1
  9
$FILLMODE
 70
     1
  9
$QTEXTMODE
 70
     0
  9
$MIRRTEXT
 70
     0
  9
$DRAGMODE
 70
     2
  9
$LTSCALE
 40
0.6431102362
  9
$OSMODE
 70
  4095
  9
$ATTMODE
 70
     1
  9
$TEXTSIZE
 40
0.2
  9
$TRACEWID
 40
0.05
  9
$TEXTSTYLE
  7
STANDARD
  9
$CLAYER
  8
0
  9
$CELTYPE
  6
BYLAYER
  9
$CECOLOR
 62
   256
  9
$DIMSCALE
 40
1.0
  9
$DIMASZ
 40
0.1875
  9
$DIMEXO
 40
0.0625
  9
$DIMDLI
 40
0.4443307087
  9
$DIMRND
 40
0.0
  9
$DIMDLE
 40
0.0
  9
$DIMEXE
 40
0.125
  9
$DIMTP
 40
0.01
  9
$DIMTM
 40
0.01
  9
$DIMTXT
 40
2.0
  9
$DIMCEN
 40
0.1052362205
  9
$DIMTSZ
 40
0.0
  9
$DIMTOL
 70
     1
  9
$DIMLIM
 70
     0
  9
$DIMTIH
 70
     1
  9
$DIMTOH
 70
     1
  9
$DIMSE1
 70
     0
  9
$DIMSE2
 70
     0
  9
$DIMTAD
 70
     0
  9
$DIMZIN
 70
     0
  9
$DIMBLK
  1

  9
$DIMASO
 70
     1
  9
$DIMSHO
 70
     1
  9
$DIMPOST
  1
\X
  9
$DIMAPOST
  1

  9
$DIMALT
 70
     1
  9
$DIMALTD
 70
     2
  9
$DIMALTF
 40
25.3999999999999986
  9
$DIMLFAC
 40
1.0
  9
$DIMTOFL
 70
     0
  9
$DIMTVP
 40
0.0
  9
$DIMTIX
 70
     0
  9
$DIMSOXD
 70
     0
  9
$DIMSAH
 70
     0
  9
$DIMBLK1
  1

  9
$DIMBLK2
  1

  9
$DIMSTYLE
  2
STANDARD
  9
$DIMCLRD
 70
     0
  9
$DIMCLRE
 70
     0
  9
$DIMCLRT
 70
     0
  9
$DIMTFAC
 40
1.0
  9
$DIMGAP
 40
0.09
  9
$LUNITS
 70
     2
  9
$LUPREC
 70
     4
  9
$SKETCHINC
 40
0.1
  9
$FILLETRAD
 40
0.0
  9
$AUNITS
 70
     0
  9
$AUPREC
 70
     0
  9
$MENU
  1
.
  9
$ELEVATION
 40
0.0
  9
$PELEVATION
 40
0.0
  9
$THICKNESS
 40
0.0
  9
$LIMCHECK
 70
     0
  9
$BLIPMODE
 70
     0
  9
$CHAMFERA
 40
0.0
  9
$CHAMFERB
 40
0.0
  9
$SKPOLY
 70
     0
  9
$TDCREATE
 40
2458060.468368056230247
  9
$TDUPDATE
 40
2459929.4608333329670131
  9
$TDINDWG
 40
0.6085834491
  9
$TDUSRTIMER
 40
0.6085834491
  9
$USRTIMER
 70
     1
  9
$ANGBASE
 50
0.0
  9
$ANGDIR
 70
     0
  9
$PDMODE
 70
     0
  9
$PDSIZE
 40
0.3125
  9
$PLINEWID
 40
0.0
  9
$COORDS
 70
     1
  9
$SPLFRAME
 70
     0
  9
$SPLINETYPE
 70
     6
  9
$SPLINESEGS
 70
     8
  9
$ATTDIA
 70
     1
  9
$ATTREQ
 70
     1
  9
$HANDLING
 70
     1
  9
$HANDSEED
  5
245B1
  9
$SURFTAB1
 70
     6
  9
$SURFTAB2
 70
     6
  9
$SURFTYPE
 70
     6
  9
$SURFU
 70
     6
  9
$SURFV
 70
     6
  9
$UCSNAME
  2

  9
$UCSORG
 10
0.0
 20
0.0
 30
0.0
  9
$UCSXDIR
 10
1.0
 20
0.0
 30
0.0
  9
$UCSYDIR
 10
0.0
 20
1.0
 30
0.0
  9
$PUCSNAME
  2

  9
$PUCSORG
 10
0.0
 20
0.0
 30
0.0
  9
$PUCSXDIR
 10
1.0
 20
0.0
 30
0.0
  9
$PUCSYDIR
 10
0.0
 20
1.0
 30
0.0
  9
$USERI1
 70
     0
  9
$USERI2
 70
     0
  9
$USERI3
 70
     0
  9
$USERI4
 70
     0
  9
$USERI5
 70
     0
  9
$USERR1
 40
0.0
  9
$USERR2
 40
0.0
  9
$USERR3
 40
0.0
  9
$USERR4
 40
0.0
  9
$USERR5
 40
0.0
  9
$WORLDVIEW
 70
     1
  9
$SHADEDGE
 70
     3
  9
$SHADEDIF
 70
    70
  9
$TILEMODE
 70
     1
  9
$MAXACTVP
 70
    64
  9
$PLIMCHECK
 70
     0
  9
$PEXTMIN
 10
1.0000000000000000E+20
 20
1.0000000000000000E+20
 30
1.0000000000000000E+20
  9
$PEXTMAX
 10
-1.0000000000000000E+20
 20
-1.0000000000000000E+20
 30
-1.0000000000000000E+20
  9
$PLIMMIN
 10
0.0
 20
0.0
  9
$PLIMMAX
 10
12.0
 20
9.0
  9
$UNITMODE
 70
     0
  9
$VISRETAIN
 70
     1
  9
$PLINEGEN
 70
     0
  9
$PSLTSCALE
 70
     1
  0
ENDSEC
  0
SECTION
  2
TABLES
  0
TABLE
  2
VPORT
 70
     1
  0
VPORT
  2
*ACTIVE
 70
     0
 10
0.0
 20
0.0
 11
1.0
 21
1.0
 12
-15.1651757280369495
 22
-51.2482589206887269
 13
0.0
 23
0.0
 14
1.0
 24
1.0
 15
0.0
 25
0.0
 16
0.0
 26
0.0
 36
96.5995694866707311
 17
3303.693115234375
 27
195.2615115758877096
 37
0.0
 40
6.605806935863483
 41
1.593589743589743
 42
50.0
 43
0.0
 44
0.0
 50
0.0
 51
0.0
 71
     0
 72
   100
 73
     1
 74
     1
 75
     0
 76
     0
 77
     0
 78
     0
  0
ENDTAB
  0
TABLE
  2
LTYPE
 70
     2
  0
LTYPE
  2
CONTINUOUS
 70
     0
  3
Solid line
 72
    65
 73
     0
 40
0.0
  0
LTYPE
  2
PHANTOM2
 70
     0
  3
___ _ _ ___ _ _ ___ _ _ ___ _ _
 72
    65
 73
     6
 40
1.25
 49
0.625
 49
-0.125
 49
0.125
 49
-0.125
 49
0.125
 49
-0.125
  0
ENDTAB
  0
TABLE
  2
LAYER
 70
     2
  0
LAYER
  2
0
 70
     0
 62
   255
  6
CONTINUOUS
  0
LAYER
  2
DEFPOINTS
 70
     0
 62
     7
  6
CONTINUOUS
  0
ENDTAB
  0
TABLE
  2
STYLE
 70
     1
  0
STYLE
  2
STANDARD
 70
     0
 40
0.0
 41
0.8
 50
0.0
 71
     0
 42
0.2
  3
txt
  4

  0
ENDTAB
  0
TABLE
  2
VIEW
 70
     0
  0
ENDTAB
  0
TABLE
  2
UCS
 70
     0
  0
ENDTAB
  0
TABLE
  2
APPID
 70
     9
  0
APPID
  2
ACAD
 70
     0
  0
APPID
  2
ACAD_MLEADERVER
 70
     0
  0
APPID
  2
ACAD_EXEMPT_FROM_CAD_STANDARDS
 70
     0
  0
APPID
  2
ACAD_NAV_VCDISPLAY
 70
     0
  0
APPID
  2
ACAECLAYERSTANDARD
 70
     0
  0
APPID
  2
ACCMTRANSPARENCY
 70
     0
  0
APPID
  2
ACAD_DSTYLE_DIMJAG
 70
     0
  0
APPID
  2
ACAD_DSTYLE_DIMTALN
 70
     0
  0
APPID
  2
ACDBATTR
 70
     0
  0
ENDTAB
  0
TABLE
  2
DIMSTYLE
 70
     1
  0
DIMSTYLE
  2
STANDARD
 70
     0
  3

  4

  5

  6

  7

 40
1.0
 41
0.1875
 42
0.0625
 43
0.38
 44
0.125
 45
0.0
 46
0.0
 47
0.01
 48
0.01
140
0.15625
141
0.09
142
0.0
143
25.3999999999999986
144
1.0
145
0.0
146
1.0
147
0.09
 71
     1
 72
     0
 73
     1
 74
     1
 75
     0
 76
     0
 77
     0
 78
     4
170
     0
171
     2
172
     0
173
     0
174
     0
175
     0
176
     0
177
     0
178
     0
  0
ENDTAB
  0
ENDSEC
  0
SECTION
  2
BLOCKS
  0
BLOCK
  8
0
  2
$MODEL_SPACE
 70
     0
 10
0.0
 20
0.0
 30
0.0
  3
$MODEL_SPACE
  1

  0
ENDBLK
  5
21
  8
0
  0
BLOCK
 67
     1
  8
0
  2
$PAPER_SPACE
 70
     0
 10
0.0
 20
0.0
 30
0.0
  3
$PAPER_SPACE
  1

  0
ENDBLK
  5
1D
 67
     1
  8
0
  0
ENDSEC
  0
SECTION
  2
ENTITIES
  0
ATTDEF
  5
23F1E
  8
DEFPOINTS
 10
3288.6061977975277841
 20
144.017410029267694
 30
0.0
 40
0.001
  1
K-22788IN-4
  3

  2
MODELNUMBER
 70
     0
1001
ACDBATTR
1070
     0
1070
     1
  0
ATTDEF
  5
23F1F
  8
DEFPOINTS
 10
3288.6061977975277841
 20
144.0157433626010004
 30
0.0
 40
0.001
  1
ALEO
  3

  2
TRADENAME
 70
     0
1001
ACDBATTR
1070
     0
1070
     1
  0
ATTDEF
  5
23F20
  8
DEFPOINTS
 10
3288.6061977975277841
 20
144.0140766959343068
 30
0.0
 40
0.001
  1
VALVE TRIM
  3

  2
PRODUCT
 70
     0
1001
ACDBATTR
1070
     0
1070
     1
  0
LINE
  5
244E7
  8
0
 10
3287.0917140089718487
 20
147.2812541860969873
 30
0.0
 11
3290.1286034132717759
 21
147.2812541860969873
 31
0.0
  0
LINE
  5
244E8
  8
0
 10
3287.0917140089718487
 20
140.7458211152969909
 30
0.0
 11
3288.0613844628269362
 21
140.7458211152969909
 31
0.0
  0
LINE
  5
244E9
  8
0
 10
3288.4353714350568225
 20
140.7458211152969909
 30
0.0
 11
3288.7849459872882107
 21
140.7458211152969909
 31
0.0
  0
LINE
  5
244EA
  8
0
 10
3289.1589329595171876
 20
140.7458211152969909
 30
0.0
 11
3290.1286034132717759
 21
140.7458211152969909
 31
0.0
  0
ARC
  5
244EB
  8
0
 10
3287.0906125037217862
 20
146.5763909447472884
 30
0.0
 40
0.7048641020223618
 50
89.910462701300446
 51
180.0895372986946086
  0
LINE
  5
244EC
  8
0
 10
3286.3857492623719736
 20
146.5752894394969985
 30
0.0
 11
3286.3857492623719736
 21
141.4517858619969957
 31
0.0
  0
ARC
  5
244ED
  8
0
 10
3287.0912531286280682
 20
141.4513249815526024
 30
0.0
 40
0.7055040167938019
 50
179.9625707216708008
 51
270.0374292702163075
  0
ARC
  5
244EE
  8
0
 10
3288.6097221548720881
 20
145.0568876694970015
 30
0.0
 40
1.0143573385968621
 50
299.3852872909789085
 51
240.6725370816768077
  0
ARC
  5
244EF
  8
0
 10
3288.6101587111720619
 20
145.0568876694970015
 30
0.0
 40
0.9940944891270053
 50
300.0759276096283088
 51
239.9240723903718049
  0
ARC
  5
244F0
  8
0
 10
3288.6101587111720619
 20
145.0568447372970979
 30
0.0
 40
0.964566929099999
 50
301.1989609891464283
 51
238.8010390108536001
  0
ARC
  5
244F1
  8
0
 10
3288.670599966043028
 20
143.3806916656297972
 30
0.0
 40
2.5969449532796229
 50
91.3336214108686733
 51
95.0111117518031421
  0
ARC
  5
244F2
  8
0
 10
3288.5588998829971388
 20
145.0046500288081859
 30
0.0
 40
0.9699189608190985
 50
96.8177317736104186
 51
106.9609414811538954
  0
ARC
  5
244F3
  8
0
 10
3288.3633580334139879
 20
145.6458015013330112
 30
0.0
 40
0.2996116986927757
 50
106.9609414811538954
 51
124.4247939223004948
  0
ARC
  5
244F4
  8
0
 10
3288.3251964885739653
 20
145.7014833274521095
 30
0.0
 40
0.2321078523983123
 50
124.4247939223004948
 51
158.7643751273581927
  0
ARC
  5
244F5
  8
0
 10
3288.4691457261451433
 20
145.6455461040258115
 30
0.0
 40
0.3865434569779269
 50
158.7643751273581927
 51
173.247908257340498
  0
ARC
  5
244F6
  8
0
 10
3289.9601939881758881
 20
145.4690137148936913
 30
0.0
 40
1.888005612384775
 50
173.247908257340498
 51
180.2803743084980965
  0
ARC
  5
244F7
  8
0
 10
3296.6397413942818275
 20
145.3522640427325996
 30
0.0
 40
8.5682049442923311
 50
179.2810537317531896
 51
180.1653601026235947
  0
ARC
  5
244F8
  8
0
 10
3304.2973680569998578
 20
145.3346470458949113
 30
0.0
 40
16.2257974812456993
 50
180.0251117227984992
 51
181.5638444496640886
  0
ARC
  5
244F9
  8
0
 10
3296.9317230810420369
 20
145.0021523658523961
 30
0.0
 40
8.8547962381827414
 50
180.7138610944244022
 51
185.0085071122124987
  0
ARC
  5
244FA
  8
0
 10
3619.3373504814271655
 20
156.8080779286763971
 30
0.0
 40
331.4653834958855896
 50
182.174874663207504
 51
182.6096091290023082
  0
ARC
  5
244FB
  8
0
 10
3290.8892340102797789
 20
141.7855944319167918
 30
0.0
 40
2.6744184024784192
 50
181.4850322321597957
 51
186.2163293951873015
  0
ARC
  5
244FC
  8
0
 10
3288.8519073861748439
 20
141.5558336468322125
 30
0.0
 40
0.6242406173399386
 50
185.5001485872122942
 51
193.9738230912618064
  0
ARC
  5
244FD
  8
0
 10
3288.4573717685980228
 20
141.4548610271866949
 30
0.0
 40
0.2170150562865232
 50
193.2576422832736966
 51
224.1255402829661989
  0
ARC
  5
244FE
  8
0
 10
3288.4491802425059177
 20
141.4469158025561057
 30
0.0
 40
0.2056033213550392
 50
224.1255402829661989
 51
252.7825349219980069
  0
ARC
  5
244FF
  8
0
 10
3288.5150693571999909
 20
141.7577425609802049
 30
0.0
 40
0.5228131968516797
 50
255.9697759212390054
 51
267.6001199706395823
  0
ARC
  5
24500
  8
0
 10
3288.6246255493351782
 20
143.374288936666801
 30
0.0
 40
2.1429363555790402
 50
266.4832550799724231
 51
269.6131966011454892
  0
ARC
  5
24501
  8
0
 10
3290.1297049186227923
 20
146.5763909447472884
 30
0.0
 40
0.7048641020223618
 50
359.9104627013036861
 51
90.089537298699554
  0
LINE
  5
24502
  8
0
 10
3290.8345681599721502
 20
146.5752894394969985
 30
0.0
 11
3290.8345681599721502
 21
141.4517858619969957
 31
0.0
  0
ARC
  5
24503
  8
0
 10
3290.1290642937160555
 20
141.4513249815526024
 30
0.0
 40
0.7055040167938019
 50
269.9625707297836925
 51
0.0374292783291356
  0
ARC
  5
24504
  8
0
 10
3288.4365705144728054
 20
141.3392453133047866
 30
0.0
 40
4.640935413342663
 50
85.7988414811124329
 51
87.8564253562234967
  0
ARC
  5
24505
  8
0
 10
3288.661417539346985
 20
145.0046500288081859
 30
0.0
 40
0.9699189608190985
 50
73.0390585188460619
 51
83.1822682263895956
  0
ARC
  5
24506
  8
0
 10
3288.8569593889301359
 20
145.6458015013330112
 30
0.0
 40
0.2996116986927757
 50
55.5752060776994767
 51
73.0390585188460619
  0
ARC
  5
24507
  8
0
 10
3288.8951209337710679
 20
145.7014833274521095
 30
0.0
 40
0.2321078523983123
 50
21.2356248726417682
 51
55.5752060776994767
  0
ARC
  5
24508
  8
0
 10
3288.75117169619989
 20
145.6455461040258115
 30
0.0
 40
0.3865434569779269
 50
6.7520917426594362
 51
21.2356248726417682
  0
ARC
  5
24509
  8
0
 10
3287.2601234341677809
 20
145.4690137148936913
 30
0.0
 40
1.888005612384775
 50
359.7196256915020172
 51
6.7520917426594362
  0
ARC
  5
2450A
  8
0
 10
3280.5805760280618415
 20
145.3522640427325996
 30
0.0
 40
8.5682049442923311
 50
359.8346398973748137
 51
0.7189462682484634
  0
ARC
  5
2450B
  8
0
 10
3272.9229493653438112
 20
145.3346470458949113
 30
0.0
 40
16.2257974812456993
 50
358.4361555503359114
 51
359.9748882772013872
  0
ARC
  5
2450C
  8
0
 10
3280.2885943413020868
 20
145.0021523658523961
 30
0.0
 40
8.8547962381827414
 50
354.9914928877875013
 51
359.2861389055756263
  0
ARC
  5
2450D
  8
0
 10
2957.8829669409178678
 20
156.8080779286763971
 30
0.0
 40
331.4653834958855896
 50
357.3903908709976918
 51
357.8251253367923823
  0
ARC
  5
2450E
  8
0
 10
3286.3310834120638901
 20
141.7855944319167918
 30
0.0
 40
2.6744184024784192
 50
353.7836706048111068
 51
358.5149677678401758
  0
ARC
  5
2450F
  8
0
 10
3288.3684100361688252
 20
141.5558336468322125
 30
0.0
 40
0.6242406173399386
 50
346.0261769087367156
 51
354.4998514127859721
  0
ARC
  5
24510
  8
0
 10
3288.762945653746101
 20
141.4548610271866949
 30
0.0
 40
0.2170150562865232
 50
315.8744597170338011
 51
346.7423577167263034
  0
ARC
  5
24511
  8
0
 10
3288.7711371798382061
 20
141.4469158025561057
 30
0.0
 40
0.2056033213550392
 50
287.2174650780020215
 51
315.8744597170338011
  0
ARC
  5
24512
  8
0
 10
3288.7052480651441329
 20
141.7577425609802049
 30
0.0
 40
0.5228131968516797
 50
272.3998800293604177
 51
284.0302240787610231
  0
ARC
  5
24513
  8
0
 10
3288.6068949521800278
 20
143.0455414504532996
 30
0.0
 40
1.814142972277242
 50
270.1030788197634251
 51
273.8004694991257111
  0
ARC
  5
24514
  8
0
 10
3288.0604325096378489
 20
140.8973800838261923
 30
0.0
 40
0.1515619581441288
 50
269.6401256668257247
 51
281.6966277637607732
  0
ARC
  5
24515
  8
0
 10
89048.0249827839143109
 20
-85619.1807162458862877
 30
0.0
 40
121282.8585931168927345
 50
134.9999986814945885
 51
135.0000013838163966
  0
ARC
  5
24516
  8
0
 10
3288.1008521378589649
 20
140.7420505513485125
 30
0.0
 40
0.0123296908946912
 50
95.8514709552127471
 51
117.2669355547672012
  0
ARC
  5
24517
  8
0
 10
3288.1306410931961182
 20
140.4969856961589016
 30
0.0
 40
0.259196328457465
 50
89.1638148187797555
 51
96.8792792475064886
  0
LINE
  5
24518
  8
0
 10
3288.134423717971913
 20
140.7561544219643963
 30
0.0
 11
3288.3772064295048949
 21
140.756154421996996
 31
0.0
  0
ARC
  5
24519
  8
0
 10
3288.3776410806831336
 20
140.3515642208037093
 30
0.0
 40
0.4045904346661023
 50
87.4017351125675361
 51
90.061552821667874
  0
ARC
  5
2451A
  8
0
 10
3288.3873214359491612
 20
140.5648847523453924
 30
0.0
 40
0.1910503717849614
 50
82.6571519112879542
 51
87.4017351125675361
  0
ARC
  5
2451B
  8
0
 10
3288.4096736851970491
 20
140.7383420284253077
 30
0.0
 40
0.0161588349070243
 50
65.1960605665664161
 51
82.6571519112879542
  0
LINE
  5
2451C
  8
0
 10
3288.4164525506371319
 20
140.7530101887371927
 30
0.0
 11
3288.4222267191789797
 21
140.747236020189888
 31
0.0
  0
ARC
  5
2451D
  8
0
 10
3288.423746010144896
 20
140.74960516202799
 30
0.0
 40
0.0028144409902768
 50
237.3286274650646135
 51
260.1526328099765237
  0
ARC
  5
2451E
  8
0
 10
3288.4307882613729817
 20
140.7861093999630953
 30
0.0
 40
0.0399912974343326
 50
259.156289368414491
 51
266.6493722586923241
  0
ARC
  5
2451F
  8
0
 10
3288.4502828255808708
 20
141.0940022386421902
 30
0.0
 40
0.3485002786530611
 50
266.4083372960279235
 51
267.5477189024796871
  0
ARC
  5
24520
  8
0
 10
3289.1598849127058202
 20
140.8973800838261923
 30
0.0
 40
0.1515619581441288
 50
258.3033722362392268
 51
270.3598743331742753
  0
ARC
  5
24521
  8
0
 10
-82470.8046653615456307
 20
-85619.1807162458862877
 30
0.0
 40
121282.8585931168927345
 50
44.9999986161836176
 51
45.0000013185053618
  0
ARC
  5
24522
  8
0
 10
3289.1194652844851589
 20
140.7420505513485125
 30
0.0
 40
0.0123296908946912
 50
62.7330644452328201
 51
84.1485290447872529
  0
ARC
  5
24523
  8
0
 10
3289.0896763291489151
 20
140.4969856961589016
 30
0.0
 40
0.259196328457465
 50
83.1207207524935257
 51
90.836185181220273
  0
LINE
  5
24524
  8
0
 10
3289.0858937043731203
 20
140.7561544219643963
 30
0.0
 11
3288.8431109928387741
 21
140.756154421996996
 31
0.0
  0
ARC
  5
24525
  8
0
 10
3288.8426763416609901
 20
140.3515642208037093
 30
0.0
 40
0.4045904346661023
 50
89.9384471783321402
 51
92.5982648874324781
  0
ARC
  5
24526
  8
0
 10
3288.8329959863949625
 20
140.5648847523453924
 30
0.0
 40
0.1910503717849614
 50
92.5982648874324781
 51
97.3428480887120742
  0
ARC
  5
24527
  8
0
 10
3288.8106437371479842
 20
140.7383420284253077
 30
0.0
 40
0.0161588349070243
 50
97.3428480887120742
 51
114.8039394334335981
  0
LINE
  5
24528
  8
0
 10
3288.8038648717079013
 20
140.7530101887371927
 30
0.0
 11
3288.7980907031660536
 21
140.747236020189888
 31
0.0
  0
ARC
  5
24529
  8
0
 10
3288.796571412198773
 20
140.74960516202799
 30
0.0
 40
0.0028144409902768
 50
279.8473671900234763
 51
302.6713725349353012
  0
ARC
  5
2452A
  8
0
 10
3288.7895291609711421
 20
140.7861093999630953
 30
0.0
 40
0.0399912974343326
 50
273.3506277413076759
 51
280.8437106315856227
  0
ARC
  5
2452B
  8
0
 10
3288.7700345967627982
 20
141.0940022386421902
 30
0.0
 40
0.3485002786530611
 50
272.4522810975203129
 51
273.5916627039720765
  0
ENDSEC
  0
EOF
