  0
SECTION
  2
HEADER
  9
$ACADVER
  1
AC1009
  9
$INSBASE
 10
3611.980623388208187
 20
180.4699847718968044
 30
0.0
  9
$EXTMIN
 10
3598.1796375347680623
 20
176.9371172740428904
 30
0.0
  9
$EXTMAX
 10
3614.2864612090588707
 20
183.7377013075976038
 30
0.0
  9
$LIMMIN
 10
0.0
 20
0.0
  9
$LIMMAX
 10
11.6929133858000007
 20
8.2677165353999982
  9
$ORTHOMODE
 70
     0
  9
$REGENMODE
 70
     1
  9
$FILLMODE
 70
     1
  9
$QTEXTMODE
 70
     0
  9
$MIRRTEXT
 70
     0
  9
$DRAGMODE
 70
     2
  9
$LTSCALE
 40
0.6431102362
  9
$OSMODE
 70
  4095
  9
$ATTMODE
 70
     1
  9
$TEXTSIZE
 40
0.2
  9
$TRACEWID
 40
0.05
  9
$TEXTSTYLE
  7
STANDARD
  9
$CLAYER
  8
0
  9
$CELTYPE
  6
BYLAYER
  9
$CECOLOR
 62
   256
  9
$DIMSCALE
 40
1.0
  9
$DIMASZ
 40
0.1875
  9
$DIMEXO
 40
0.0625
  9
$DIMDLI
 40
0.4443307087
  9
$DIMRND
 40
0.0
  9
$DIMDLE
 40
0.0
  9
$DIMEXE
 40
0.125
  9
$DIMTP
 40
0.01
  9
$DIMTM
 40
0.01
  9
$DIMTXT
 40
2.0
  9
$DIMCEN
 40
0.1052362205
  9
$DIMTSZ
 40
0.0
  9
$DIMTOL
 70
     1
  9
$DIMLIM
 70
     0
  9
$DIMTIH
 70
     1
  9
$DIMTOH
 70
     1
  9
$DIMSE1
 70
     0
  9
$DIMSE2
 70
     0
  9
$DIMTAD
 70
     0
  9
$DIMZIN
 70
     0
  9
$DIMBLK
  1

  9
$DIMASO
 70
     1
  9
$DIMSHO
 70
     1
  9
$DIMPOST
  1
\X
  9
$DIMAPOST
  1

  9
$DIMALT
 70
     1
  9
$DIMALTD
 70
     2
  9
$DIMALTF
 40
25.3999999999999986
  9
$DIMLFAC
 40
1.0
  9
$DIMTOFL
 70
     0
  9
$DIMTVP
 40
0.0
  9
$DIMTIX
 70
     0
  9
$DIMSOXD
 70
     0
  9
$DIMSAH
 70
     0
  9
$DIMBLK1
  1

  9
$DIMBLK2
  1

  9
$DIMSTYLE
  2
STANDARD
  9
$DIMCLRD
 70
     0
  9
$DIMCLRE
 70
     0
  9
$DIMCLRT
 70
     0
  9
$DIMTFAC
 40
1.0
  9
$DIMGAP
 40
0.09
  9
$LUNITS
 70
     2
  9
$LUPREC
 70
     4
  9
$SKETCHINC
 40
0.1
  9
$FILLETRAD
 40
0.0
  9
$AUNITS
 70
     0
  9
$AUPREC
 70
     0
  9
$MENU
  1
.
  9
$ELEVATION
 40
0.0
  9
$PELEVATION
 40
0.0
  9
$THICKNESS
 40
0.0
  9
$LIMCHECK
 70
     0
  9
$BLIPMODE
 70
     0
  9
$CHAMFERA
 40
0.0
  9
$CHAMFERB
 40
0.0
  9
$SKPOLY
 70
     0
  9
$TDCREATE
 40
2458060.468368056230247
  9
$TDUPDATE
 40
2459933.84991898201406
  9
$TDINDWG
 40
0.6187454861
  9
$TDUSRTIMER
 40
0.6187454861
  9
$USRTIMER
 70
     1
  9
$ANGBASE
 50
0.0
  9
$ANGDIR
 70
     0
  9
$PDMODE
 70
     0
  9
$PDSIZE
 40
0.3125
  9
$PLINEWID
 40
0.0
  9
$COORDS
 70
     1
  9
$SPLFRAME
 70
     0
  9
$SPLINETYPE
 70
     6
  9
$SPLINESEGS
 70
     8
  9
$ATTDIA
 70
     1
  9
$ATTREQ
 70
     1
  9
$HANDLING
 70
     1
  9
$HANDSEED
  5
1653C
  9
$SURFTAB1
 70
     6
  9
$SURFTAB2
 70
     6
  9
$SURFTYPE
 70
     6
  9
$SURFU
 70
     6
  9
$SURFV
 70
     6
  9
$UCSNAME
  2

  9
$UCSORG
 10
0.0
 20
0.0
 30
0.0
  9
$UCSXDIR
 10
1.0
 20
0.0
 30
0.0
  9
$UCSYDIR
 10
0.0
 20
1.0
 30
0.0
  9
$PUCSNAME
  2

  9
$PUCSORG
 10
0.0
 20
0.0
 30
0.0
  9
$PUCSXDIR
 10
1.0
 20
0.0
 30
0.0
  9
$PUCSYDIR
 10
0.0
 20
1.0
 30
0.0
  9
$USERI1
 70
     0
  9
$USERI2
 70
     0
  9
$USERI3
 70
     0
  9
$USERI4
 70
     0
  9
$USERI5
 70
     0
  9
$USERR1
 40
0.0
  9
$USERR2
 40
0.0
  9
$USERR3
 40
0.0
  9
$USERR4
 40
0.0
  9
$USERR5
 40
0.0
  9
$WORLDVIEW
 70
     1
  9
$SHADEDGE
 70
     3
  9
$SHADEDIF
 70
    70
  9
$TILEMODE
 70
     1
  9
$MAXACTVP
 70
    64
  9
$PLIMCHECK
 70
     0
  9
$PEXTMIN
 10
1.0000000000000000E+20
 20
1.0000000000000000E+20
 30
1.0000000000000000E+20
  9
$PEXTMAX
 10
-1.0000000000000000E+20
 20
-1.0000000000000000E+20
 30
-1.0000000000000000E+20
  9
$PLIMMIN
 10
0.0
 20
0.0
  9
$PLIMMAX
 10
12.0
 20
9.0
  9
$UNITMODE
 70
     0
  9
$VISRETAIN
 70
     1
  9
$PLINEGEN
 70
     0
  9
$PSLTSCALE
 70
     1
  0
ENDSEC
  0
SECTION
  2
TABLES
  0
TABLE
  2
VPORT
 70
     1
  0
VPORT
  2
*ACTIVE
 70
     0
 10
0.0
 20
0.0
 11
1.0
 21
1.0
 12
102.9154166792312992
 22
12.09618328762995
 13
0.0
 23
0.0
 14
1.0
 24
1.0
 15
0.0
 25
0.0
 16
0.0
 26
0.0
 36
55.1646131379725801
 17
3505.1573486328120453
 27
167.4376618068031917
 37
0.0
 40
10.5154484850177301
 41
2.7227011494252871
 42
50.0
 43
0.0
 44
0.0
 50
0.0
 51
0.0
 71
     0
 72
   100
 73
     1
 74
     1
 75
     0
 76
     0
 77
     0
 78
     0
  0
ENDTAB
  0
TABLE
  2
LTYPE
 70
     3
  0
LTYPE
  2
CONTINUOUS
 70
     0
  3
Solid line
 72
    65
 73
     0
 40
0.0
  0
LTYPE
  2
PHANTOM2
 70
     0
  3
___ _ _ ___ _ _ ___ _ _ ___ _ _
 72
    65
 73
     6
 40
1.25
 49
0.625
 49
-0.125
 49
0.125
 49
-0.125
 49
0.125
 49
-0.125
  0
ENDTAB
  0
TABLE
  2
LAYER
 70
     2
  0
LAYER
  2
0
 70
     0
 62
   255
  6
CONTINUOUS
  0
LAYER
  2
DEFPOINTS
 70
     0
 62
     7
  6
CONTINUOUS
  0
ENDTAB
  0
TABLE
  2
STYLE
 70
     1
  0
STYLE
  2
STANDARD
 70
     0
 40
0.0
 41
0.8
 50
0.0
 71
     0
 42
0.2
  3
txt
  4

  0
ENDTAB
  0
TABLE
  2
VIEW
 70
     0
  0
ENDTAB
  0
TABLE
  2
UCS
 70
     0
  0
ENDTAB
  0
TABLE
  2
APPID
 70
    11
  0
APPID
  2
ACAD
 70
     0
  0
APPID
  2
ACAD_MLEADERVER
 70
     0
  0
APPID
  2
ACAD_EXEMPT_FROM_CAD_STANDARDS
 70
     0
  0
APPID
  2
ACAD_NAV_VCDISPLAY
 70
     0
  0
APPID
  2
ACAECLAYERSTANDARD
 70
     0
  0
APPID
  2
ACCMTRANSPARENCY
 70
     0
  0
APPID
  2
ACAD_DSTYLE_DIMJAG
 70
     0
  0
APPID
  2
ACAD_DSTYLE_DIMTALN
 70
     0
  0
APPID
  2
ACDBATTR
 70
     0
  0
APPID
  2
ACAD_PSEXT
 70
     0
  0
APPID
  2
ACADANNOTATIVE
 70
     0
  0
ENDTAB
  0
TABLE
  2
DIMSTYLE
 70
     4
  0
DIMSTYLE
  2
STANDARD
 70
     0
  3

  4

  5

  6

  7

 40
1.0
 41
0.1875
 42
0.0625
 43
0.38
 44
0.125
 45
0.0
 46
0.0
 47
0.01
 48
0.01
140
0.15625
141
0.09
142
0.0
143
25.3999999999999986
144
1.0
145
0.0
146
1.0
147
0.09
 71
     1
 72
     0
 73
     1
 74
     1
 75
     0
 76
     0
 77
     0
 78
     4
170
     0
171
     2
172
     0
173
     0
174
     0
175
     0
176
     0
177
     0
178
     0
  0
DIMSTYLE
  2
ANNOTATIVE
 70
     0
  3

  4

  5

  6

  7

 40
0.0
 41
2.5
 42
0.625
 43
3.75
 44
1.25
 45
0.0
 46
0.0
 47
0.0
 48
0.0
140
2.5
141
2.5
142
0.0
143
0.03937007874016
144
1.0
145
0.0
146
1.0
147
0.625
 71
     0
 72
     0
 73
     0
 74
     0
 75
     0
 76
     0
 77
     1
 78
     8
170
     0
171
     3
172
     1
173
     0
174
     0
175
     0
176
     0
177
     0
178
     0
  0
DIMSTYLE
  2
ISO-25
 70
     0
  3

  4

  5

  6

  7

 40
1.0
 41
2.5
 42
0.625
 43
3.75
 44
1.25
 45
0.0
 46
0.0
 47
0.0
 48
0.0
140
2.5
141
2.5
142
0.0
143
0.03937007874016
144
1.0
145
0.0
146
1.0
147
0.625
 71
     0
 72
     0
 73
     0
 74
     0
 75
     0
 76
     0
 77
     1
 78
     8
170
     0
171
     3
172
     1
173
     0
174
     0
175
     0
176
     0
177
     0
178
     0
  0
ENDTAB
  0
ENDSEC
  0
SECTION
  2
BLOCKS
  0
BLOCK
  8
0
  2
$MODEL_SPACE
 70
     0
 10
0.0
 20
0.0
 30
0.0
  3
$MODEL_SPACE
  1

  0
ENDBLK
  5
21
  8
0
  0
BLOCK
 67
     1
  8
0
  2
$PAPER_SPACE
 70
     0
 10
0.0
 20
0.0
 30
0.0
  3
$PAPER_SPACE
  1

  0
ENDBLK
  5
1D
 67
     1
  8
0
  0
BLOCK
  8
0
  2
_FILLED
 70
     0
 10
0.0
 20
0.0
 30
0.0
  3
_FILLED
  1

  0
SOLID
  5
13356
  8
0
  6
BYBLOCK
 62
     0
 10
0.0
 20
0.0
 30
0.0
 11
-1.0
 21
0.1666666667
 31
0.0
 12
-1.0
 22
-0.1666666667
 32
0.0
 13
-1.0
 23
-0.1666666667
 33
0.0
  0
ENDBLK
  5
13357
  8
0
  6
BYBLOCK
 62
     0
  0
BLOCK
  8
0
  2
A$CA6C50B21
 70
     0
 10
0.0
 20
0.0
 30
0.0
  3
A$CA6C50B21
  1

  0
LINE
  5
13C91
  8
0
 10
1.6930071429726521
 20
2.4198254328769031
 30
0.0
 11
1.6930071429726521
 21
0.453387696419723
 31
0.0
  0
ARC
  5
13C92
  8
0
 10
1.141732324476612
 20
2.1934474800769101
 30
0.0
 40
1.141732283499999
 50
298.8710977576511141
 51
241.1289022423488859
  0
ARC
  5
13C93
  8
0
 10
1.141732324476612
 20
2.4198254328769031
 30
0.0
 40
0.5512748184958216
 50
0.0
 51
180.0
  0
ARC
  5
13C94
  8
0
 10
1.141732324476612
 20
2.4198254328769031
 30
0.0
 40
0.5610236219999987
 50
0.0
 51
180.0
  0
ARC
  5
13C95
  8
0
 10
1.141732324476612
 20
1.967069527276917
 30
0.0
 40
0.5610236219999987
 50
349.3032064022597183
 51
0.0
  0
LINE
  5
13C96
  8
0
 10
1.702755946476606
 20
2.4198254328769031
 30
0.0
 11
1.702755946476606
 21
1.967069527276917
 31
0.0
  0
ARC
  5
13C97
  8
0
 10
1.171382349383072
 20
0.7365850714958793
 30
0.0
 40
0.5600253011141878
 50
42.9656875204986974
 51
75.4299994340822764
  0
ARC
  5
13C98
  8
0
 10
1.274646244313095
 20
0.8331920338790137
 30
0.0
 40
0.4186173581462491
 50
2.005675053372002
 51
42.9228834806205768
  0
ARC
  5
13C99
  8
0
 10
1.171382349383072
 20
0.5646456319485349
 30
0.0
 40
0.5600253011141878
 50
284.5700005659177236
 51
317.0343124795012955
  0
ARC
  5
13C9A
  8
0
 10
1.274646244313095
 20
0.4680386695654005
 30
0.0
 40
0.4186173581462491
 50
317.0771165193793877
 51
357.9943249466280122
  0
ARC
  5
13C9B
  8
0
 10
1.149629361491185
 20
0.6382337873700106
 30
0.0
 40
0.5296542849773741
 50
46.4326575645346509
 51
87.5275202086599649
  0
ARC
  5
13C9C
  8
0
 10
1.274009072514906
 20
0.7688866061897084
 30
0.0
 40
0.3492645314080925
 50
0.3762082144772436
 51
46.4448574871849686
  0
ARC
  5
13C9D
  8
0
 10
1.2162834394446289
 20
0.7835615706835295
 30
0.0
 40
0.4071709367643228
 50
319.9999761394657867
 51
358.2574206449169196
  0
ARC
  5
13C9E
  8
0
 10
1.1531508366099441
 20
0.8609385721753124
 30
0.0
 40
0.5056159792715393
 50
272.1903482074355907
 51
317.8811885699017239
  0
ARC
  5
13C9F
  8
0
 10
1.149982673887513
 20
0.6352425388310206
 30
0.0
 40
0.5179134740379333
 50
47.3254988489164319
 51
87.5107038975980771
  0
ARC
  5
13CA0
  8
0
 10
1.2550518504169821
 20
0.7492066377866973
 30
0.0
 40
0.3629059009734586
 50
11.4232589540081708
 51
47.3254988489164319
  0
ARC
  5
13CA1
  8
0
 10
1.2804713558919101
 20
0.7543428485064095
 30
0.0
 40
0.3369726805957953
 50
341.5944292572374934
 51
11.4232589540081708
  0
LINE
  5
13CA2
  8
0
 10
1.6173588911135599
 20
0.7619175485196746
 30
0.0
 11
1.617371728232007
 21
0.8328225081445435
 31
0.0
  0
LINE
  5
13CA3
  8
0
 10
1.1724783937768339
 20
1.1673949946769231
 30
0.0
 11
1.1724747726764291
 21
1.1268530056769039
 31
0.0
  0
ARC
  5
13CA4
  8
0
 10
1.158011542636592
 20
0.6776573718568937
 30
0.0
 40
0.405234333166696
 50
34.7487934585086933
 51
83.278379743157231
  0
ARC
  5
13CA5
  8
0
 10
1.2541475266205051
 20
0.7546251085583702
 30
0.0
 40
0.2824995890884069
 50
327.0783969145350056
 51
33.035606315330341
  0
ARC
  5
13CA6
  8
0
 10
1.1753466283109959
 20
0.8087186817018316
 30
0.0
 40
0.3780544141834458
 50
281.9262214676294889
 51
326.6874778528983825
  0
ARC
  5
13CA7
  8
0
 10
1.149591737646239
 20
0.5862639130380938
 30
0.0
 40
0.2955651956863322
 50
45.2934732137387215
 51
84.002551360547713
  0
ARC
  5
13CA8
  8
0
 10
1.2099696552375061
 20
0.6472635408170202
 30
0.0
 40
0.209737184397311
 50
26.9768522778092503
 51
45.2934732137387215
  0
ARC
  5
13CA9
  8
0
 10
1.212071559355314
 20
0.6483334450395244
 30
0.0
 40
0.2073786475702442
 50
335.5456572236503234
 51
26.9768522778092503
  0
ARC
  5
13CAA
  8
0
 10
1.188820989738139
 20
0.6649495986663095
 30
0.0
 40
0.2354862481953425
 50
309.5080372481891118
 51
334.2072053479315059
  0
LINE
  5
13CAB
  8
0
 10
1.1803489737765229
 20
0.8800825478769223
 30
0.0
 11
1.180348007776735
 21
0.8347186001768971
 31
0.0
  0
ARC
  5
13CAC
  8
0
 10
1.3461438761626201
 20
0.7967870372634973
 30
0.0
 40
0.0118472665320165
 50
292.2064181816000996
 51
355.6510438432662795
  0
LINE
  5
13CAD
  8
0
 10
1.350621485376684
 20
0.7858185031768965
 30
0.0
 11
1.316085280774365
 21
0.7691357265758807
 31
0.0
  0
ARC
  5
13CAE
  8
0
 10
1.1849892718366899
 20
0.6365728266865727
 30
0.0
 40
0.1864378877442054
 50
23.8889901585991886
 51
45.3187671288164182
  0
LINE
  5
13CAF
  8
0
 10
1.355455359376498
 20
0.7120738133378079
 30
0.0
 11
1.389991563997006
 21
0.7287565900601276
 31
0.0
  0
ARC
  5
13CB0
  8
0
 10
1.385513863627472
 20
0.7397252062355318
 30
0.0
 40
0.0118473769841788
 50
292.2066762861264237
 51
10.3087681339854598
  0
ARC
  5
13CB1
  8
0
 10
1.20259625560289
 20
0.6628609838130597
 30
0.0
 40
0.1656471469921197
 50
22.8112465107665514
 51
42.0251977470346816
  0
LINE
  5
13CB2
  8
0
 10
1.3552876537039591
 20
0.7270818079480234
 30
0.0
 11
1.35551821781815
 21
0.7121041772228393
 31
0.0
  0
LINE
  5
13CB3
  8
0
 10
1.3552876537039591
 20
0.7270818079480234
 30
0.0
 11
1.3948972960081449
 21
0.7462153179509965
 31
0.0
  0
ARC
  5
13CB4
  8
0
 10
1.2193318768384021
 20
0.6505466992145994
 30
0.0
 40
0.1972185357284392
 50
334.065636047477426
 51
25.8048097931729998
  0
ARC
  5
13CB5
  8
0
 10
1.3933017713968701
 20
0.5687024147275093
 30
0.0
 40
0.005559124443349
 50
233.4549367130188102
 51
307.5480054766555895
  0
LINE
  5
13CB6
  8
0
 10
1.3899915638505771
 20
0.5642362765103411
 30
0.0
 11
1.355455359456988
 21
0.5809228025379963
 31
0.0
  0
ARC
  5
13CB7
  8
0
 10
1.185016122261692
 20
0.6564151928209565
 30
0.0
 40
0.186409856408939
 50
314.678146530077413
 51
336.1100835857164952
  0
LINE
  5
13CB8
  8
0
 10
1.316085280776639
 20
0.5238651635769127
 30
0.0
 11
1.3506214853171119
 21
0.507178637605561
 31
0.0
  0
ARC
  5
13CB9
  8
0
 10
1.3534916782548461
 20
0.5117148342214916
 30
0.0
 40
0.005367968632353
 50
237.6771880213653105
 51
318.5337226310148253
  0
ARC
  5
13CBA
  8
0
 10
1.1509475383552461
 20
0.7053969573046271
 30
0.0
 40
0.2856082449087893
 50
275.9085571833007862
 51
316.3235904165284182
  0
ARC
  5
13CBB
  8
0
 10
1.1903997568472331
 20
0.6767879733359035
 30
0.0
 40
0.2298785392017888
 50
316.6335333947782829
 51
330.5702928243653105
  0
LINE
  5
13CBC
  8
0
 10
1.3575160933767221
 20
0.5189390808769172
 30
0.0
 11
1.325818482466053
 21
0.5342541109359314
 31
0.0
  0
LINE
  5
13CBD
  8
0
 10
1.3575160933767221
 20
0.5189390808769172
 30
0.0
 11
1.357514141876669
 21
0.5081602774769163
 31
0.0
  0
LINE
  5
13CBE
  8
0
 10
1.338635392016164
 20
0.4901172807255403
 30
0.0
 11
1.338634151076582
 21
0.4832636339769163
 31
0.0
  0
LINE
  5
13CBF
  8
0
 10
1.338634151076582
 20
0.4832636339769163
 30
0.0
 11
1.3497012445766421
 21
0.4740024842769213
 31
0.0
  0
ARC
  5
13CC0
  8
0
 10
1.2160435508442391
 20
0.6490003031088049
 30
0.0
 40
0.2202013071935337
 50
307.3714248442972234
 51
54.6226993067380207
  0
LINE
  5
13CC1
  8
0
 10
1.180348363976697
 20
0.4213060193769121
 30
0.0
 11
1.1803480077912869
 21
0.4582970262198654
 31
0.0
  0
ARC
  5
13CC2
  8
0
 10
1.206926862641245
 20
0.7992218189063163
 30
0.0
 40
0.0103165194602044
 50
304.5301668728341724
 51
54.4589288166078518
  0
ARC
  5
13CC3
  8
0
 10
1.203452228750626
 20
0.8042717445141516
 30
0.0
 40
0.0164463505605584
 50
236.5641174124550901
 51
304.5301668728341724
  0
ARC
  5
13CC4
  8
0
 10
1.200088934185948
 20
0.7991779848893527
 30
0.0
 40
0.0103424061437357
 50
137.5589197623949076
 51
236.564117412454209
  0
ARC
  5
13CC5
  8
0
 10
1.2035253077663191
 20
0.7951706465923661
 30
0.0
 40
0.015595700161746
 50
52.9416455838060998
 51
135.2131612868923014
  0
ARC
  5
13CC6
  8
0
 10
1.2195530402302719
 20
0.7399421266844666
 30
0.0
 40
0.0131430672641373
 50
38.3876683730437307
 51
135.9792358741067915
  0
ARC
  5
13CC7
  8
0
 10
1.2228759730803691
 20
0.7431921686980713
 30
0.0
 40
0.0085339901043492
 50
320.9782236590227171
 51
35.136433876668292
  0
ARC
  5
13CC8
  8
0
 10
1.2194672967764351
 20
0.7469449906432128
 30
0.0
 40
0.0135668858997472
 50
237.3486735603096918
 51
317.7269891626575031
  0
ARC
  5
13CC9
  8
0
 10
1.2170645096414381
 20
0.7431952619911595
 30
0.0
 40
0.0091133647106656
 50
139.8169483647004938
 51
237.3486735603096918
  0
ARC
  5
13CCA
  8
0
 10
1.1443255958117851
 20
0.8078952302985822
 30
0.0
 40
0.0103165194602044
 50
304.5301668728341724
 51
54.4589288166078518
  0
ARC
  5
13CCB
  8
0
 10
1.140850961921166
 20
0.812945155906389
 30
0.0
 40
0.0164463505605584
 50
236.5641174124550901
 51
304.5301668728341724
  0
ARC
  5
13CCC
  8
0
 10
1.1374876673564871
 20
0.80785139628159
 30
0.0
 40
0.0103424061437357
 50
137.5589197623949076
 51
236.564117412454209
  0
ARC
  5
13CCD
  8
0
 10
1.140924040936403
 20
0.8038440579846035
 30
0.0
 40
0.015595700161746
 50
52.9416455838060998
 51
135.2131612868923014
  0
ARC
  5
13CCE
  8
0
 10
1.2629757088982441
 20
0.7735422231816341
 30
0.0
 40
0.0103165194602044
 50
304.5301668728341724
 51
54.4589288166078518
  0
ARC
  5
13CCF
  8
0
 10
1.2595010750076261
 20
0.7785921487894694
 30
0.0
 40
0.0164463505605584
 50
236.5641174124550901
 51
304.5301668728341724
  0
ARC
  5
13CD0
  8
0
 10
1.256137780442947
 20
0.7734983891646703
 30
0.0
 40
0.0103424061437357
 50
137.5589197623949076
 51
236.564117412454209
  0
ARC
  5
13CD1
  8
0
 10
1.2595741540233181
 20
0.7694910508676838
 30
0.0
 40
0.015595700161746
 50
52.9416455838060998
 51
135.2131612868923014
  0
ARC
  5
13CD2
  8
0
 10
1.305651737371369
 20
0.7347632675468088
 30
0.0
 40
0.0103165194602044
 50
304.5301668728341724
 51
54.4589288166078518
  0
ARC
  5
13CD3
  8
0
 10
1.3021771034807501
 20
0.7398131931546157
 30
0.0
 40
0.0164463505605584
 50
236.5641174124550901
 51
304.5301668728341724
  0
ARC
  5
13CD4
  8
0
 10
1.298813808916071
 20
0.7347194335298167
 30
0.0
 40
0.0103424061437357
 50
137.5589197623949076
 51
236.564117412454209
  0
ARC
  5
13CD5
  8
0
 10
1.3022501824964421
 20
0.7307120952328586
 30
0.0
 40
0.015595700161746
 50
52.9416455838060998
 51
135.2131612868923014
  0
ARC
  5
13CD6
  8
0
 10
1.3312681155200661
 20
0.6862857193435996
 30
0.0
 40
0.0103165194602044
 50
304.5301668728341724
 51
54.4589288166078518
  0
ARC
  5
13CD7
  8
0
 10
1.3277934816294481
 20
0.691335644951435
 30
0.0
 40
0.0164463505605584
 50
236.5641174124550901
 51
304.5301668728341724
  0
ARC
  5
13CD8
  8
0
 10
1.324430187064769
 20
0.6862418853266359
 30
0.0
 40
0.0103424061437357
 50
137.5589197623949076
 51
236.564117412454209
  0
ARC
  5
13CD9
  8
0
 10
1.3278665606446849
 20
0.6822345470296494
 30
0.0
 40
0.015595700161746
 50
52.9416455838060998
 51
135.2131612868923014
  0
ARC
  5
13CDA
  8
0
 10
1.3367137390457691
 20
0.6330098127852734
 30
0.0
 40
0.0103165194602044
 50
304.5301668728341724
 51
54.4589288166078518
  0
ARC
  5
13CDB
  8
0
 10
1.333239105154695
 20
0.6380597383930802
 30
0.0
 40
0.0164463505605584
 50
236.5641174124550901
 51
304.5301668728341724
  0
ARC
  5
13CDC
  8
0
 10
1.3298758105900159
 20
0.6329659787682811
 30
0.0
 40
0.0103424061437357
 50
137.5589197623949076
 51
236.564117412454209
  0
ARC
  5
13CDD
  8
0
 10
1.333312184170387
 20
0.628958640471323
 30
0.0
 40
0.015595700161746
 50
52.9416455838060998
 51
135.2131612868923014
  0
ARC
  5
13CDE
  8
0
 10
1.321212201208942
 20
0.5816106303231816
 30
0.0
 40
0.0103165194602044
 50
304.5301668728341724
 51
54.4589288166078518
  0
ARC
  5
13CDF
  8
0
 10
1.3177375673178691
 20
0.586660555931017
 30
0.0
 40
0.0164463505605584
 50
236.5641174124550901
 51
304.5301668728341724
  0
ARC
  5
13CE0
  8
0
 10
1.31437427275319
 20
0.5815667963062179
 30
0.0
 40
0.0103424061437357
 50
137.5589197623949076
 51
236.564117412454209
  0
ARC
  5
13CE1
  8
0
 10
1.317810646333561
 20
0.5775594580092314
 30
0.0
 40
0.015595700161746
 50
52.9416455838060998
 51
135.2131612868923014
  0
ARC
  5
13CE2
  8
0
 10
1.2865767057389861
 20
0.5371571513185796
 30
0.0
 40
0.0103165194602044
 50
304.5301668728341724
 51
54.4589288166078518
  0
ARC
  5
13CE3
  8
0
 10
1.283102071848367
 20
0.5422070769263865
 30
0.0
 40
0.0164463505605584
 50
236.5641174124550901
 51
304.5301668728341724
  0
ARC
  5
13CE4
  8
0
 10
1.279738777283689
 20
0.5371133173015874
 30
0.0
 40
0.0103424061437357
 50
137.5589197623949076
 51
236.564117412454209
  0
ARC
  5
13CE5
  8
0
 10
1.2831751508636049
 20
0.5331059790046293
 30
0.0
 40
0.015595700161746
 50
52.9416455838060998
 51
135.2131612868923014
  0
ARC
  5
13CE6
  8
0
 10
1.2362097514840169
 20
0.5046068519243346
 30
0.0
 40
0.0103165194602044
 50
304.5301668728341724
 51
54.4589288166078518
  0
ARC
  5
13CE7
  8
0
 10
1.232735117593398
 20
0.5096567775321699
 30
0.0
 40
0.0164463505605584
 50
236.5641174124550901
 51
304.5301668728341724
  0
ARC
  5
13CE8
  8
0
 10
1.2293718230287201
 20
0.5045630179073708
 30
0.0
 40
0.0103424061437357
 50
137.5589197623949076
 51
236.564117412454209
  0
ARC
  5
13CE9
  8
0
 10
1.2328081966086359
 20
0.5005556796103843
 30
0.0
 40
0.015595700161746
 50
52.9416455838060998
 51
135.2131612868923014
  0
ARC
  5
13CEA
  8
0
 10
1.1762666725269411
 20
0.4871537497000116
 30
0.0
 40
0.0103165194602044
 50
304.5301668728341724
 51
54.4589288166078518
  0
ARC
  5
13CEB
  8
0
 10
1.1727920386358679
 20
0.492203675307847
 30
0.0
 40
0.0164463505605584
 50
236.5641174124550901
 51
304.5301668728341724
  0
ARC
  5
13CEC
  8
0
 10
1.169428744071644
 20
0.4871099156830479
 30
0.0
 40
0.0103424061437357
 50
137.5589197623949076
 51
236.564117412454209
  0
ARC
  5
13CED
  8
0
 10
1.1728651176515601
 20
0.4831025773860614
 30
0.0
 40
0.015595700161746
 50
52.9416455838060998
 51
135.2131612868923014
  0
ARC
  5
13CEE
  8
0
 10
1.172344107440273
 20
0.757065954524391
 30
0.0
 40
0.0131430672641373
 50
38.3876683730437307
 51
135.9792358741067915
  0
ARC
  5
13CEF
  8
0
 10
1.1756670402903691
 20
0.760315996538024
 30
0.0
 40
0.0085339901043492
 50
320.9782236590227171
 51
35.136433876668292
  0
ARC
  5
13CF0
  8
0
 10
1.172258363986435
 20
0.7640688184831657
 30
0.0
 40
0.0135668858997472
 50
237.3486735603096918
 51
317.7269891626575031
  0
ARC
  5
13CF1
  8
0
 10
1.169855576851438
 20
0.7603190898310839
 30
0.0
 40
0.0091133647106656
 50
139.8169483647004938
 51
237.3486735603096918
  0
ARC
  5
13CF2
  8
0
 10
1.145556673753396
 20
0.7171020515757487
 30
0.0
 40
0.0131430672641373
 50
38.3876683730437307
 51
135.9792358741067915
  0
ARC
  5
13CF3
  8
0
 10
1.1488796066034921
 20
0.7203520935893533
 30
0.0
 40
0.0085339901043492
 50
320.9782236590227171
 51
35.136433876668292
  0
ARC
  5
13CF4
  8
0
 10
1.145470930299558
 20
0.724104915534495
 30
0.0
 40
0.0135668858997472
 50
237.3486735603096918
 51
317.7269891626575031
  0
ARC
  5
13CF5
  8
0
 10
1.1430681431645611
 20
0.7203551868824416
 30
0.0
 40
0.0091133647106656
 50
139.8169483647004938
 51
237.3486735603096918
  0
ARC
  5
13CF6
  8
0
 10
1.1965407842378739
 20
0.7008067007608059
 30
0.0
 40
0.0131430672641373
 50
38.3876683730437307
 51
135.9792358741067915
  0
ARC
  5
13CF7
  8
0
 10
1.199863717088425
 20
0.7040567427744105
 30
0.0
 40
0.0085339901043492
 50
320.9782236590227171
 51
35.136433876668292
  0
ARC
  5
13CF8
  8
0
 10
1.1964550407844909
 20
0.7078095647195523
 30
0.0
 40
0.0135668858997472
 50
237.3486735603096918
 51
317.7269891626575031
  0
ARC
  5
13CF9
  8
0
 10
1.194052253649039
 20
0.7040598360674988
 30
0.0
 40
0.0091133647106656
 50
139.8169483647004938
 51
237.3486735603096918
  0
ARC
  5
13CFA
  8
0
 10
1.256179679691519
 20
0.7097173953420093
 30
0.0
 40
0.0131430672641373
 50
38.3876683730437307
 51
135.9792358741067915
  0
ARC
  5
13CFB
  8
0
 10
1.2595026125416151
 20
0.7129674373556423
 30
0.0
 40
0.0085339901043492
 50
320.9782236590227171
 51
35.136433876668292
  0
ARC
  5
13CFC
  8
0
 10
1.2560939362376811
 20
0.716720259300784
 30
0.0
 40
0.0135668858997472
 50
237.3486735603096918
 51
317.7269891626575031
  0
ARC
  5
13CFD
  8
0
 10
1.2536911491026841
 20
0.7129705306487022
 30
0.0
 40
0.0091133647106656
 50
139.8169483647004938
 51
237.3486735603096918
  0
ARC
  5
13CFE
  8
0
 10
1.2765489433479671
 20
0.6703757455656483
 30
0.0
 40
0.0131430672641373
 50
38.3876683730437307
 51
135.9792358741067915
  0
ARC
  5
13CFF
  8
0
 10
1.2798718761985191
 20
0.6736257875792813
 30
0.0
 40
0.0085339901043492
 50
320.9782236590227171
 51
35.136433876668292
  0
ARC
  5
13D00
  8
0
 10
1.276463199894585
 20
0.677378609524423
 30
0.0
 40
0.0135668858997472
 50
237.3486735603096918
 51
317.7269891626575031
  0
ARC
  5
13D01
  8
0
 10
1.2740604127591331
 20
0.6736288808723412
 30
0.0
 40
0.0091133647106656
 50
139.8169483647004938
 51
237.3486735603096918
  0
ARC
  5
13D02
  8
0
 10
1.226413999074117
 20
0.6624615306803872
 30
0.0
 40
0.0131430672641373
 50
38.3876683730437307
 51
135.9792358741067915
  0
ARC
  5
13D03
  8
0
 10
1.229736931924214
 20
0.6657115726939918
 30
0.0
 40
0.0085339901043492
 50
320.9782236590227171
 51
35.136433876668292
  0
ARC
  5
13D04
  8
0
 10
1.2263282556202799
 20
0.6694643946391335
 30
0.0
 40
0.0135668858997472
 50
237.3486735603096918
 51
317.7269891626575031
  0
ARC
  5
13D05
  8
0
 10
1.2239254684852821
 20
0.6657146659870801
 30
0.0
 40
0.0091133647106656
 50
139.8169483647004938
 51
237.3486735603096918
  0
ARC
  5
13D06
  8
0
 10
1.173400266194454
 20
0.6583316694134549
 30
0.0
 40
0.0131430672641373
 50
38.3876683730437307
 51
135.9792358741067915
  0
ARC
  5
13D07
  8
0
 10
1.176723199044551
 20
0.6615817114270879
 30
0.0
 40
0.0085339901043492
 50
320.9782236590227171
 51
35.136433876668292
  0
ARC
  5
13D08
  8
0
 10
1.173314522740617
 20
0.6653345333722296
 30
0.0
 40
0.0135668858997472
 50
237.3486735603096918
 51
317.7269891626575031
  0
ARC
  5
13D09
  8
0
 10
1.17091173560562
 20
0.6615848047201478
 30
0.0
 40
0.0091133647106656
 50
139.8169483647004938
 51
237.3486735603096918
  0
ARC
  5
13D0A
  8
0
 10
1.159010526707567
 20
0.6156147033001087
 30
0.0
 40
0.0131430672641373
 50
38.3876683730437307
 51
135.9792358741067915
  0
ARC
  5
13D0B
  8
0
 10
1.162333459557664
 20
0.6188647453137417
 30
0.0
 40
0.0085339901043492
 50
320.9782236590227171
 51
35.136433876668292
  0
ARC
  5
13D0C
  8
0
 10
1.1589247832537299
 20
0.622617567258855
 30
0.0
 40
0.0135668858997472
 50
237.3486735603096918
 51
317.7269891626575031
  0
ARC
  5
13D0D
  8
0
 10
1.1565219961187321
 20
0.6188678386068017
 30
0.0
 40
0.0091133647106656
 50
139.8169483647004938
 51
237.3486735603096918
  0
ARC
  5
13D0E
  8
0
 10
1.1361056617131511
 20
0.5693627591338934
 30
0.0
 40
0.0131430672641373
 50
38.3876683730437307
 51
135.9792358741067915
  0
ARC
  5
13D0F
  8
0
 10
1.1394285945637019
 20
0.5726128011474981
 30
0.0
 40
0.0085339901043492
 50
320.9782236590227171
 51
35.136433876668292
  0
ARC
  5
13D10
  8
0
 10
1.1360199182597679
 20
0.5763656230926398
 30
0.0
 40
0.0135668858997472
 50
237.3486735603096918
 51
317.7269891626575031
  0
ARC
  5
13D11
  8
0
 10
1.1336171311243159
 20
0.5726158944405864
 30
0.0
 40
0.0091133647106656
 50
139.8169483647004938
 51
237.3486735603096918
  0
ARC
  5
13D12
  8
0
 10
1.223484003697882
 20
0.6163856745563105
 30
0.0
 40
0.0131430672641373
 50
38.3876683730437307
 51
135.9792358741067915
  0
ARC
  5
13D13
  8
0
 10
1.226806936547979
 20
0.6196357165699437
 30
0.0
 40
0.0085339901043492
 50
320.9782236590227171
 51
35.136433876668292
  0
ARC
  5
13D14
  8
0
 10
1.223398260244045
 20
0.6233885385150854
 30
0.0
 40
0.0135668858997472
 50
237.3486735603096918
 51
317.7269891626575031
  0
ARC
  5
13D15
  8
0
 10
1.220995473109048
 20
0.6196388098630035
 30
0.0
 40
0.0091133647106656
 50
139.8169483647004938
 51
237.3486735603096918
  0
ARC
  5
13D16
  8
0
 10
1.2794604686207609
 20
0.6269780768421338
 30
0.0
 40
0.0131430672641373
 50
38.3876683730437307
 51
135.9792358741067915
  0
ARC
  5
13D17
  8
0
 10
1.282783401470857
 20
0.6302281188557668
 30
0.0
 40
0.0085339901043492
 50
320.9782236590227171
 51
35.136433876668292
  0
ARC
  5
13D18
  8
0
 10
1.279374725166923
 20
0.6339809408009085
 30
0.0
 40
0.0135668858997472
 50
237.3486735603096918
 51
317.7269891626575031
  0
ARC
  5
13D19
  8
0
 10
1.276971938031926
 20
0.6302312121488268
 30
0.0
 40
0.0091133647106656
 50
139.8169483647004938
 51
237.3486735603096918
  0
ARC
  5
13D1A
  8
0
 10
1.1891638247464069
 20
0.5809862451845031
 30
0.0
 40
0.0131430672641373
 50
38.3876683730437307
 51
135.9792358741067915
  0
ARC
  5
13D1B
  8
0
 10
1.1924867575965039
 20
0.5842362871981078
 30
0.0
 40
0.0085339901043492
 50
320.9782236590227171
 51
35.136433876668292
  0
ARC
  5
13D1C
  8
0
 10
1.1890780812925701
 20
0.5879891091432495
 30
0.0
 40
0.0135668858997472
 50
237.3486735603096918
 51
317.7269891626575031
  0
ARC
  5
13D1D
  8
0
 10
1.1866752941575729
 20
0.5842393804911961
 30
0.0
 40
0.0091133647106656
 50
139.8169483647004938
 51
237.3486735603096918
  0
ARC
  5
13D1E
  8
0
 10
1.2631540673462549
 20
0.5865475139297569
 30
0.0
 40
0.0131430672641373
 50
38.3876683730437307
 51
135.9792358741067915
  0
ARC
  5
13D1F
  8
0
 10
1.2664770001968071
 20
0.5897975559433899
 30
0.0
 40
0.0085339901043492
 50
320.9782236590227171
 51
35.136433876668292
  0
ARC
  5
13D20
  8
0
 10
1.263068323892873
 20
0.5935503778885316
 30
0.0
 40
0.0135668858997472
 50
237.3486735603096918
 51
317.7269891626575031
  0
ARC
  5
13D21
  8
0
 10
1.260665536757875
 20
0.5898006492364499
 30
0.0
 40
0.0091133647106656
 50
139.8169483647004938
 51
237.3486735603096918
  0
ARC
  5
13D22
  8
0
 10
1.230832098875231
 20
0.5532974639139053
 30
0.0
 40
0.0131430672641373
 50
38.3876683730437307
 51
135.9792358741067915
  0
ARC
  5
13D23
  8
0
 10
1.234155031725783
 20
0.5565475059275382
 30
0.0
 40
0.0085339901043492
 50
320.9782236590227171
 51
35.136433876668292
  0
ARC
  5
13D24
  8
0
 10
1.230746355421849
 20
0.5603003278726515
 30
0.0
 40
0.0135668858997472
 50
237.3486735603096918
 51
317.7269891626575031
  0
ARC
  5
13D25
  8
0
 10
1.228343568286397
 20
0.5565505992205982
 30
0.0
 40
0.0091133647106656
 50
139.8169483647004938
 51
237.3486735603096918
  0
ARC
  5
13D26
  8
0
 10
1.185540448932221
 20
0.5323026390524018
 30
0.0
 40
0.0131430672641373
 50
38.3876683730437307
 51
135.9792358741067915
  0
ARC
  5
13D27
  8
0
 10
1.188863381782318
 20
0.5355526810660347
 30
0.0
 40
0.0085339901043492
 50
320.9782236590227171
 51
35.136433876668292
  0
ARC
  5
13D28
  8
0
 10
1.1854547054783839
 20
0.5393055030111765
 30
0.0
 40
0.0135668858997472
 50
237.3486735603096918
 51
317.7269891626575031
  0
ARC
  5
13D29
  8
0
 10
1.1830519183433861
 20
0.535555774359123
 30
0.0
 40
0.0091133647106656
 50
139.8169483647004938
 51
237.3486735603096918
  0
ARC
  5
13D2A
  8
0
 10
1.1348076592401011
 20
0.5263818078151683
 30
0.0
 40
0.0131430672641373
 50
38.3876683730437307
 51
135.9792358741067915
  0
ARC
  5
13D2B
  8
0
 10
1.138130592090653
 20
0.5296318498287729
 30
0.0
 40
0.0085339901043492
 50
320.9782236590227171
 51
35.136433876668292
  0
ARC
  5
13D2C
  8
0
 10
1.134721915786719
 20
0.5333846717739146
 30
0.0
 40
0.0135668858997472
 50
237.3486735603096918
 51
317.7269891626575031
  0
ARC
  5
13D2D
  8
0
 10
1.132319128651267
 20
0.5296349431218613
 30
0.0
 40
0.0091133647106656
 50
139.8169483647004938
 51
237.3486735603096918
  0
LINE
  5
13D2E
  8
0
 10
0.5904575059805728
 20
2.4198254328769031
 30
0.0
 11
0.5904575059805728
 21
0.453387696419723
 31
0.0
  0
ARC
  5
13D2F
  8
0
 10
1.141732324476612
 20
1.967069527276917
 30
0.0
 40
0.5610236219999987
 50
180.0
 51
190.6967935977401964
  0
LINE
  5
13D30
  8
0
 10
0.5807087024766197
 20
2.4198254328769031
 30
0.0
 11
0.5807087024766197
 21
1.967069527276917
 31
0.0
  0
ARC
  5
13D31
  8
0
 10
1.1120822995701529
 20
0.7365850714958793
 30
0.0
 40
0.5600253011141878
 50
104.5700005659176952
 51
137.0343124795012955
  0
ARC
  5
13D32
  8
0
 10
1.0088184046401301
 20
0.8331920338790137
 30
0.0
 40
0.4186173581462491
 50
137.0771165193793877
 51
177.9943249466280122
  0
ARC
  5
13D33
  8
0
 10
1.1120822995701529
 20
0.5646456319485349
 30
0.0
 40
0.5600253011141878
 50
222.9656875204985909
 51
255.4299994340823048
  0
ARC
  5
13D34
  8
0
 10
1.0088184046401301
 20
0.4680386695654005
 30
0.0
 40
0.4186173581462491
 50
182.0056750533719025
 51
222.9228834806204986
  0
ARC
  5
13D35
  8
0
 10
1.1338352874620401
 20
0.6382337873700106
 30
0.0
 40
0.5296542849773741
 50
92.4724797913400494
 51
133.5673424354652923
  0
ARC
  5
13D36
  8
0
 10
1.0094555764383191
 20
0.7688866061897084
 30
0.0
 40
0.3492645314080925
 50
133.5551425128149958
 51
179.6237917855227124
  0
ARC
  5
13D37
  8
0
 10
1.0671812095085951
 20
0.7835615706835295
 30
0.0
 40
0.4071709367643228
 50
181.7425793550829951
 51
220.0000238605342133
  0
ARC
  5
13D38
  8
0
 10
1.1303138123432801
 20
0.8609385721753124
 30
0.0
 40
0.5056159792715393
 50
222.1188114300983045
 51
267.8096517925644093
  0
ARC
  5
13D39
  8
0
 10
1.1334819750657119
 20
0.6352425388310206
 30
0.0
 40
0.5179134740379333
 50
92.4892961024019087
 51
132.67450115108349
  0
ARC
  5
13D3A
  8
0
 10
1.028412798536243
 20
0.7492066377866973
 30
0.0
 40
0.3629059009734586
 50
132.67450115108349
 51
168.5767410459918096
  0
ARC
  5
13D3B
  8
0
 10
1.0029932930613139
 20
0.7543428485064095
 30
0.0
 40
0.3369726805957953
 50
168.5767410459918096
 51
198.4055707427625066
  0
LINE
  5
13D3C
  8
0
 10
0.6661057578396657
 20
0.7619175485196746
 30
0.0
 11
0.6660929207212183
 21
0.8328225081445435
 31
0.0
  0
LINE
  5
13D3D
  8
0
 10
1.1109862551763909
 20
1.1673949946769231
 30
0.0
 11
1.110989876276796
 21
1.1268530056769039
 31
0.0
  0
ARC
  5
13D3E
  8
0
 10
1.1254531063166331
 20
0.6776573718568937
 30
0.0
 40
0.405234333166696
 50
96.721620256842769
 51
145.2512065414913138
  0
ARC
  5
13D3F
  8
0
 10
1.0293171223327191
 20
0.7546251085583702
 30
0.0
 40
0.2824995890884069
 50
146.9643936846696022
 51
212.9216030854649091
  0
ARC
  5
13D40
  8
0
 10
1.108118020642229
 20
0.8087186817018316
 30
0.0
 40
0.3780544141834458
 50
213.3125221471015038
 51
258.0737785323705111
  0
ARC
  5
13D41
  8
0
 10
1.1338729113069861
 20
0.5862639130380938
 30
0.0
 40
0.2955651956863322
 50
95.997448639452287
 51
134.7065267862612927
  0
ARC
  5
13D42
  8
0
 10
1.0734949937157181
 20
0.6472635408170202
 30
0.0
 40
0.209737184397311
 50
134.7065267862612927
 51
153.0231477221907141
  0
ARC
  5
13D43
  8
0
 10
1.07139308959791
 20
0.6483334450395244
 30
0.0
 40
0.2073786475702442
 50
153.0231477221907141
 51
204.454342776349705
  0
ARC
  5
13D44
  8
0
 10
1.0946436592150861
 20
0.6649495986663095
 30
0.0
 40
0.2354862481953425
 50
205.7927946520684088
 51
230.4919627518098935
  0
LINE
  5
13D45
  8
0
 10
1.1031156751767011
 20
0.8800825478769223
 30
0.0
 11
1.1031166411764901
 21
0.8347186001768971
 31
0.0
  0
ARC
  5
13D46
  8
0
 10
0.9373207727906054
 20
0.7967870372634973
 30
0.0
 40
0.0118472665320165
 50
184.3489561567336068
 51
247.7935818184000141
  0
LINE
  5
13D47
  8
0
 10
0.9328431635765417
 20
0.7858185031768965
 30
0.0
 11
0.9673793681788601
 21
0.7691357265758807
 31
0.0
  0
ARC
  5
13D48
  8
0
 10
1.0984753771165341
 20
0.6365728266865727
 30
0.0
 40
0.1864378877442054
 50
134.6812328711835107
 51
156.1110098414008007
  0
LINE
  5
13D49
  8
0
 10
0.9280092895767273
 20
0.7120738133378079
 30
0.0
 11
0.8934730849562191
 21
0.7287565900601276
 31
0.0
  0
ARC
  5
13D4A
  8
0
 10
0.8979507853257535
 20
0.7397252062355318
 30
0.0
 40
0.0118473769841788
 50
169.6912318660145047
 51
247.793323713873491
  0
ARC
  5
13D4B
  8
0
 10
1.0808683933503349
 20
0.6628609838130597
 30
0.0
 40
0.1656471469921197
 50
137.9748022529653042
 51
157.1887534892333917
  0
LINE
  5
13D4C
  8
0
 10
0.9281769952492657
 20
0.7270818079480234
 30
0.0
 11
0.9279464311350755
 21
0.7121041772228393
 31
0.0
  0
LINE
  5
13D4D
  8
0
 10
0.9281769952492657
 20
0.7270818079480234
 30
0.0
 11
0.8885673529450803
 21
0.7462153179509965
 31
0.0
  0
ARC
  5
13D4E
  8
0
 10
1.064132772114823
 20
0.6505466992145994
 30
0.0
 40
0.1972185357284392
 50
154.1951902068269931
 51
205.9343639525224887
  0
ARC
  5
13D4F
  8
0
 10
0.8901628775563557
 20
0.5687024147275093
 30
0.0
 40
0.005559124443349
 50
232.4519945233444105
 51
306.5450632869811898
  0
LINE
  5
13D50
  8
0
 10
0.8934730851026477
 20
0.5642362765103411
 30
0.0
 11
0.928009289496237
 21
0.5809228025379963
 31
0.0
  0
ARC
  5
13D51
  8
0
 10
1.0984485266915329
 20
0.6564151928209565
 30
0.0
 40
0.186409856408939
 50
203.8899164142835048
 51
225.3218534699225017
  0
LINE
  5
13D52
  8
0
 10
0.9673793681765863
 20
0.5238651635769127
 30
0.0
 11
0.9328431636361136
 21
0.507178637605561
 31
0.0
  0
ARC
  5
13D53
  8
0
 10
0.9299729706983788
 20
0.5117148342214916
 30
0.0
 40
0.005367968632353
 50
221.4662773689852031
 51
302.3228119786346042
  0
ARC
  5
13D54
  8
0
 10
1.132517110597979
 20
0.7053969573046271
 30
0.0
 40
0.2856082449087893
 50
223.6764095834716102
 51
264.0914428166992138
  0
ARC
  5
13D55
  8
0
 10
1.0930648921059909
 20
0.6767879733359035
 30
0.0
 40
0.2298785392017888
 50
209.4297071756346895
 51
223.3664666052216035
  0
LINE
  5
13D56
  8
0
 10
0.925948555576503
 20
0.5189390808769172
 30
0.0
 11
0.957646166487172
 21
0.5342541109359314
 31
0.0
  0
LINE
  5
13D57
  8
0
 10
0.925948555576503
 20
0.5189390808769172
 30
0.0
 11
0.9259505070765561
 21
0.5081602774769163
 31
0.0
  0
LINE
  5
13D58
  8
0
 10
0.9448292569370613
 20
0.4901172807255403
 30
0.0
 11
0.9448304978766435
 21
0.4832636339769163
 31
0.0
  0
LINE
  5
13D59
  8
0
 10
0.9448304978766435
 20
0.4832636339769163
 30
0.0
 11
0.9337634043765836
 21
0.4740024842769213
 31
0.0
  0
ARC
  5
13D5A
  8
0
 10
1.067421098108986
 20
0.6490003031088049
 30
0.0
 40
0.2202013071935337
 50
125.3773006932620007
 51
232.6285751557028902
  0
LINE
  5
13D5B
  8
0
 10
1.1031162849765279
 20
0.4213060193769121
 30
0.0
 11
1.103116641161938
 21
0.4582970262198654
 31
0.0
  0
ARC
  5
13D5C
  8
0
 10
1.07653778631198
 20
0.7992218189063163
 30
0.0
 40
0.0103165194602044
 50
125.5410711833921056
 51
235.4698331271657992
  0
ARC
  5
13D5D
  8
0
 10
1.080012420202598
 20
0.8042717445141516
 30
0.0
 40
0.0164463505605584
 50
235.4698331271657992
 51
303.4358825875448247
  0
ARC
  5
13D5E
  8
0
 10
1.0833757147672769
 20
0.7991779848893527
 30
0.0
 40
0.0103424061437357
 50
303.4358825875456773
 51
42.4410802376050924
  0
ARC
  5
13D5F
  8
0
 10
1.079939341186906
 20
0.7951706465923661
 30
0.0
 40
0.015595700161746
 50
44.7868387131076773
 51
127.0583544161938931
  0
ARC
  5
13D60
  8
0
 10
1.0639116087229521
 20
0.7399421266844666
 30
0.0
 40
0.0131430672641373
 50
44.0207641258932227
 51
141.6123316269562906
  0
ARC
  5
13D61
  8
0
 10
1.060588675872856
 20
0.7431921686980713
 30
0.0
 40
0.0085339901043492
 50
144.863566123331708
 51
219.0217763409771976
  0
ARC
  5
13D62
  8
0
 10
1.06399735217679
 20
0.7469449906432128
 30
0.0
 40
0.0135668858997472
 50
222.2730108373424969
 51
302.6513264396903082
  0
ARC
  5
13D63
  8
0
 10
1.066400139311787
 20
0.7431952619911595
 30
0.0
 40
0.0091133647106656
 50
302.6513264396903082
 51
40.1830516352994564
  0
ARC
  5
13D64
  8
0
 10
1.0204889400549799
 20
0.7735422231816341
 30
0.0
 40
0.0103165194602044
 50
125.5410711833921056
 51
235.4698331271657992
  0
ARC
  5
13D65
  8
0
 10
1.023963573945599
 20
0.7785921487894694
 30
0.0
 40
0.0164463505605584
 50
235.4698331271657992
 51
303.4358825875448247
  0
ARC
  5
13D66
  8
0
 10
1.0273268685102781
 20
0.7734983891646703
 30
0.0
 40
0.0103424061437357
 50
303.4358825875456773
 51
42.4410802376050924
  0
ARC
  5
13D67
  8
0
 10
1.023890494929907
 20
0.7694910508676838
 30
0.0
 40
0.015595700161746
 50
44.7868387131076773
 51
127.0583544161938931
  0
ARC
  5
13D68
  8
0
 10
0.9778129115818563
 20
0.7347632675468088
 30
0.0
 40
0.0103165194602044
 50
125.5410711833921056
 51
235.4698331271657992
  0
ARC
  5
13D69
  8
0
 10
0.9812875454724752
 20
0.7398131931546157
 30
0.0
 40
0.0164463505605584
 50
235.4698331271657992
 51
303.4358825875448247
  0
ARC
  5
13D6A
  8
0
 10
0.9846508400371538
 20
0.7347194335298167
 30
0.0
 40
0.0103424061437357
 50
303.4358825875456773
 51
42.4410802376050924
  0
ARC
  5
13D6B
  8
0
 10
0.981214466456783
 20
0.7307120952328586
 30
0.0
 40
0.015595700161746
 50
44.7868387131076773
 51
127.0583544161938931
  0
ARC
  5
13D6C
  8
0
 10
0.9521965334331587
 20
0.6862857193435996
 30
0.0
 40
0.0103165194602044
 50
125.5410711833921056
 51
235.4698331271657992
  0
ARC
  5
13D6D
  8
0
 10
0.9556711673237775
 20
0.691335644951435
 30
0.0
 40
0.0164463505605584
 50
235.4698331271657992
 51
303.4358825875448247
  0
ARC
  5
13D6E
  8
0
 10
0.9590344618884563
 20
0.6862418853266359
 30
0.0
 40
0.0103424061437357
 50
303.4358825875456773
 51
42.4410802376050924
  0
ARC
  5
13D6F
  8
0
 10
0.9555980883085402
 20
0.6822345470296494
 30
0.0
 40
0.015595700161746
 50
44.7868387131076773
 51
127.0583544161938931
  0
ARC
  5
13D70
  8
0
 10
0.9467509099074566
 20
0.6330098127852734
 30
0.0
 40
0.0103165194602044
 50
125.5410711833921056
 51
235.4698331271657992
  0
ARC
  5
13D71
  8
0
 10
0.9502255437985303
 20
0.6380597383930802
 30
0.0
 40
0.0164463505605584
 50
235.4698331271657992
 51
303.4358825875448247
  0
ARC
  5
13D72
  8
0
 10
0.9535888383627542
 20
0.6329659787682811
 30
0.0
 40
0.0103424061437357
 50
303.4358825875456773
 51
42.4410802376050924
  0
ARC
  5
13D73
  8
0
 10
0.9501524647828381
 20
0.628958640471323
 30
0.0
 40
0.015595700161746
 50
44.7868387131076773
 51
127.0583544161938931
  0
ARC
  5
13D74
  8
0
 10
0.9622524477442828
 20
0.5816106303231816
 30
0.0
 40
0.0103165194602044
 50
125.5410711833921056
 51
235.4698331271657992
  0
ARC
  5
13D75
  8
0
 10
0.9657270816353564
 20
0.586660555931017
 30
0.0
 40
0.0164463505605584
 50
235.4698331271657992
 51
303.4358825875448247
  0
ARC
  5
13D76
  8
0
 10
0.9690903761995803
 20
0.5815667963062179
 30
0.0
 40
0.0103424061437357
 50
303.4358825875456773
 51
42.4410802376050924
  0
ARC
  5
13D77
  8
0
 10
0.9656540026196642
 20
0.5775594580092314
 30
0.0
 40
0.015595700161746
 50
44.7868387131076773
 51
127.0583544161938931
  0
ARC
  5
13D78
  8
0
 10
0.9968879432142392
 20
0.5371571513185796
 30
0.0
 40
0.0103165194602044
 50
125.5410711833921056
 51
235.4698331271657992
  0
ARC
  5
13D79
  8
0
 10
1.0003625771048581
 20
0.5422070769263865
 30
0.0
 40
0.0164463505605584
 50
235.4698331271657992
 51
303.4358825875448247
  0
ARC
  5
13D7A
  8
0
 10
1.0037258716695361
 20
0.5371133173015874
 30
0.0
 40
0.0103424061437357
 50
303.4358825875456773
 51
42.4410802376050924
  0
ARC
  5
13D7B
  8
0
 10
1.00028949808962
 20
0.5331059790046293
 30
0.0
 40
0.015595700161746
 50
44.7868387131076773
 51
127.0583544161938931
  0
ARC
  5
13D7C
  8
0
 10
1.0472548974692071
 20
0.5046068519243346
 30
0.0
 40
0.0103165194602044
 50
125.5410711833921056
 51
235.4698331271657992
  0
ARC
  5
13D7D
  8
0
 10
1.0507295313598259
 20
0.5096567775321699
 30
0.0
 40
0.0164463505605584
 50
235.4698331271657992
 51
303.4358825875448247
  0
ARC
  5
13D7E
  8
0
 10
1.054092825924505
 20
0.5045630179073708
 30
0.0
 40
0.0103424061437357
 50
303.4358825875456773
 51
42.4410802376050924
  0
ARC
  5
13D7F
  8
0
 10
1.0506564523445889
 20
0.5005556796103843
 30
0.0
 40
0.015595700161746
 50
44.7868387131076773
 51
127.0583544161938931
  0
ARC
  5
13D80
  8
0
 10
1.107197976426284
 20
0.4871537497000116
 30
0.0
 40
0.0103165194602044
 50
125.5410711833921056
 51
235.4698331271657992
  0
ARC
  5
13D81
  8
0
 10
1.110672610317357
 20
0.492203675307847
 30
0.0
 40
0.0164463505605584
 50
235.4698331271657992
 51
303.4358825875448247
  0
ARC
  5
13D82
  8
0
 10
1.1140359048815811
 20
0.4871099156830479
 30
0.0
 40
0.0103424061437357
 50
303.4358825875456773
 51
42.4410802376050924
  0
ARC
  5
13D83
  8
0
 10
1.110599531301665
 20
0.4831025773860614
 30
0.0
 40
0.015595700161746
 50
44.7868387131076773
 51
127.0583544161938931
  0
ARC
  5
13D84
  8
0
 10
1.1111205415129519
 20
0.757065954524391
 30
0.0
 40
0.0131430672641373
 50
44.0207641258932227
 51
141.6123316269562906
  0
ARC
  5
13D85
  8
0
 10
1.1077976086628549
 20
0.760315996538024
 30
0.0
 40
0.0085339901043492
 50
144.863566123331708
 51
219.0217763409771976
  0
ARC
  5
13D86
  8
0
 10
1.111206284966789
 20
0.7640688184831657
 30
0.0
 40
0.0135668858997472
 50
222.2730108373424969
 51
302.6513264396903082
  0
ARC
  5
13D87
  8
0
 10
1.1136090721017871
 20
0.7603190898310839
 30
0.0
 40
0.0091133647106656
 50
302.6513264396903082
 51
40.1830516352994564
  0
ARC
  5
13D88
  8
0
 10
1.086923864715351
 20
0.7008067007608059
 30
0.0
 40
0.0131430672641373
 50
44.0207641258932227
 51
141.6123316269562906
  0
ARC
  5
13D89
  8
0
 10
1.0836009318648001
 20
0.7040567427744105
 30
0.0
 40
0.0085339901043492
 50
144.863566123331708
 51
219.0217763409771976
  0
ARC
  5
13D8A
  8
0
 10
1.0870096081687339
 20
0.7078095647195523
 30
0.0
 40
0.0135668858997472
 50
222.2730108373424969
 51
302.6513264396903082
  0
ARC
  5
13D8B
  8
0
 10
1.0894123953041861
 20
0.7040598360674988
 30
0.0
 40
0.0091133647106656
 50
302.6513264396903082
 51
40.1830516352994564
  0
ARC
  5
13D8C
  8
0
 10
1.0272849692617061
 20
0.7097173953420093
 30
0.0
 40
0.0131430672641373
 50
44.0207641258932227
 51
141.6123316269562906
  0
ARC
  5
13D8D
  8
0
 10
1.0239620364116091
 20
0.7129674373556423
 30
0.0
 40
0.0085339901043492
 50
144.863566123331708
 51
219.0217763409771976
  0
ARC
  5
13D8E
  8
0
 10
1.0273707127155429
 20
0.716720259300784
 30
0.0
 40
0.0135668858997472
 50
222.2730108373424969
 51
302.6513264396903082
  0
ARC
  5
13D8F
  8
0
 10
1.029773499850541
 20
0.7129705306487022
 30
0.0
 40
0.0091133647106656
 50
302.6513264396903082
 51
40.1830516352994564
  0
ARC
  5
13D90
  8
0
 10
1.006915705605258
 20
0.6703757455656483
 30
0.0
 40
0.0131430672641373
 50
44.0207641258932227
 51
141.6123316269562906
  0
ARC
  5
13D91
  8
0
 10
1.003592772754706
 20
0.6736257875792813
 30
0.0
 40
0.0085339901043492
 50
144.863566123331708
 51
219.0217763409771976
  0
ARC
  5
13D92
  8
0
 10
1.0070014490586401
 20
0.677378609524423
 30
0.0
 40
0.0135668858997472
 50
222.2730108373424969
 51
302.6513264396903082
  0
ARC
  5
13D93
  8
0
 10
1.009404236194092
 20
0.6736288808723412
 30
0.0
 40
0.0091133647106656
 50
302.6513264396903082
 51
40.1830516352994564
  0
ARC
  5
13D94
  8
0
 10
1.0570506498791079
 20
0.6624615306803872
 30
0.0
 40
0.0131430672641373
 50
44.0207641258932227
 51
141.6123316269562906
  0
ARC
  5
13D95
  8
0
 10
1.0537277170290109
 20
0.6657115726939918
 30
0.0
 40
0.0085339901043492
 50
144.863566123331708
 51
219.0217763409771976
  0
ARC
  5
13D96
  8
0
 10
1.05713639333249
 20
0.6694643946391335
 30
0.0
 40
0.0135668858997472
 50
222.2730108373424969
 51
302.6513264396903082
  0
ARC
  5
13D97
  8
0
 10
1.0595391804679419
 20
0.6657146659870801
 30
0.0
 40
0.0091133647106656
 50
302.6513264396903082
 51
40.1830516352994564
  0
ARC
  5
13D98
  8
0
 10
1.11006438275877
 20
0.6583316694134549
 30
0.0
 40
0.0131430672641373
 50
44.0207641258932227
 51
141.6123316269562906
  0
ARC
  5
13D99
  8
0
 10
1.1067414499086741
 20
0.6615817114270879
 30
0.0
 40
0.0085339901043492
 50
144.863566123331708
 51
219.0217763409771976
  0
ARC
  5
13D9A
  8
0
 10
1.1101501262126079
 20
0.6653345333722296
 30
0.0
 40
0.0135668858997472
 50
222.2730108373424969
 51
302.6513264396903082
  0
ARC
  5
13D9B
  8
0
 10
1.1125529133476051
 20
0.6615848047201478
 30
0.0
 40
0.0091133647106656
 50
302.6513264396903082
 51
40.1830516352994564
  0
ARC
  5
13D9C
  8
0
 10
1.1244541222456581
 20
0.6156147033001087
 30
0.0
 40
0.0131430672641373
 50
44.0207641258932227
 51
141.6123316269562906
  0
ARC
  5
13D9D
  8
0
 10
1.1211311893955609
 20
0.6188647453137417
 30
0.0
 40
0.0085339901043492
 50
144.863566123331708
 51
219.0217763409771976
  0
ARC
  5
13D9E
  8
0
 10
1.1245398656994949
 20
0.622617567258855
 30
0.0
 40
0.0135668858997472
 50
222.2730108373424969
 51
302.6513264396903082
  0
ARC
  5
13D9F
  8
0
 10
1.1269426528344919
 20
0.6188678386068017
 30
0.0
 40
0.0091133647106656
 50
302.6513264396903082
 51
40.1830516352994564
  0
ARC
  5
13DA0
  8
0
 10
1.059980645255342
 20
0.6163856745563105
 30
0.0
 40
0.0131430672641373
 50
44.0207641258932227
 51
141.6123316269562906
  0
ARC
  5
13DA1
  8
0
 10
1.0566577124052461
 20
0.6196357165699437
 30
0.0
 40
0.0085339901043492
 50
144.863566123331708
 51
219.0217763409771976
  0
ARC
  5
13DA2
  8
0
 10
1.0600663887091799
 20
0.6233885385150854
 30
0.0
 40
0.0135668858997472
 50
222.2730108373424969
 51
302.6513264396903082
  0
ARC
  5
13DA3
  8
0
 10
1.0624691758441771
 20
0.6196388098630035
 30
0.0
 40
0.0091133647106656
 50
302.6513264396903082
 51
40.1830516352994564
  0
ARC
  5
13DA4
  8
0
 10
1.004004180332464
 20
0.6269780768421338
 30
0.0
 40
0.0131430672641373
 50
44.0207641258932227
 51
141.6123316269562906
  0
ARC
  5
13DA5
  8
0
 10
1.0006812474823681
 20
0.6302281188557668
 30
0.0
 40
0.0085339901043492
 50
144.863566123331708
 51
219.0217763409771976
  0
ARC
  5
13DA6
  8
0
 10
1.0040899237863019
 20
0.6339809408009085
 30
0.0
 40
0.0135668858997472
 50
222.2730108373424969
 51
302.6513264396903082
  0
ARC
  5
13DA7
  8
0
 10
1.0064927109212991
 20
0.6302312121488268
 30
0.0
 40
0.0091133647106656
 50
302.6513264396903082
 51
40.1830516352994564
  0
ARC
  5
13DA8
  8
0
 10
1.0943008242068171
 20
0.5809862451845031
 30
0.0
 40
0.0131430672641373
 50
44.0207641258932227
 51
141.6123316269562906
  0
ARC
  5
13DA9
  8
0
 10
1.090977891356721
 20
0.5842362871981078
 30
0.0
 40
0.0085339901043492
 50
144.863566123331708
 51
219.0217763409771976
  0
ARC
  5
13DAA
  8
0
 10
1.094386567660655
 20
0.5879891091432495
 30
0.0
 40
0.0135668858997472
 50
222.2730108373424969
 51
302.6513264396903082
  0
ARC
  5
13DAB
  8
0
 10
1.096789354795652
 20
0.5842393804911961
 30
0.0
 40
0.0091133647106656
 50
302.6513264396903082
 51
40.1830516352994564
  0
ARC
  5
13DAC
  8
0
 10
1.0203105816069691
 20
0.5865475139297569
 30
0.0
 40
0.0131430672641373
 50
44.0207641258932227
 51
141.6123316269562906
  0
ARC
  5
13DAD
  8
0
 10
1.016987648756418
 20
0.5897975559433899
 30
0.0
 40
0.0085339901043492
 50
144.863566123331708
 51
219.0217763409771976
  0
ARC
  5
13DAE
  8
0
 10
1.020396325060352
 20
0.5935503778885316
 30
0.0
 40
0.0135668858997472
 50
222.2730108373424969
 51
302.6513264396903082
  0
ARC
  5
13DAF
  8
0
 10
1.022799112195349
 20
0.5898006492364499
 30
0.0
 40
0.0091133647106656
 50
302.6513264396903082
 51
40.1830516352994564
  0
ARC
  5
13DB0
  8
0
 10
1.0526325500779929
 20
0.5532974639139053
 30
0.0
 40
0.0131430672641373
 50
44.0207641258932227
 51
141.6123316269562906
  0
ARC
  5
13DB1
  8
0
 10
1.0493096172274421
 20
0.5565475059275382
 30
0.0
 40
0.0085339901043492
 50
144.863566123331708
 51
219.0217763409771976
  0
ARC
  5
13DB2
  8
0
 10
1.0527182935313759
 20
0.5603003278726515
 30
0.0
 40
0.0135668858997472
 50
222.2730108373424969
 51
302.6513264396903082
  0
ARC
  5
13DB3
  8
0
 10
1.0551210806668281
 20
0.5565505992205982
 30
0.0
 40
0.0091133647106656
 50
302.6513264396903082
 51
40.1830516352994564
  0
ARC
  5
13DB4
  8
0
 10
1.0979242000210041
 20
0.5323026390524018
 30
0.0
 40
0.0131430672641373
 50
44.0207641258932227
 51
141.6123316269562906
  0
ARC
  5
13DB5
  8
0
 10
1.0946012671709071
 20
0.5355526810660347
 30
0.0
 40
0.0085339901043492
 50
144.863566123331708
 51
219.0217763409771976
  0
ARC
  5
13DB6
  8
0
 10
1.0980099434748409
 20
0.5393055030111765
 30
0.0
 40
0.0135668858997472
 50
222.2730108373424969
 51
302.6513264396903082
  0
ARC
  5
13DB7
  8
0
 10
1.1004127306098379
 20
0.535555774359123
 30
0.0
 40
0.0091133647106656
 50
302.6513264396903082
 51
40.1830516352994564
  0
ARC
  5
13DB8
  8
0
 10
1.141732324476612
 20
0.6486694171272785
 30
0.0
 40
0.6526056911496231
 50
74.8522769283164422
 51
105.147723071683501
  0
ARC
  5
13DB9
  8
0
 10
1.141732324476612
 20
0.6538416493225139
 30
0.0
 40
0.6538416539455955
 50
254.8815950984703136
 51
285.1184049015296864
  0
ARC
  5
13DBA
  8
0
 10
1.141732324476612
 20
0.7177083160688067
 30
0.0
 40
0.2622696861990634
 50
261.5331857212387945
 51
278.4668142787610918
  0
LINE
  5
13DBB
  8
0
 10
1.1724752149764359
 20
0.3556920116769202
 30
0.0
 11
1.1724747726691529
 21
0.3724479439259749
 31
0.0
  0
LINE
  5
13DBC
  8
0
 10
1.110989433976789
 20
0.3556920116769202
 30
0.0
 11
1.1109898762840711
 21
0.3724479439259749
 31
0.0
  0
ARC
  5
13DBD
  8
0
 10
1.1417322810618831
 20
0.3677072149020244
 30
0.0
 40
0.0311057866514069
 50
8.7653722682212312
 51
171.2335781711061031
  0
ARC
  5
13DBE
  8
0
 10
1.1410136497763741
 20
0.9440863507769829
 30
0.0
 40
0.5764339512000852
 50
267.0143668120276743
 51
273.1287047943426955
  0
ARC
  5
13DBF
  8
0
 10
1.141732324476612
 20
0.5597110430100809
 30
0.0
 40
0.3361447655616558
 50
53.1062958515055712
 51
126.8937041484943933
  0
ARC
  5
13DC0
  8
0
 10
1.141732324476612
 20
0.5756803387442045
 30
0.0
 40
0.2619007290612408
 50
81.5211701794930832
 51
98.478829820506931
  0
ARC
  5
13DC1
  8
0
 10
1.1410096712309099
 20
0.8952449552308774
 30
0.0
 40
0.4712855935356724
 50
266.3717476016286128
 51
273.8156896711124091
  0
ARC
  5
13DC2
  8
0
 10
1.140770248870246
 20
1.167947263451905
 30
0.0
 40
0.0351115734545109
 50
211.9812755653429974
 51
334.5594133590436741
  0
ARC
  5
13DC3
  8
0
 10
1.141732324476612
 20
1.1316169755214649
 30
0.0
 40
0.0311093800968371
 50
188.8087134444483866
 51
351.1912865555515282
  0
ARC
  5
13DC4
  8
0
 10
1.141732324476612
 20
0.6220692574634068
 30
0.0
 40
0.4624466997696033
 50
82.0813251199618321
 51
97.9186748800381821
  0
LINE
  5
13DC5
  8
0
 10
2.283464607976617
 20
11.2695426700469401
 30
0.0
 11
0.0000000409766079
 21
11.2695426700469401
 31
0.0
  0
LINE
  5
13DC6
  8
0
 10
2.283464607976617
 20
11.0333221976469193
 30
0.0
 11
2.283464607976617
 21
11.2695426700469401
 31
0.0
  0
LINE
  5
13DC7
  8
0
 10
2.2278799507760199
 20
10.9742670795469301
 30
0.0
 11
0.0555846981776602
 21
10.9742670795469301
 31
0.0
  0
LINE
  5
13DC8
  8
0
 10
1.6930071429726521
 20
5.0340593644893072
 30
0.0
 11
1.6930071429726521
 21
10.9742670795469301
 31
0.0
  0
ARC
  5
13DC9
  8
0
 10
2.2242159991612942
 20
11.0334023442254008
 30
0.0
 40
0.0592486630231374
 50
273.5454470395844169
 51
359.9224950934644198
  0
ARC
  5
13DCA
  8
0
 10
1.4888600536025991
 20
5.041830501644851
 30
0.0
 40
0.2042949452897024
 50
308.4435126952906217
 51
357.8200106369325795
  0
LINE
  5
13DCB
  8
0
 10
0.0000000409766079
 20
11.0333221976469193
 30
0.0
 11
0.0000000409766079
 21
11.2695426700469401
 31
0.0
  0
LINE
  5
13DCC
  8
0
 10
0.5904575059810276
 20
5.0340593644893072
 30
0.0
 11
0.5904575059810276
 21
10.9742670795469301
 31
0.0
  0
ARC
  5
13DCD
  8
0
 10
0.0592486497919316
 20
11.0334023442254008
 30
0.0
 40
0.0592486630231374
 50
180.0775049065354949
 51
266.4545529604155263
  0
ARC
  5
13DCE
  8
0
 10
0.794604595351081
 20
5.041830501644851
 30
0.0
 40
0.2042949452897024
 50
182.1799893630673921
 51
231.5564873047094068
  0
ARC
  5
13DCF
  8
0
 10
1.141732324476612
 20
5.5673330570233741
 30
0.0
 40
0.8335106594618192
 50
235.3295860651338103
 51
304.6704139348661897
  0
LINE
  5
13DD0
  8
0
 10
9.8952980691765404
 20
1.0517151965769049
 30
0.0
 11
9.8952980691765404
 21
3.3351797635769151
 31
0.0
  0
LINE
  5
13DD1
  8
0
 10
9.6590775967765765
 20
1.0517151965769049
 30
0.0
 11
9.8952980691765404
 21
1.0517151965769049
 31
0.0
  0
LINE
  5
13DD2
  8
0
 10
9.6000224786762445
 20
1.10729985377756
 30
0.0
 11
9.6000224786762445
 21
3.2795951063762319
 31
0.0
  0
ARC
  5
13DD3
  8
0
 10
9.6591577433550881
 20
1.110963805392257
 30
0.0
 40
0.0592486630231374
 50
183.5454470395904139
 51
269.9224950934709
  0
LINE
  5
13DD4
  8
0
 10
9.6590775967765765
 20
3.3351797635769151
 30
0.0
 11
9.8952980691765404
 21
3.3351797635769151
 31
0.0
  0
ARC
  5
13DD5
  8
0
 10
9.6591577433550881
 20
3.2759311547615351
 30
0.0
 40
0.0592486630231374
 50
90.0775049065290858
 51
176.4545529604095009
  0
LINE
  5
13DD6
  8
0
 10
9.6000224786762445
 20
2.9711002513727158
 30
0.0
 11
7.2686138246485879
 21
2.9711002513727158
 31
0.0
  0
LINE
  5
13DD7
  8
0
 10
9.6000224786762445
 20
1.415652157137314
 30
0.0
 11
7.4195927936762081
 21
1.4126483691769041
 31
0.0
  0
LINE
  5
13DD8
  8
0
 10
5.7757230563765969
 20
0.9726734528769025
 30
0.0
 11
4.2111083833765459
 21
-0.0000000046231055
 31
0.0
  0
LINE
  5
13DD9
  8
0
 10
4.2111083833765459
 20
-0.0000000046231055
 30
0.0
 11
3.359577806276326
 21
1.301275108276909
 31
0.0
  0
LINE
  5
13DDA
  8
0
 10
3.359577806276326
 20
1.301275108276909
 30
0.0
 11
4.7818179421879048
 21
2.1934474800769101
 31
0.0
  0
ARC
  5
13DDB
  8
0
 10
3.9302774962752718
 20
0.4292270924972837
 30
0.0
 40
0.007917685102959
 50
212.8886634278860868
 51
294.9014598383195107
  0
LINE
  5
13DDC
  8
0
 10
3.9236287997764578
 20
0.4249277236769143
 30
0.0
 11
3.633632909276463
 21
0.8680879028769066
 31
0.0
  0
ARC
  5
13DDD
  8
0
 10
3.6402962861529939
 20
0.8724672642312025
 30
0.0
 40
0.00797366899677
 50
153.6903280899680908
 51
213.314058728287705
  0
LINE
  5
13DDE
  8
0
 10
3.8995106082052251
 20
0.4761713049807082
 30
0.0
 11
3.8961989083222819
 21
0.474004383268861
 31
0.0
  0
LINE
  5
13DDF
  8
0
 10
3.8961989083222819
 20
0.474004383268861
 30
0.0
 11
3.6201714934763971
 21
0.8958562444769012
 31
0.0
  0
LINE
  5
13DE0
  8
0
 10
3.6201714934763971
 20
0.8958562444769012
 30
0.0
 11
3.6082928816531479
 21
0.9211986359872224
 31
0.0
  0
ARC
  5
13DE1
  8
0
 10
7.4816286111172356
 20
-2.075076185725437
 30
0.0
 40
5.0506704439687038
 50
92.4171977872311459
 51
122.3130601850461971
  0
ARC
  5
13DE2
  8
0
 10
7.4380849015910879
 20
-1.9474100839369171
 30
0.0
 40
3.3601093384586131
 50
90.3153245860596456
 51
119.6522411900763956
  0
ENDBLK
  5
13DE6
  8
0
  0
ENDSEC
  0
SECTION
  2
ENTITIES
  0
ATTDEF
  5
12BEB
  8
DEFPOINTS
 10
3611.9813710775979416
 20
180.4685762466804135
 30
0.0
 40
0.001
  1
K-22791IN-4
  3

  2
MODELNUMBER
 70
     0
1001
ACDBATTR
1070
     0
1070
     1
  0
ATTDEF
  5
12BEC
  8
DEFPOINTS
 10
3611.9813710775979416
 20
180.4669095800138052
 30
0.0
 40
0.001
  1
ALEO
  3

  2
TRADENAME
 70
     0
1001
ACDBATTR
1070
     0
1070
     1
  0
ATTDEF
  5
12BED
  8
DEFPOINTS
 10
3611.9813710775979416
 20
180.4652429133471117
 30
0.0
 40
0.001
  1
VALVE TRIM
  3

  2
PRODUCT
 70
     0
1001
ACDBATTR
1070
     0
1070
     1
  0
LINE
  5
16368
  8
0
 10
3611.980623388208187
 20
183.737701307596808
 30
0.0
 11
3611.980623388208187
 21
177.2022682361968009
 31
0.0
  0
ARC
  5
16369
  8
0
 10
3611.6023401890552122
 20
183.6847546334608978
 30
0.0
 40
0.0198572447523971
 50
89.7675741822394144
 51
174.9892231766127964
  0
ARC
  5
1636A
  8
0
 10
3611.6022706532630764
 20
177.2551387013872102
 30
0.0
 40
0.0197814418155773
 50
184.808478140303805
 51
270.4347263281496794
  0
ARC
  5
1636B
  8
0
 10
3643.1205020352540487
 20
180.9665410547397073
 30
0.0
 40
31.6550150592566091
 50
175.0707986267638034
 51
177.2777331565650059
  0
ARC
  5
1636C
  8
0
 10
3575.5071706206581439
 20
182.4789886799937051
 30
0.0
 40
35.9940404014348019
 50
356.9133544137202989
 51
359.9856674618933994
  0
ARC
  5
1636D
  8
0
 10
3612.2910610577428088
 20
180.4781433671595892
 30
0.0
 40
0.8444001078179507
 50
175.7411322343824054
 51
180.5536005318087973
  0
ARC
  5
1636E
  8
0
 10
3649.839923690822161
 20
180.4830161366625134
 30
0.0
 40
38.3932255373380826
 50
180.0194472385747986
 51
183.224502593144706
  0
ARC
  5
1636F
  8
0
 10
3648.8076240616878749
 20
180.4023853578790977
 30
0.0
 40
37.3580316233809597
 50
183.1900898238619959
 51
184.3661824603520074
  0
ARC
  5
16370
  8
0
 10
-16056.06968107405919
 20
-1406.5036670297940873
 30
0.0
 40
19731.3160060934715148
 50
4.6038653039181536
 51
4.6047533004906231
  0
LINE
  5
16371
  8
0
 10
3608.9688123645078122
 20
182.4458851294808142
 30
0.0
 11
3608.9688123645078122
 21
177.9136895558503113
 31
0.0
  0
LINE
  5
16372
  8
0
 10
3610.7325808685081938
 20
182.4699847715968133
 30
0.0
 11
3611.5012098959291507
 21
182.4699847715968133
 31
0.0
  0
LINE
  5
16373
  8
0
 10
3610.7207808685079726
 20
182.4581847715967911
 30
0.0
 11
3610.7207808685079726
 21
180.5526509133968034
 31
0.0
  0
ARC
  5
16374
  8
0
 10
3610.7325808685081938
 20
182.4581847715967911
 30
0.0
 40
0.0118
 50
90.0
 51
180.0000000000048885
  0
LINE
  5
16375
  8
0
 10
3610.7325808685081938
 20
180.5408509133966959
 30
0.0
 11
3611.4489925891921303
 21
180.5408509133966959
 31
0.0
  0
ARC
  5
16376
  8
0
 10
3610.7325808685081938
 20
180.5526509133968034
 30
0.0
 40
0.0118
 50
179.9999999999951115
 51
270.0
  0
LINE
  5
16377
  8
0
 10
3608.9885127749021194
 20
182.4655851294764943
 30
0.0
 11
3609.8361622767088193
 21
182.4655674710967901
 31
0.0
  0
ARC
  5
16378
  8
0
 10
3608.9885123645080967
 20
182.4458851294808142
 30
0.0
 40
0.0197
 50
89.9988064044842417
 51
180.0000000000081002
  0
LINE
  5
16379
  8
0
 10
3609.8361622767088193
 20
182.4655674710967901
 30
0.0
 11
3610.2521166360479583
 21
181.5735504689874915
 31
0.0
  0
LINE
  5
1637A
  8
0
 10
3610.3073950417078777
 20
181.32420569453501
 30
0.0
 11
3610.3073950417078777
 21
180.5014808370912931
 31
0.0
  0
ARC
  5
1637B
  8
0
 10
3609.7173950417081869
 20
181.32420569453501
 30
0.0
 40
0.59
 50
0.0
 51
25.0000000027326799
  0
LINE
  5
1637C
  8
0
 10
3610.5845655394077767
 20
182.4502997322967985
 30
0.0
 11
3610.7207808685079726
 21
182.4502997322967985
 31
0.0
  0
LINE
  5
1637D
  8
0
 10
3610.5845655394077767
 20
180.5605359526967106
 30
0.0
 11
3610.7207808685079726
 21
180.5605359526967106
 31
0.0
  0
ARC
  5
1637E
  8
0
 10
3610.5845655394077767
 20
181.5054178424967972
 30
0.0
 40
0.9448818898000336
 50
252.9420501453597012
 51
270.0
  0
ARC
  5
1637F
  8
0
 10
3610.5845655394077767
 20
181.505417842496712
 30
0.0
 40
0.9448818897999991
 50
90.0
 51
131.7623806136406017
  0
ARC
  5
16380
  8
0
 10
3608.9885687859418795
 20
177.9141582223612943
 30
0.0
 40
0.0197619795613803
 50
181.3589291872019942
 51
269.8324030999497154
  0
ARC
  5
16381
  8
0
 10
3608.9881918136511558
 20
177.9155457534523919
 30
0.0
 40
0.0211518342416653
 50
270.8645857052489987
 51
291.9149548857486138
  0
ARC
  5
16382
  8
0
 10
3608.9176463780918311
 20
178.0873400992487063
 30
0.0
 40
0.2068660640187941
 50
292.2830367180267217
 51
307.063700601886012
  0
ARC
  5
16383
  8
0
 10
3608.85294788134388
 20
178.1494218229719024
 30
0.0
 40
0.2957407167251058
 50
309.8178311593730996
 51
339.7313181938549178
  0
ARC
  5
16384
  8
0
 10
3607.0054172152131287
 20
178.5615205367296028
 30
0.0
 40
2.1965153135400741
 50
349.6066076728994858
 51
357.1078094758507859
  0
ARC
  5
16385
  8
0
 10
3608.4713199134971546
 20
178.3093352651563919
 30
0.0
 40
0.709358898656011
 50
338.292901010164428
 51
348.2810552423655963
  0
ARC
  5
16386
  8
0
 10
3587.5272289095069027
 20
179.3026928096946904
 30
0.0
 40
21.6886469656130494
 50
357.7486539149660985
 51
359.4660841346739062
  0
ARC
  5
16387
  8
0
 10
3617.5127864253868211
 20
179.0951226481703884
 30
0.0
 40
8.2978540223317339
 50
174.5955454753161007
 51
179.9622614341867006
  0
ARC
  5
16388
  8
0
 10
3610.0552478295558103
 20
179.7992167699570984
 30
0.0
 40
0.8071524907578361
 50
141.6901188255721991
 51
174.4940776030749134
  0
ARC
  5
16389
  8
0
 10
3609.771217665651875
 20
179.9923827644007872
 30
0.0
 40
0.4651820967229653
 50
114.8638991163838057
 51
138.6707337298016967
  0
ARC
  5
1638A
  8
0
 10
3609.8693664099059788
 20
179.7755783934921965
 30
0.0
 40
0.7031618724278883
 50
106.5029511709617935
 51
114.6921953192239982
  0
ARC
  5
1638B
  8
0
 10
3609.9091108733928195
 20
179.9071247258389974
 30
0.0
 40
0.5931460735275728
 50
95.3145421534772055
 51
113.8133710142509045
  0
ARC
  5
1638C
  8
0
 10
3609.9149225664828009
 20
179.7870406480039094
 30
0.0
 40
0.7132721934591399
 50
89.4745290606430643
 51
94.8859176413646708
  0
ARC
  5
1638D
  8
0
 10
3610.0155244422639953
 20
179.425722908106593
 30
0.0
 40
1.078668817333867
 50
90.9102813480062508
 51
95.0025713631249999
  0
ARC
  5
1638E
  8
0
 10
3610.4622524393598724
 20
214.9544289864518021
 30
0.0
 40
34.4532961702479099
 50
269.228570686023204
 51
269.7424715144015863
  0
ARC
  5
1638F
  8
0
 10
3621.9318948322470533
 20
67.8201889610866573
 30
0.0
 40
116.3438759538131961
 50
94.9066903186663353
 51
95.0936550755549632
  0
ARC
  5
16390
  8
0
 10
7883.3886987841942755
 20
49000.7136142925883178
 30
0.0
 40
49010.0008886457289918
 50
264.9996676078868063
 51
265.0001114313741937
  0
LINE
  5
16392
  8
0
 10
3611.5805795368078179
 20
183.6634406067774989
 30
0.0
 11
3611.5805795368078179
 21
177.2780599178774992
 31
0.0
  0
ENDSEC
  0
EOF
