  0
SECTION
  2
HEADER
  9
$ACADVER
  1
AC1009
  9
$INSBASE
 10
4298.4627603725521112
 20
500.5006433820993834
 30
0.0
  9
$EXTMIN
 10
4295.7068568918521123
 20
495.0529428269716163
 30
0.0
  9
$EXTMAX
 10
4301.2186638532512006
 20
504.6347733328926779
 30
0.0
  9
$LIMMIN
 10
0.0
 20
0.0
  9
$LIMMAX
 10
11.6929133858000007
 20
8.2677165353999982
  9
$ORTHOMODE
 70
     0
  9
$REGENMODE
 70
     1
  9
$FILLMODE
 70
     1
  9
$QTEXTMODE
 70
     0
  9
$MIRRTEXT
 70
     0
  9
$DRAGMODE
 70
     2
  9
$LTSCALE
 40
0.6431102362
  9
$OSMODE
 70
  2039
  9
$ATTMODE
 70
     1
  9
$TEXTSIZE
 40
0.2
  9
$TRACEWID
 40
0.05
  9
$TEXTSTYLE
  7
STANDARD
  9
$CLAYER
  8
0
  9
$CELTYPE
  6
BYLAYER
  9
$CECOLOR
 62
   256
  9
$DIMSCALE
 40
1.0
  9
$DIMASZ
 40
0.1875
  9
$DIMEXO
 40
0.0625
  9
$DIMDLI
 40
0.4443307087
  9
$DIMRND
 40
0.0
  9
$DIMDLE
 40
0.0
  9
$DIMEXE
 40
0.125
  9
$DIMTP
 40
0.01
  9
$DIMTM
 40
0.01
  9
$DIMTXT
 40
2.0
  9
$DIMCEN
 40
0.1052362205
  9
$DIMTSZ
 40
0.0
  9
$DIMTOL
 70
     1
  9
$DIMLIM
 70
     0
  9
$DIMTIH
 70
     1
  9
$DIMTOH
 70
     1
  9
$DIMSE1
 70
     0
  9
$DIMSE2
 70
     0
  9
$DIMTAD
 70
     0
  9
$DIMZIN
 70
     0
  9
$DIMBLK
  1

  9
$DIMASO
 70
     1
  9
$DIMSHO
 70
     1
  9
$DIMPOST
  1
\X
  9
$DIMAPOST
  1

  9
$DIMALT
 70
     1
  9
$DIMALTD
 70
     2
  9
$DIMALTF
 40
25.3999999999999986
  9
$DIMLFAC
 40
1.0
  9
$DIMTOFL
 70
     0
  9
$DIMTVP
 40
0.0
  9
$DIMTIX
 70
     0
  9
$DIMSOXD
 70
     0
  9
$DIMSAH
 70
     0
  9
$DIMBLK1
  1

  9
$DIMBLK2
  1

  9
$DIMSTYLE
  2
STANDARD
  9
$DIMCLRD
 70
     0
  9
$DIMCLRE
 70
     0
  9
$DIMCLRT
 70
     0
  9
$DIMTFAC
 40
1.0
  9
$DIMGAP
 40
0.09
  9
$LUNITS
 70
     2
  9
$LUPREC
 70
     4
  9
$SKETCHINC
 40
0.1
  9
$FILLETRAD
 40
0.0
  9
$AUNITS
 70
     0
  9
$AUPREC
 70
     0
  9
$MENU
  1
.
  9
$ELEVATION
 40
0.0
  9
$PELEVATION
 40
0.0
  9
$THICKNESS
 40
0.0
  9
$LIMCHECK
 70
     0
  9
$BLIPMODE
 70
     0
  9
$CHAMFERA
 40
0.0
  9
$CHAMFERB
 40
0.0
  9
$SKPOLY
 70
     0
  9
$TDCREATE
 40
2458060.468368056230247
  9
$TDUPDATE
 40
2459969.4734375001862645
  9
$TDINDWG
 40
1.161858912
  9
$TDUSRTIMER
 40
1.161858912
  9
$USRTIMER
 70
     1
  9
$ANGBASE
 50
0.0
  9
$ANGDIR
 70
     0
  9
$PDMODE
 70
     0
  9
$PDSIZE
 40
0.3125
  9
$PLINEWID
 40
0.0
  9
$COORDS
 70
     1
  9
$SPLFRAME
 70
     0
  9
$SPLINETYPE
 70
     6
  9
$SPLINESEGS
 70
     8
  9
$ATTDIA
 70
     1
  9
$ATTREQ
 70
     1
  9
$HANDLING
 70
     1
  9
$HANDSEED
  5
176F5
  9
$SURFTAB1
 70
     6
  9
$SURFTAB2
 70
     6
  9
$SURFTYPE
 70
     6
  9
$SURFU
 70
     6
  9
$SURFV
 70
     6
  9
$UCSNAME
  2

  9
$UCSORG
 10
0.0
 20
0.0
 30
0.0
  9
$UCSXDIR
 10
1.0
 20
0.0
 30
0.0
  9
$UCSYDIR
 10
0.0
 20
1.0
 30
0.0
  9
$PUCSNAME
  2

  9
$PUCSORG
 10
0.0
 20
0.0
 30
0.0
  9
$PUCSXDIR
 10
1.0
 20
0.0
 30
0.0
  9
$PUCSYDIR
 10
0.0
 20
1.0
 30
0.0
  9
$USERI1
 70
     0
  9
$USERI2
 70
     0
  9
$USERI3
 70
     0
  9
$USERI4
 70
     0
  9
$USERI5
 70
     0
  9
$USERR1
 40
0.0
  9
$USERR2
 40
0.0
  9
$USERR3
 40
0.0
  9
$USERR4
 40
0.0
  9
$USERR5
 40
0.0
  9
$WORLDVIEW
 70
     1
  9
$SHADEDGE
 70
     3
  9
$SHADEDIF
 70
    70
  9
$TILEMODE
 70
     1
  9
$MAXACTVP
 70
    64
  9
$PLIMCHECK
 70
     0
  9
$PEXTMIN
 10
1.0000000000000000E+20
 20
1.0000000000000000E+20
 30
1.0000000000000000E+20
  9
$PEXTMAX
 10
-1.0000000000000000E+20
 20
-1.0000000000000000E+20
 30
-1.0000000000000000E+20
  9
$PLIMMIN
 10
0.0
 20
0.0
  9
$PLIMMAX
 10
12.0
 20
9.0
  9
$UNITMODE
 70
     0
  9
$VISRETAIN
 70
     1
  9
$PLINEGEN
 70
     0
  9
$PSLTSCALE
 70
     1
  0
ENDSEC
  0
SECTION
  2
TABLES
  0
TABLE
  2
VPORT
 70
     1
  0
VPORT
  2
*ACTIVE
 70
     0
 10
0.0
 20
0.0
 11
1.0
 21
1.0
 12
408.5420186665099891
 22
376.4138044269546981
 13
0.0
 23
0.0
 14
1.0
 24
1.0
 15
0.0
 25
0.0
 16
0.0
 26
0.0
 36
60.4960186965801583
 17
3911.3653564453120453
 27
132.5796051025390057
 37
0.0
 40
56.6367725592651894
 41
2.0416666666666661
 42
50.0
 43
0.0
 44
0.0
 50
0.0
 51
0.0
 71
     0
 72
   100
 73
     1
 74
     1
 75
     0
 76
     0
 77
     0
 78
     0
  0
ENDTAB
  0
TABLE
  2
LTYPE
 70
     2
  0
LTYPE
  2
CONTINUOUS
 70
     0
  3
Solid line
 72
    65
 73
     0
 40
0.0
  0
LTYPE
  2
PHANTOM2
 70
     0
  3
___ _ _ ___ _ _ ___ _ _ ___ _ _
 72
    65
 73
     6
 40
1.25
 49
0.625
 49
-0.125
 49
0.125
 49
-0.125
 49
0.125
 49
-0.125
  0
ENDTAB
  0
TABLE
  2
LAYER
 70
     2
  0
LAYER
  2
0
 70
     0
 62
   255
  6
CONTINUOUS
  0
LAYER
  2
DEFPOINTS
 70
     0
 62
     7
  6
CONTINUOUS
  0
ENDTAB
  0
TABLE
  2
STYLE
 70
     1
  0
STYLE
  2
STANDARD
 70
     0
 40
0.0
 41
0.8
 50
0.0
 71
     0
 42
0.2
  3
txt
  4

  0
ENDTAB
  0
TABLE
  2
VIEW
 70
     0
  0
ENDTAB
  0
TABLE
  2
UCS
 70
     0
  0
ENDTAB
  0
TABLE
  2
APPID
 70
    11
  0
APPID
  2
ACAD
 70
     0
  0
APPID
  2
ACAD_MLEADERVER
 70
     0
  0
APPID
  2
ACAD_EXEMPT_FROM_CAD_STANDARDS
 70
     0
  0
APPID
  2
ACAD_NAV_VCDISPLAY
 70
     0
  0
APPID
  2
ACAECLAYERSTANDARD
 70
     0
  0
APPID
  2
ACCMTRANSPARENCY
 70
     0
  0
APPID
  2
ACAD_DSTYLE_DIMJAG
 70
     0
  0
APPID
  2
ACAD_DSTYLE_DIMTALN
 70
     0
  0
APPID
  2
ACDBATTR
 70
     0
  0
APPID
  2
ACADANNOTATIVE
 70
     0
  0
APPID
  2
DCO15
 70
     0
  0
ENDTAB
  0
TABLE
  2
DIMSTYLE
 70
     1
  0
DIMSTYLE
  2
STANDARD
 70
     0
  3

  4

  5

  6

  7

 40
1.0
 41
0.1875
 42
0.0625
 43
0.38
 44
0.125
 45
0.0
 46
0.0
 47
0.01
 48
0.01
140
0.15625
141
0.09
142
0.0
143
25.3999999999999986
144
1.0
145
0.0
146
1.0
147
0.09
 71
     1
 72
     0
 73
     1
 74
     1
 75
     0
 76
     0
 77
     0
 78
     4
170
     0
171
     2
172
     0
173
     0
174
     0
175
     0
176
     0
177
     0
178
     0
  0
ENDTAB
  0
ENDSEC
  0
SECTION
  2
BLOCKS
  0
BLOCK
  8
0
  2
$MODEL_SPACE
 70
     0
 10
0.0
 20
0.0
 30
0.0
  3
$MODEL_SPACE
  1

  0
ENDBLK
  5
21
  8
0
  0
BLOCK
 67
     1
  8
0
  2
$PAPER_SPACE
 70
     0
 10
0.0
 20
0.0
 30
0.0
  3
$PAPER_SPACE
  1

  0
ENDBLK
  5
1D
 67
     1
  8
0
  0
ENDSEC
  0
SECTION
  2
ENTITIES
  0
ATTDEF
  5
159BF
  8
0
 10
4298.465518905432873
 20
500.5051176237786876
 30
0.0
 40
0.001
  1
K-22792IN-4FP
  3

  2
MODELNUMBER
 70
     0
1001
ACDBATTR
1070
     0
1070
     1
  0
ATTDEF
  5
159C0
  8
0
 10
4298.4653930957765624
 20
500.5034507833995008
 30
0.0
 40
0.001
  1
ALEO
  3

  2
TRADENAME
 70
     0
1001
ACDBATTR
1070
     0
1070
     1
  0
ATTDEF
  5
159C1
  8
0
 10
4298.465518905432873
 20
500.5017842904454142
 30
0.0
 40
0.001
  1
VALE TRIM
  3

  2
PRODUCT
 70
     0
1001
ACDBATTR
1070
     0
1070
     1
  0
ARC
  5
174F5
  8
0
 10
4296.4149045096282862
 20
503.9267257149783745
 30
0.0
 40
0.7080476180155068
 50
90.0009693786834504
 51
179.998511419195097
  0
ARC
  5
174F6
  8
0
 10
4298.4575979047167493
 20
502.1004684079977096
 30
0.0
 40
1.172613625102513
 50
89.7477527396730608
 51
100.5792027813833016
  0
ARC
  5
174F7
  8
0
 10
4298.2747592471951066
 20
502.9339716895399874
 30
0.0
 40
0.3208233111016454
 50
95.8045955487500436
 51
130.2797543602447945
  0
ARC
  5
174F8
  8
0
 10
4298.2636008458621291
 20
502.9846947710630047
 30
0.0
 40
0.2759828795526042
 50
135.3271247020971089
 51
173.540211346157605
  0
ARC
  5
174F9
  8
0
 10
4303.7646353419931984
 20
502.4698374292328253
 30
0.0
 40
5.8010087360369136
 50
174.6001598253249938
 51
178.5628601183337878
  0
ARC
  5
174FA
  8
0
 10
4310.765052865065627
 20
502.1374432883744134
 30
0.0
 40
12.8085195249509507
 50
177.8618040396540039
 51
180.5742589029619865
  0
ARC
  5
174FB
  8
0
 10
4299.5534576383297463
 20
502.0121157045091991
 30
0.0
 40
1.5962838724699631
 50
180.1093425306673055
 51
188.8785546042026056
  0
ARC
  5
174FC
  8
0
 10
4298.20676165826535
 20
501.8158456136376913
 30
0.0
 40
0.2358437955170078
 50
192.2650444685801006
 51
234.0872556169805989
  0
ARC
  5
174FD
  8
0
 10
4296.4149045096282862
 20
497.0745686268336954
 30
0.0
 40
0.7080476180154991
 50
180.0014885808047893
 51
269.9990306213165923
  0
LINE
  5
174FE
  8
0
 10
4295.7068568918521123
 20
503.9267441105059788
 30
0.0
 11
4295.7068568918521123
 21
497.0745502313060911
 31
0.0
  0
ARC
  5
174FF
  8
0
 10
4298.4676323596268048
 20
498.6233749198074747
 30
0.0
 40
1.0008155540862691
 50
90.2789179271032936
 51
124.3846001296667936
  0
ARC
  5
17500
  8
0
 10
4298.4454975910621215
 20
498.6536870307315894
 30
0.0
 40
0.9633002002323241
 50
124.3162926267685009
 51
154.3772055966007031
  0
ARC
  5
17501
  8
0
 10
4298.4618367664597827
 20
498.638101433249517
 30
0.0
 40
0.9847972832066995
 50
153.9706889059281991
 51
182.7951916373773997
  0
ARC
  5
17502
  8
0
 10
4298.4625650296056847
 20
498.6640003749060952
 30
0.0
 40
1.013739828209588
 50
89.9889492638569948
 51
196.7799672935425122
  0
ARC
  5
17503
  8
0
 10
4299.3540658560377778
 20
495.8435063795919859
 30
0.0
 40
1.713993029270154
 50
184.1852361719062117
 51
194.3633753434145888
  0
ARC
  5
17504
  8
0
 10
4298.44634573465828
 20
498.0120289887677245
 30
0.0
 40
2.9590861617961082
 50
264.8413067976131856
 51
270.3170168006229801
  0
ARC
  5
17505
  8
0
 10
4298.1521828105423992
 20
495.5477052226963792
 30
0.0
 40
0.4764400889468964
 50
195.7581440972396933
 51
226.2251593448310132
  0
ARC
  5
17506
  8
0
 10
4298.2558991016276195
 20
495.859894628517111
 30
0.0
 40
0.7985543333933866
 50
246.5815714102089089
 51
264.5662874277850278
  0
ARC
  5
17507
  8
0
 10
4298.1257055629648676
 20
495.536674110754177
 30
0.0
 40
0.4503037949197228
 50
227.6868578859613024
 51
245.4372861296793076
  0
LINE
  5
17508
  8
0
 10
4297.6024153238622603
 20
496.3665112791056231
 30
0.0
 11
4296.4148925302770294
 21
496.3665210089195057
 31
0.0
  0
ARC
  5
17509
  8
0
 10
4310.4036417799288756
 20
496.8751840441760805
 30
0.0
 40
12.8113288444960904
 50
182.2755223978394099
 51
185.1804347936374029
  0
ARC
  5
1750A
  8
0
 10
4156.5112774128629098
 20
489.6006792535695809
 30
0.0
 40
141.2532678560525881
 50
2.7454373958096681
 51
3.648785301425284
  0
ARC
  5
1750B
  8
0
 10
4300.4928602064755978
 20
503.9087857030111763
 30
0.0
 40
0.7260257833381054
 50
1.4173682694982539
 51
89.412604715545811
  0
ARC
  5
1750C
  8
0
 10
4298.4649771245012744
 20
502.0166406551409182
 30
0.0
 40
1.2564319694767321
 50
80.5386762436758943
 51
90.1010883198454451
  0
ARC
  5
1750D
  8
0
 10
4298.6222898127816734
 20
502.8734630980238194
 30
0.0
 40
0.3856719130466786
 50
53.3754264434264201
 51
82.6675564620637147
  0
ARC
  5
1750E
  8
0
 10
4298.6824647358580478
 20
502.9913302229189753
 30
0.0
 40
0.2561262486574114
 50
5.8494183363148213
 51
48.4430304090473385
  0
ARC
  5
1750F
  8
0
 10
4288.9815832449348818
 20
502.2491549796673098
 30
0.0
 40
9.9852741003891001
 50
2.103879928882467
 51
4.4127627218101351
  0
ARC
  5
17510
  8
0
 10
4286.1712723556947822
 20
502.1354241274598849
 30
0.0
 40
12.7978700980287794
 50
359.4335784363744892
 51
2.1508156487564412
  0
ARC
  5
17511
  8
0
 10
4297.8276119384572667
 20
501.9838609856412859
 30
0.0
 40
1.141180034591007
 50
348.8642585200682902
 51
1.257621088279528
  0
ARC
  5
17512
  8
0
 10
4298.7000648752646157
 20
501.8233159790482887
 30
0.0
 40
0.2543835955309339
 50
308.1061695987560256
 51
346.3908610188279908
  0
ARC
  5
17513
  8
0
 10
4300.4928602064755978
 20
497.0925086388008936
 30
0.0
 40
0.7260257833381021
 50
270.5873952844540895
 51
358.5826317305018165
  0
LINE
  5
17514
  8
0
 10
4301.2186638532512006
 20
503.9267441105059788
 30
0.0
 11
4301.2186638532512006
 21
497.0745502313060911
 31
0.0
  0
ARC
  5
17515
  8
0
 10
4298.4470159061402228
 20
498.6222452003095214
 30
0.0
 40
1.002057112358792
 50
55.6260427197917977
 51
89.099723373191523
  0
ARC
  5
17516
  8
0
 10
4298.4696982183713772
 20
498.6536870307315894
 30
0.0
 40
0.9633002002323241
 50
25.6227944033993396
 51
55.6837073732315133
  0
ARC
  5
17517
  8
0
 10
4298.453359042971897
 20
498.638101433249517
 30
0.0
 40
0.9847972832066995
 50
357.2048083626226003
 51
26.0293110940717511
  0
ARC
  5
17518
  8
0
 10
4298.4525607178538849
 20
498.6639881247203903
 30
0.0
 40
1.01380337088866
 50
343.2218386797428025
 51
89.4235398223315485
  0
ARC
  5
17519
  8
0
 10
4297.5611299533948113
 20
495.8435063795919859
 30
0.0
 40
1.713993029270154
 50
345.6366246565852975
 51
355.8147638280938168
  0
ARC
  5
1751A
  8
0
 10
4298.4688500747743092
 20
498.0120289887677245
 30
0.0
 40
2.9590861617961082
 50
269.6829831993770199
 51
275.1586932023868144
  0
ARC
  5
1751B
  8
0
 10
4298.7630129988910994
 20
495.5477052226963792
 30
0.0
 40
0.4764400889468964
 50
313.7748406551689868
 51
344.2418559027602214
  0
ARC
  5
1751C
  8
0
 10
4298.6592967078049696
 20
495.859894628517111
 30
0.0
 40
0.7985543333933866
 50
275.4337125722149722
 51
293.4184285897911195
  0
ARC
  5
1751D
  8
0
 10
4298.7894902464677216
 20
495.536674110754177
 30
0.0
 40
0.4503037949197228
 50
294.5627138703206924
 51
312.313142114038726
  0
LINE
  5
1751E
  8
0
 10
4299.3127804855703289
 20
496.3665112791056231
 30
0.0
 11
4300.5003032791555597
 21
496.3665210089195057
 31
0.0
  0
ARC
  5
1751F
  8
0
 10
4286.5115540295037135
 20
496.8751840441760805
 30
0.0
 40
12.8113288444960904
 50
354.8195652063624834
 51
357.7244776021605048
  0
ARC
  5
17520
  8
0
 10
4440.4039183965678603
 20
489.6006792535695809
 30
0.0
 40
141.2532678560525881
 50
176.3512146985746938
 51
177.254562604190312
  0
LINE
  5
17521
  8
0
 10
4296.4148925302770294
 20
504.6347733328926779
 30
0.0
 11
4300.5003032791555597
 21
504.6347733328926779
 31
0.0
  0
ARC
  5
17522
  8
0
 10
4298.4628599855523134
 20
502.4028448550060943
 30
0.0
 40
0.8662969537378055
 50
269.993411722763085
 51
280.5739419727236736
  0
CIRCLE
  5
17523
  8
0
 10
4298.4627556935511166
 20
502.4044840117060744
 30
0.0
 40
0.9145064820434502
  0
ARC
  5
17524
  8
0
 10
4298.464774926026621
 20
502.4175319162829965
 30
0.0
 40
0.8809863126326911
 50
260.2843722410108853
 51
269.868981491903412
  0
ARC
  5
17525
  8
0
 10
4298.2614423780860307
 20
501.8964706692706841
 30
0.0
 40
0.3332295877911771
 50
234.6038249704488123
 51
255.2280732589061074
  0
ARC
  5
17526
  8
0
 10
4298.4103077610307082
 20
502.4750548339599732
 30
0.0
 40
0.9306540222740778
 50
255.4483302113596039
 51
264.1902178751244037
  0
ARC
  5
17527
  8
0
 10
4298.4674936640576561
 20
503.0746966069311839
 30
0.0
 40
1.533009136509579
 50
264.3325134649679171
 51
269.8230942980700888
  0
ARC
  5
17528
  8
0
 10
4298.4673988406029821
 20
502.7921760952386876
 30
0.0
 40
1.2504899203988711
 50
269.7874710960281277
 51
277.0939031730213742
  0
ARC
  5
17529
  8
0
 10
4298.696670185309813
 20
501.8362111939526926
 30
0.0
 40
0.2666777763053785
 50
286.1114789366627065
 51
306.970240495242308
  0
ARC
  5
1752A
  8
0
 10
4298.4737868647671348
 20
502.7901689102548062
 30
0.0
 40
1.247724074033719
 50
276.8141906619308088
 51
281.2781452085520755
  0
ARC
  5
1752B
  8
0
 10
4298.6139504083830616
 20
502.0847130590836969
 30
0.0
 40
0.528479219049292
 50
281.3335005469836005
 51
287.2509879568135034
  0
ARC
  5
1752C
  8
0
 10
4298.4627556935511166
 20
502.4044840117060744
 30
0.0
 40
0.8660841997408084
 50
117.6839371563804946
 51
240.8674034049892896
  0
ARC
  5
1752D
  8
0
 10
4298.4627556935511166
 20
502.4044840117060744
 30
0.0
 40
0.8660841997408084
 50
299.1262287540519083
 51
62.4013748448499115
  0
ENDSEC
  0
EOF
