  0
SECTION
  2
HEADER
  9
$ACADVER
  1
AC1009
  9
$INSBASE
 10
4014.7223464944818261
 20
141.6236589368546959
 30
0.0
  9
$EXTMIN
 10
4011.9516772031820437
 20
141.2772152146606004
 30
0.0
  9
$EXTMAX
 10
4017.4930157857829727
 20
141.6284727093762967
 30
0.0
  9
$LIMMIN
 10
0.0
 20
0.0
  9
$LIMMAX
 10
11.6929133858000007
 20
8.2677165353999982
  9
$ORTHOMODE
 70
     0
  9
$REGENMODE
 70
     1
  9
$FILLMODE
 70
     1
  9
$QTEXTMODE
 70
     0
  9
$MIRRTEXT
 70
     0
  9
$DRAGMODE
 70
     2
  9
$LTSCALE
 40
0.6431102362
  9
$OSMODE
 70
  4095
  9
$ATTMODE
 70
     1
  9
$TEXTSIZE
 40
0.2
  9
$TRACEWID
 40
0.05
  9
$TEXTSTYLE
  7
STANDARD
  9
$CLAYER
  8
0
  9
$CELTYPE
  6
BYLAYER
  9
$CECOLOR
 62
   256
  9
$DIMSCALE
 40
1.0
  9
$DIMASZ
 40
0.1875
  9
$DIMEXO
 40
0.0625
  9
$DIMDLI
 40
0.4443307087
  9
$DIMRND
 40
0.0
  9
$DIMDLE
 40
0.0
  9
$DIMEXE
 40
0.125
  9
$DIMTP
 40
0.01
  9
$DIMTM
 40
0.01
  9
$DIMTXT
 40
2.0
  9
$DIMCEN
 40
0.1052362205
  9
$DIMTSZ
 40
0.0
  9
$DIMTOL
 70
     1
  9
$DIMLIM
 70
     0
  9
$DIMTIH
 70
     1
  9
$DIMTOH
 70
     1
  9
$DIMSE1
 70
     0
  9
$DIMSE2
 70
     0
  9
$DIMTAD
 70
     0
  9
$DIMZIN
 70
     0
  9
$DIMBLK
  1

  9
$DIMASO
 70
     1
  9
$DIMSHO
 70
     1
  9
$DIMPOST
  1
\X
  9
$DIMAPOST
  1

  9
$DIMALT
 70
     1
  9
$DIMALTD
 70
     2
  9
$DIMALTF
 40
25.3999999999999986
  9
$DIMLFAC
 40
1.0
  9
$DIMTOFL
 70
     0
  9
$DIMTVP
 40
0.0
  9
$DIMTIX
 70
     0
  9
$DIMSOXD
 70
     0
  9
$DIMSAH
 70
     0
  9
$DIMBLK1
  1

  9
$DIMBLK2
  1

  9
$DIMSTYLE
  2
STANDARD
  9
$DIMCLRD
 70
     0
  9
$DIMCLRE
 70
     0
  9
$DIMCLRT
 70
     0
  9
$DIMTFAC
 40
1.0
  9
$DIMGAP
 40
0.09
  9
$LUNITS
 70
     2
  9
$LUPREC
 70
     4
  9
$SKETCHINC
 40
0.1
  9
$FILLETRAD
 40
0.0
  9
$AUNITS
 70
     0
  9
$AUPREC
 70
     0
  9
$MENU
  1
.
  9
$ELEVATION
 40
0.0
  9
$PELEVATION
 40
0.0
  9
$THICKNESS
 40
0.0
  9
$LIMCHECK
 70
     0
  9
$BLIPMODE
 70
     0
  9
$CHAMFERA
 40
0.0
  9
$CHAMFERB
 40
0.0
  9
$SKPOLY
 70
     0
  9
$TDCREATE
 40
2458060.468368056230247
  9
$TDUPDATE
 40
2459090.6343634258955717
  9
$TDINDWG
 40
0.3692547454
  9
$TDUSRTIMER
 40
0.3692547454
  9
$USRTIMER
 70
     1
  9
$ANGBASE
 50
0.0
  9
$ANGDIR
 70
     0
  9
$PDMODE
 70
     0
  9
$PDSIZE
 40
0.3125
  9
$PLINEWID
 40
0.0
  9
$COORDS
 70
     1
  9
$SPLFRAME
 70
     0
  9
$SPLINETYPE
 70
     6
  9
$SPLINESEGS
 70
     8
  9
$ATTDIA
 70
     1
  9
$ATTREQ
 70
     1
  9
$HANDLING
 70
     1
  9
$HANDSEED
  5
12549
  9
$SURFTAB1
 70
     6
  9
$SURFTAB2
 70
     6
  9
$SURFTYPE
 70
     6
  9
$SURFU
 70
     6
  9
$SURFV
 70
     6
  9
$UCSNAME
  2

  9
$UCSORG
 10
0.0
 20
0.0
 30
0.0
  9
$UCSXDIR
 10
1.0
 20
0.0
 30
0.0
  9
$UCSYDIR
 10
0.0
 20
1.0
 30
0.0
  9
$PUCSNAME
  2

  9
$PUCSORG
 10
0.0
 20
0.0
 30
0.0
  9
$PUCSXDIR
 10
1.0
 20
0.0
 30
0.0
  9
$PUCSYDIR
 10
0.0
 20
1.0
 30
0.0
  9
$USERI1
 70
     0
  9
$USERI2
 70
     0
  9
$USERI3
 70
     0
  9
$USERI4
 70
     0
  9
$USERI5
 70
     0
  9
$USERR1
 40
0.0
  9
$USERR2
 40
0.0
  9
$USERR3
 40
0.0
  9
$USERR4
 40
0.0
  9
$USERR5
 40
0.0
  9
$WORLDVIEW
 70
     1
  9
$SHADEDGE
 70
     3
  9
$SHADEDIF
 70
    70
  9
$TILEMODE
 70
     1
  9
$MAXACTVP
 70
    64
  9
$PLIMCHECK
 70
     0
  9
$PEXTMIN
 10
1.0000000000000000E+20
 20
1.0000000000000000E+20
 30
1.0000000000000000E+20
  9
$PEXTMAX
 10
-1.0000000000000000E+20
 20
-1.0000000000000000E+20
 30
-1.0000000000000000E+20
  9
$PLIMMIN
 10
0.0
 20
0.0
  9
$PLIMMAX
 10
12.0
 20
9.0
  9
$UNITMODE
 70
     0
  9
$VISRETAIN
 70
     1
  9
$PLINEGEN
 70
     0
  9
$PSLTSCALE
 70
     1
  0
ENDSEC
  0
SECTION
  2
TABLES
  0
TABLE
  2
VPORT
 70
     1
  0
VPORT
  2
*ACTIVE
 70
     0
 10
0.0
 20
0.0
 11
1.0
 21
1.0
 12
106.1333888620245034
 22
8.3550989576349313
 13
0.0
 23
0.0
 14
1.0
 24
1.0
 15
0.0
 25
0.0
 16
0.0
 26
0.0
 36
60.4960186965801583
 17
3911.3653564453120453
 27
132.5796051025390057
 37
0.0
 40
5.8169796971881214
 41
2.5642633228840119
 42
50.0
 43
0.0
 44
0.0
 50
0.0
 51
0.0
 71
     0
 72
   100
 73
     1
 74
     1
 75
     0
 76
     0
 77
     0
 78
     0
  0
ENDTAB
  0
TABLE
  2
LTYPE
 70
     2
  0
LTYPE
  2
CONTINUOUS
 70
     0
  3
Solid line
 72
    65
 73
     0
 40
0.0
  0
LTYPE
  2
PHANTOM2
 70
     0
  3
___ _ _ ___ _ _ ___ _ _ ___ _ _
 72
    65
 73
     6
 40
1.25
 49
0.625
 49
-0.125
 49
0.125
 49
-0.125
 49
0.125
 49
-0.125
  0
ENDTAB
  0
TABLE
  2
LAYER
 70
     2
  0
LAYER
  2
0
 70
     0
 62
   255
  6
CONTINUOUS
  0
LAYER
  2
DEFPOINTS
 70
     0
 62
     7
  6
CONTINUOUS
  0
ENDTAB
  0
TABLE
  2
STYLE
 70
     1
  0
STYLE
  2
STANDARD
 70
     0
 40
0.0
 41
0.8
 50
0.0
 71
     0
 42
0.2
  3
txt
  4

  0
ENDTAB
  0
TABLE
  2
VIEW
 70
     0
  0
ENDTAB
  0
TABLE
  2
UCS
 70
     0
  0
ENDTAB
  0
TABLE
  2
APPID
 70
    10
  0
APPID
  2
ACAD
 70
     0
  0
APPID
  2
ACAD_MLEADERVER
 70
     0
  0
APPID
  2
ACAD_EXEMPT_FROM_CAD_STANDARDS
 70
     0
  0
APPID
  2
ACAD_NAV_VCDISPLAY
 70
     0
  0
APPID
  2
ACAECLAYERSTANDARD
 70
     0
  0
APPID
  2
ACCMTRANSPARENCY
 70
     0
  0
APPID
  2
ACAD_DSTYLE_DIMJAG
 70
     0
  0
APPID
  2
ACAD_DSTYLE_DIMTALN
 70
     0
  0
APPID
  2
ACDBATTR
 70
     0
  0
APPID
  2
ACADANNOTATIVE
 70
     0
  0
ENDTAB
  0
TABLE
  2
DIMSTYLE
 70
     1
  0
DIMSTYLE
  2
STANDARD
 70
     0
  3

  4

  5

  6

  7

 40
1.0
 41
0.1875
 42
0.0625
 43
0.38
 44
0.125
 45
0.0
 46
0.0
 47
0.01
 48
0.01
140
0.15625
141
0.09
142
0.0
143
25.3999999999999986
144
1.0
145
0.0
146
1.0
147
0.09
 71
     1
 72
     0
 73
     1
 74
     1
 75
     0
 76
     0
 77
     0
 78
     4
170
     0
171
     2
172
     0
173
     0
174
     0
175
     0
176
     0
177
     0
178
     0
  0
ENDTAB
  0
ENDSEC
  0
SECTION
  2
BLOCKS
  0
BLOCK
  8
0
  2
$MODEL_SPACE
 70
     0
 10
0.0
 20
0.0
 30
0.0
  3
$MODEL_SPACE
  1

  0
ENDBLK
  5
21
  8
0
  0
BLOCK
 67
     1
  8
0
  2
$PAPER_SPACE
 70
     0
 10
0.0
 20
0.0
 30
0.0
  3
$PAPER_SPACE
  1

  0
ENDBLK
  5
1D
 67
     1
  8
0
  0
ENDSEC
  0
SECTION
  2
ENTITIES
  0
LINE
  5
1219F
  8
0
 10
4012.9945926374830378
 20
141.3333046061547122
 30
0.0
 11
4012.9949964124830331
 21
141.2874868526546948
 31
0.0
  0
LINE
  5
121A0
  8
0
 10
4013.1430137372822173
 20
141.3333046061547122
 30
0.0
 11
4013.142609962383176
 21
141.2874868526546948
 31
0.0
  0
LINE
  5
121A1
  8
0
 10
4011.9713622424828827
 20
141.3333046061547122
 30
0.0
 11
4017.4733307464830432
 21
141.3333046061547122
 31
0.0
  0
LINE
  5
121A2
  8
0
 10
4017.4930157857829727
 20
141.6236589368546959
 30
0.0
 11
4011.9516772031829532
 21
141.6236589368546959
 31
0.0
  0
ARC
  5
121A3
  8
0
 10
4017.4733307465530743
 20
141.3529896452839978
 30
0.0
 40
0.0196850392292944
 50
269.9999997942168193
 51
0.000000496763355
  0
ARC
  5
121A4
  8
0
 10
4011.9713622424119421
 20
141.3529896452839978
 30
0.0
 40
0.0196850392292962
 50
179.9999995032366087
 51
270.0000002057831807
  0
ARC
  5
121A5
  8
0
 10
4012.9967594440308858
 20
141.2875378487022999
 30
0.0
 40
0.0017637689304854
 50
181.6568301543410939
 51
222.6375027251525012
  0
ARC
  5
121A6
  8
0
 10
4013.0004737185331578
 20
141.2909910910532858
 30
0.0
 40
0.0068353133646571
 50
222.8428614385786943
 51
244.8277726124086939
  0
ARC
  5
121A7
  8
0
 10
4013.0322182504291959
 20
141.3956820539933972
 30
0.0
 40
0.1165524022372224
 50
255.0407512065370952
 51
264.2482570249853211
  0
ARC
  5
121A8
  8
0
 10
4013.0088777099490471
 20
141.3078362378622899
 30
0.0
 40
0.0256590812931961
 50
243.8430619271775868
 51
254.7587446970053122
  0
ARC
  5
121A9
  8
0
 10
4013.1408464028249909
 20
141.2875381406321935
 30
0.0
 40
0.0017643051807079
 50
317.3656448359743081
 51
358.3341891672521911
  0
ARC
  5
121AA
  8
0
 10
4013.1371325884670114
 20
141.2909910910532858
 30
0.0
 40
0.0068353133646571
 50
295.1722273875914198
 51
317.1571385614213909
  0
ARC
  5
121AB
  8
0
 10
4013.1053880565727923
 20
141.3956820539933972
 30
0.0
 40
0.1165524022372224
 50
275.7517429750146789
 51
284.9592487934629048
  0
ARC
  5
121AC
  8
0
 10
4013.1287285970520315
 20
141.3078362378622899
 30
0.0
 40
0.0256590812931961
 50
285.2412553029946025
 51
296.1569380728222995
  0
ARC
  5
121AD
  8
0
 10
4013.0688031535000846
 20
141.7441513273057012
 30
0.0
 40
0.4669361126451081
 50
264.0669334768408021
 51
275.9330665231593116
  0
LINE
  5
121AE
  8
0
 10
4013.5457737398828613
 20
141.3333046061547122
 30
0.0
 11
4013.546177514881947
 21
141.2874868526546948
 31
0.0
  0
LINE
  5
121AF
  8
0
 10
4013.6941948396829503
 20
141.3333046061547122
 30
0.0
 11
4013.6937910647829995
 21
141.2874868526546948
 31
0.0
  0
ARC
  5
121B0
  8
0
 10
4013.5479405464320735
 20
141.2875378487022999
 30
0.0
 40
0.0017637689304854
 50
181.6568301543410939
 51
222.6375027251525012
  0
ARC
  5
121B1
  8
0
 10
4013.5516548209338907
 20
141.2909910910532858
 30
0.0
 40
0.0068353133646571
 50
222.8428614385786943
 51
244.8277726124086939
  0
ARC
  5
121B2
  8
0
 10
4013.5833993528272003
 20
141.3956820539933972
 30
0.0
 40
0.1165524022372224
 50
255.0407512065370952
 51
264.2482570249853211
  0
ARC
  5
121B3
  8
0
 10
4013.5600588123497801
 20
141.3078362378622899
 30
0.0
 40
0.0256590812931961
 50
243.8430619271775868
 51
254.7587446970053122
  0
ARC
  5
121B4
  8
0
 10
4013.6920275052239049
 20
141.2875381406321935
 30
0.0
 40
0.0017643051807079
 50
317.3656448359743081
 51
358.3341891672521911
  0
ARC
  5
121B5
  8
0
 10
4013.688313690868199
 20
141.2909910910532858
 30
0.0
 40
0.0068353133646571
 50
295.1722273875914198
 51
317.1571385614213909
  0
ARC
  5
121B6
  8
0
 10
4013.6565691589730704
 20
141.3956820539933972
 30
0.0
 40
0.1165524022372224
 50
275.7517429750146789
 51
284.9592487934629048
  0
ARC
  5
121B7
  8
0
 10
4013.6799096994509455
 20
141.3078362378622899
 30
0.0
 40
0.0256590812931961
 50
285.2412553029946025
 51
296.1569380728222995
  0
ARC
  5
121B8
  8
0
 10
4013.619984255899908
 20
141.7441513273057012
 30
0.0
 40
0.4669361126451081
 50
264.0669334768408021
 51
275.9330665231593116
  0
LINE
  5
121B9
  8
0
 10
4014.096954842183095
 20
141.3333046061547122
 30
0.0
 11
4014.0973586171821808
 21
141.2874868526546948
 31
0.0
  0
LINE
  5
121BA
  8
0
 10
4014.245375941983184
 20
141.3333046061547122
 30
0.0
 11
4014.2449721670827785
 21
141.2874868526546948
 31
0.0
  0
ARC
  5
121BB
  8
0
 10
4014.0991216487318525
 20
141.2875378487022999
 30
0.0
 40
0.0017637689304854
 50
181.6568301543410939
 51
222.6375027251525012
  0
ARC
  5
121BC
  8
0
 10
4014.102835923233215
 20
141.2909910910532858
 30
0.0
 40
0.0068353133646571
 50
222.8428614385786943
 51
244.8277726124086939
  0
ARC
  5
121BD
  8
0
 10
4014.1345804551278889
 20
141.3956820539933972
 30
0.0
 40
0.1165524022372224
 50
255.0407512065370952
 51
264.2482570249853211
  0
ARC
  5
121BE
  8
0
 10
4014.1112399146491043
 20
141.3078362378622899
 30
0.0
 40
0.0256590812931961
 50
243.8430619271775868
 51
254.7587446970053122
  0
ARC
  5
121BF
  8
0
 10
4014.2432086075250481
 20
141.2875381406321935
 30
0.0
 40
0.0017643051807079
 50
317.3656448359743081
 51
358.3341891672521911
  0
ARC
  5
121C0
  8
0
 10
4014.2394947931679781
 20
141.2909910910532858
 30
0.0
 40
0.0068353133646571
 50
295.1722273875914198
 51
317.1571385614213909
  0
ARC
  5
121C1
  8
0
 10
4014.2077502612728495
 20
141.3956820539933972
 30
0.0
 40
0.1165524022372224
 50
275.7517429750146789
 51
284.9592487934629048
  0
ARC
  5
121C2
  8
0
 10
4014.2310908017511792
 20
141.3078362378622899
 30
0.0
 40
0.0256590812931961
 50
285.2412553029946025
 51
296.1569380728222995
  0
ARC
  5
121C3
  8
0
 10
4014.1711653582010513
 20
141.7441513273057012
 30
0.0
 40
0.4669361126451081
 50
264.0669334768408021
 51
275.9330665231593116
  0
LINE
  5
121C4
  8
0
 10
4014.648135944582009
 20
141.3333046061547122
 30
0.0
 11
4014.6485397195829137
 21
141.2874868526546948
 31
0.0
  0
LINE
  5
121C5
  8
0
 10
4014.7965570443830075
 20
141.3333046061547122
 30
0.0
 11
4014.7961532694821472
 21
141.2874868526546948
 31
0.0
  0
ARC
  5
121C6
  8
0
 10
4014.6503027511321307
 20
141.2875378487022999
 30
0.0
 40
0.0017637689304854
 50
181.6568301543410939
 51
222.6375027251525012
  0
ARC
  5
121C7
  8
0
 10
4014.6540170256330384
 20
141.2909910910532858
 30
0.0
 40
0.0068353133646571
 50
222.8428614385786943
 51
244.8277726124086939
  0
ARC
  5
121C8
  8
0
 10
4014.6857615575290765
 20
141.3956820539933972
 30
0.0
 40
0.1165524022372224
 50
255.0407512065370952
 51
264.2482570249853211
  0
ARC
  5
121C9
  8
0
 10
4014.6624210170489278
 20
141.3078362378622899
 30
0.0
 40
0.0256590812931961
 50
243.8430619271775868
 51
254.7587446970053122
  0
ARC
  5
121CA
  8
0
 10
4014.7943897099239621
 20
141.2875381406321935
 30
0.0
 40
0.0017643051807079
 50
317.3656448359743081
 51
358.3341891672521911
  0
ARC
  5
121CB
  8
0
 10
4014.790675895566892
 20
141.2909910910532858
 30
0.0
 40
0.0068353133646571
 50
295.1722273875914198
 51
317.1571385614213909
  0
ARC
  5
121CC
  8
0
 10
4014.7589313636722181
 20
141.3956820539933972
 30
0.0
 40
0.1165524022372224
 50
275.7517429750146789
 51
284.9592487934629048
  0
ARC
  5
121CD
  8
0
 10
4014.7822719041510027
 20
141.3078362378622899
 30
0.0
 40
0.0256590812931961
 50
285.2412553029946025
 51
296.1569380728222995
  0
ARC
  5
121CE
  8
0
 10
4014.7223464605999652
 20
141.7441513273057012
 30
0.0
 40
0.4669361126451081
 50
264.0669334768408021
 51
275.9330665231593116
  0
LINE
  5
121CF
  8
0
 10
4015.199317046881788
 20
141.3333046061547122
 30
0.0
 11
4015.1997208218831474
 21
141.2874868526546948
 31
0.0
  0
LINE
  5
121D0
  8
0
 10
4015.347738146681877
 20
141.3333046061547122
 30
0.0
 11
4015.3473343717819262
 21
141.2874868526546948
 31
0.0
  0
ARC
  5
121D1
  8
0
 10
4015.2014838534319097
 20
141.2875378487022999
 30
0.0
 40
0.0017637689304854
 50
181.6568301543410939
 51
222.6375027251525012
  0
ARC
  5
121D2
  8
0
 10
4015.2051981279328174
 20
141.2909910910532858
 30
0.0
 40
0.0068353133646571
 50
222.8428614385786943
 51
244.8277726124086939
  0
ARC
  5
121D3
  8
0
 10
4015.236942659827946
 20
141.3956820539933972
 30
0.0
 40
0.1165524022372224
 50
255.0407512065370952
 51
264.2482570249853211
  0
ARC
  5
121D4
  8
0
 10
4015.213602119350071
 20
141.3078362378622899
 30
0.0
 40
0.0256590812931961
 50
243.8430619271775868
 51
254.7587446970053122
  0
ARC
  5
121D5
  8
0
 10
4015.3455708122241958
 20
141.2875381406321935
 30
0.0
 40
0.0017643051807079
 50
317.3656448359743081
 51
358.3341891672521911
  0
ARC
  5
121D6
  8
0
 10
4015.3418569978671258
 20
141.2909910910532858
 30
0.0
 40
0.0068353133646571
 50
295.1722273875914198
 51
317.1571385614213909
  0
ARC
  5
121D7
  8
0
 10
4015.3101124659719972
 20
141.3956820539933972
 30
0.0
 40
0.1165524022372224
 50
275.7517429750146789
 51
284.9592487934629048
  0
ARC
  5
121D8
  8
0
 10
4015.3334530064507817
 20
141.3078362378622899
 30
0.0
 40
0.0256590812931961
 50
285.2412553029946025
 51
296.1569380728222995
  0
ARC
  5
121D9
  8
0
 10
4015.273527562900199
 20
141.7441513273057012
 30
0.0
 40
0.4669361126451081
 50
264.0669334768408021
 51
275.9330665231593116
  0
LINE
  5
121DA
  8
0
 10
4015.7504981492829756
 20
141.3333046061547122
 30
0.0
 11
4015.7509019242829709
 21
141.2874868526546948
 31
0.0
  0
LINE
  5
121DB
  8
0
 10
4015.8989192490830646
 20
141.3333046061547122
 30
0.0
 11
4015.8985154741831138
 21
141.2874868526546948
 31
0.0
  0
ARC
  5
121DC
  8
0
 10
4015.7526649558321878
 20
141.2875378487022999
 30
0.0
 40
0.0017637689304854
 50
181.6568301543410939
 51
222.6375027251525012
  0
ARC
  5
121DD
  8
0
 10
4015.7563792303330956
 20
141.2909910910532858
 30
0.0
 40
0.0068353133646571
 50
222.8428614385786943
 51
244.8277726124086939
  0
ARC
  5
121DE
  8
0
 10
4015.7881237622282242
 20
141.3956820539933972
 30
0.0
 40
0.1165524022372224
 50
255.0407512065370952
 51
264.2482570249853211
  0
ARC
  5
121DF
  8
0
 10
4015.7647832217489849
 20
141.3078362378622899
 30
0.0
 40
0.0256590812931961
 50
243.8430619271775868
 51
254.7587446970053122
  0
ARC
  5
121E0
  8
0
 10
4015.8967519146249288
 20
141.2875381406321935
 30
0.0
 40
0.0017643051807079
 50
317.3656448359743081
 51
358.3341891672521911
  0
ARC
  5
121E1
  8
0
 10
4015.8930381002669492
 20
141.2909910910532858
 30
0.0
 40
0.0068353133646571
 50
295.1722273875914198
 51
317.1571385614213909
  0
ARC
  5
121E2
  8
0
 10
4015.8612935683731848
 20
141.3956820539933972
 30
0.0
 40
0.1165524022372224
 50
275.7517429750146789
 51
284.9592487934629048
  0
ARC
  5
121E3
  8
0
 10
4015.8846341088510599
 20
141.3078362378622899
 30
0.0
 40
0.0256590812931961
 50
285.2412553029946025
 51
296.1569380728222995
  0
ARC
  5
121E4
  8
0
 10
4015.8247086653000224
 20
141.7441513273057012
 30
0.0
 40
0.4669361126451081
 50
264.0669334768408021
 51
275.9330665231593116
  0
LINE
  5
121E5
  8
0
 10
4016.3016792516818896
 20
141.3333046061547122
 30
0.0
 11
4016.3020830266818848
 21
141.2874868526546948
 31
0.0
  0
LINE
  5
121E6
  8
0
 10
4016.4501003514828881
 20
141.3333046061547122
 30
0.0
 11
4016.4496965765820278
 21
141.2874868526546948
 31
0.0
  0
ARC
  5
121E7
  8
0
 10
4016.3038460582320113
 20
141.2875378487022999
 30
0.0
 40
0.0017637689304854
 50
181.6568301543410939
 51
222.6375027251525012
  0
ARC
  5
121E8
  8
0
 10
4016.3075603327329191
 20
141.2909910910532858
 30
0.0
 40
0.0068353133646571
 50
222.8428614385786943
 51
244.8277726124086939
  0
ARC
  5
121E9
  8
0
 10
4016.3393048646280477
 20
141.3956820539933972
 30
0.0
 40
0.1165524022372224
 50
255.0407512065370952
 51
264.2482570249853211
  0
ARC
  5
121EA
  8
0
 10
4016.3159643241488084
 20
141.3078362378622899
 30
0.0
 40
0.0256590812931961
 50
243.8430619271775868
 51
254.7587446970053122
  0
ARC
  5
121EB
  8
0
 10
4016.4479330170252069
 20
141.2875381406321935
 30
0.0
 40
0.0017643051807079
 50
317.3656448359743081
 51
358.3341891672521911
  0
ARC
  5
121EC
  8
0
 10
4016.4442192026672274
 20
141.2909910910532858
 30
0.0
 40
0.0068353133646571
 50
295.1722273875914198
 51
317.1571385614213909
  0
ARC
  5
121ED
  8
0
 10
4016.4124746707720988
 20
141.3956820539933972
 30
0.0
 40
0.1165524022372224
 50
275.7517429750146789
 51
284.9592487934629048
  0
ARC
  5
121EE
  8
0
 10
4016.4358152112508833
 20
141.3078362378622899
 30
0.0
 40
0.0256590812931961
 50
285.2412553029946025
 51
296.1569380728222995
  0
ARC
  5
121EF
  8
0
 10
4016.3758897676998458
 20
141.7441513273057012
 30
0.0
 40
0.4669361126451081
 50
264.0669334768408021
 51
275.9330665231593116
  0
LINE
  5
121F1
  8
0
 10
4011.9516772031829532
 20
141.6236589368546959
 30
0.0
 11
4011.9516772031829532
 21
141.3529896454546986
 31
0.0
  0
LINE
  5
121F2
  8
0
 10
4017.4930157857829727
 20
141.6236589368546959
 30
0.0
 11
4017.4930157857829727
 21
141.3529896454546986
 31
0.0
  0
ATTDEF
  5
121F3
  8
DEFPOINTS
 10
4014.7156043872969349
 20
141.6274727093762067
 30
0.0
 40
0.001
  1
K22958T
  3

  2
MODELNUMBER
 70
     0
1001
ACDBATTR
1070
     0
1070
     1
  0
ATTDEF
  5
121F4
  8
DEFPOINTS
 10
4014.7156043872969349
 20
141.6258060427095984
 30
0.0
 40
0.001
  1
BEITOU
  3

  2
TRADENAME
 70
     0
1001
ACDBATTR
1070
     0
1070
     1
  0
ATTDEF
  5
121F5
  8
DEFPOINTS
 10
4014.7156043872969349
 20
141.6241393760429048
 30
0.0
 40
0.001
  1
BODY SPRAY
  3

  2
PRODUCT
 70
     0
1001
ACDBATTR
1070
     0
1070
     1
  0
ENDSEC
  0
EOF
