  0
SECTION
  2
HEADER
  9
$ACADVER
  1
AC1009
  9
$INSBASE
 10
4142.6149765725604084
 20
256.4152098098858232
 30
0.0
  9
$EXTMIN
 10
4126.6006721466828822
 20
247.1510092555022879
 30
-0.0015258207003583
  9
$EXTMAX
 10
4172.1172196499628626
 20
265.6822447277510264
 30
0.0000000349246037
  9
$LIMMIN
 10
0.0
 20
0.0
  9
$LIMMAX
 10
11.6929133858000007
 20
8.2677165353999982
  9
$ORTHOMODE
 70
     0
  9
$REGENMODE
 70
     1
  9
$FILLMODE
 70
     1
  9
$QTEXTMODE
 70
     0
  9
$MIRRTEXT
 70
     0
  9
$DRAGMODE
 70
     2
  9
$LTSCALE
 40
0.6431102362
  9
$OSMODE
 70
  4095
  9
$ATTMODE
 70
     1
  9
$TEXTSIZE
 40
0.2
  9
$TRACEWID
 40
0.05
  9
$TEXTSTYLE
  7
STANDARD
  9
$CLAYER
  8
0
  9
$CELTYPE
  6
BYLAYER
  9
$CECOLOR
 62
   256
  9
$DIMSCALE
 40
1.0
  9
$DIMASZ
 40
0.1875
  9
$DIMEXO
 40
0.0625
  9
$DIMDLI
 40
0.4443307087
  9
$DIMRND
 40
0.0
  9
$DIMDLE
 40
0.0
  9
$DIMEXE
 40
0.125
  9
$DIMTP
 40
0.01
  9
$DIMTM
 40
0.01
  9
$DIMTXT
 40
2.0
  9
$DIMCEN
 40
0.1052362205
  9
$DIMTSZ
 40
0.0
  9
$DIMTOL
 70
     1
  9
$DIMLIM
 70
     0
  9
$DIMTIH
 70
     1
  9
$DIMTOH
 70
     1
  9
$DIMSE1
 70
     0
  9
$DIMSE2
 70
     0
  9
$DIMTAD
 70
     0
  9
$DIMZIN
 70
     0
  9
$DIMBLK
  1

  9
$DIMASO
 70
     1
  9
$DIMSHO
 70
     1
  9
$DIMPOST
  1
\X
  9
$DIMAPOST
  1

  9
$DIMALT
 70
     1
  9
$DIMALTD
 70
     2
  9
$DIMALTF
 40
25.3999999999999986
  9
$DIMLFAC
 40
1.0
  9
$DIMTOFL
 70
     0
  9
$DIMTVP
 40
0.0
  9
$DIMTIX
 70
     0
  9
$DIMSOXD
 70
     0
  9
$DIMSAH
 70
     0
  9
$DIMBLK1
  1

  9
$DIMBLK2
  1

  9
$DIMSTYLE
  2
STANDARD
  9
$DIMCLRD
 70
     0
  9
$DIMCLRE
 70
     0
  9
$DIMCLRT
 70
     0
  9
$DIMTFAC
 40
1.0
  9
$DIMGAP
 40
0.09
  9
$LUNITS
 70
     2
  9
$LUPREC
 70
     4
  9
$SKETCHINC
 40
0.1
  9
$FILLETRAD
 40
0.0
  9
$AUNITS
 70
     0
  9
$AUPREC
 70
     0
  9
$MENU
  1
.
  9
$ELEVATION
 40
0.0
  9
$PELEVATION
 40
0.0
  9
$THICKNESS
 40
0.0
  9
$LIMCHECK
 70
     0
  9
$BLIPMODE
 70
     0
  9
$CHAMFERA
 40
0.0
  9
$CHAMFERB
 40
0.0
  9
$SKPOLY
 70
     0
  9
$TDCREATE
 40
2458060.468368056230247
  9
$TDUPDATE
 40
2459166.7363425930961967
  9
$TDINDWG
 40
0.4608056713
  9
$TDUSRTIMER
 40
0.4608056713
  9
$USRTIMER
 70
     1
  9
$ANGBASE
 50
0.0
  9
$ANGDIR
 70
     0
  9
$PDMODE
 70
     0
  9
$PDSIZE
 40
0.3125
  9
$PLINEWID
 40
0.0
  9
$COORDS
 70
     1
  9
$SPLFRAME
 70
     0
  9
$SPLINETYPE
 70
     6
  9
$SPLINESEGS
 70
     8
  9
$ATTDIA
 70
     1
  9
$ATTREQ
 70
     1
  9
$HANDLING
 70
     1
  9
$HANDSEED
  5
18FA3
  9
$SURFTAB1
 70
     6
  9
$SURFTAB2
 70
     6
  9
$SURFTYPE
 70
     6
  9
$SURFU
 70
     6
  9
$SURFV
 70
     6
  9
$UCSNAME
  2

  9
$UCSORG
 10
0.0
 20
0.0
 30
0.0
  9
$UCSXDIR
 10
1.0
 20
0.0
 30
0.0
  9
$UCSYDIR
 10
0.0
 20
1.0
 30
0.0
  9
$PUCSNAME
  2

  9
$PUCSORG
 10
0.0
 20
0.0
 30
0.0
  9
$PUCSXDIR
 10
1.0
 20
0.0
 30
0.0
  9
$PUCSYDIR
 10
0.0
 20
1.0
 30
0.0
  9
$USERI1
 70
     0
  9
$USERI2
 70
     0
  9
$USERI3
 70
     0
  9
$USERI4
 70
     0
  9
$USERI5
 70
     0
  9
$USERR1
 40
0.0
  9
$USERR2
 40
0.0
  9
$USERR3
 40
0.0
  9
$USERR4
 40
0.0
  9
$USERR5
 40
0.0
  9
$WORLDVIEW
 70
     1
  9
$SHADEDGE
 70
     3
  9
$SHADEDIF
 70
    70
  9
$TILEMODE
 70
     1
  9
$MAXACTVP
 70
    64
  9
$PLIMCHECK
 70
     0
  9
$PEXTMIN
 10
1.0000000000000000E+20
 20
1.0000000000000000E+20
 30
1.0000000000000000E+20
  9
$PEXTMAX
 10
-1.0000000000000000E+20
 20
-1.0000000000000000E+20
 30
-1.0000000000000000E+20
  9
$PLIMMIN
 10
0.0
 20
0.0
  9
$PLIMMAX
 10
12.0
 20
9.0
  9
$UNITMODE
 70
     0
  9
$VISRETAIN
 70
     1
  9
$PLINEGEN
 70
     0
  9
$PSLTSCALE
 70
     1
  0
ENDSEC
  0
SECTION
  2
TABLES
  0
TABLE
  2
VPORT
 70
     1
  0
VPORT
  2
*ACTIVE
 70
     0
 10
0.0
 20
0.0
 11
1.0
 21
1.0
 12
237.9935891358659887
 22
123.8370216405811988
 13
0.0
 23
0.0
 14
1.0
 24
1.0
 15
0.0
 25
0.0
 16
0.0
 26
0.0
 36
60.4960186965801583
 17
3911.3653564453120453
 27
132.5796051025390057
 37
0.0
 40
31.0895893238773304
 41
1.8614190687361409
 42
50.0
 43
0.0
 44
0.0
 50
0.0
 51
0.0
 71
     0
 72
   100
 73
     1
 74
     1
 75
     0
 76
     0
 77
     0
 78
     0
  0
ENDTAB
  0
TABLE
  2
LTYPE
 70
     2
  0
LTYPE
  2
CONTINUOUS
 70
     0
  3
Solid line
 72
    65
 73
     0
 40
0.0
  0
LTYPE
  2
PHANTOM2
 70
     0
  3
___ _ _ ___ _ _ ___ _ _ ___ _ _
 72
    65
 73
     6
 40
1.25
 49
0.625
 49
-0.125
 49
0.125
 49
-0.125
 49
0.125
 49
-0.125
  0
ENDTAB
  0
TABLE
  2
LAYER
 70
     2
  0
LAYER
  2
0
 70
     0
 62
   255
  6
CONTINUOUS
  0
LAYER
  2
DEFPOINTS
 70
     0
 62
     7
  6
CONTINUOUS
  0
ENDTAB
  0
TABLE
  2
STYLE
 70
     1
  0
STYLE
  2
STANDARD
 70
     0
 40
0.0
 41
0.8
 50
0.0
 71
     0
 42
0.2
  3
txt
  4

  0
ENDTAB
  0
TABLE
  2
VIEW
 70
     0
  0
ENDTAB
  0
TABLE
  2
UCS
 70
     0
  0
ENDTAB
  0
TABLE
  2
APPID
 70
    11
  0
APPID
  2
ACAD
 70
     0
  0
APPID
  2
ACAD_MLEADERVER
 70
     0
  0
APPID
  2
ACAD_EXEMPT_FROM_CAD_STANDARDS
 70
     0
  0
APPID
  2
ACAD_NAV_VCDISPLAY
 70
     0
  0
APPID
  2
ACAECLAYERSTANDARD
 70
     0
  0
APPID
  2
ACCMTRANSPARENCY
 70
     0
  0
APPID
  2
ACAD_DSTYLE_DIMJAG
 70
     0
  0
APPID
  2
ACAD_DSTYLE_DIMTALN
 70
     0
  0
APPID
  2
ACDBATTR
 70
     0
  0
APPID
  2
ACADANNOTATIVE
 70
     0
  0
APPID
  2
DCO15
 70
     0
  0
ENDTAB
  0
TABLE
  2
DIMSTYLE
 70
     1
  0
DIMSTYLE
  2
STANDARD
 70
     0
  3

  4

  5

  6

  7

 40
1.0
 41
0.1875
 42
0.0625
 43
0.38
 44
0.125
 45
0.0
 46
0.0
 47
0.01
 48
0.01
140
0.15625
141
0.09
142
0.0
143
25.3999999999999986
144
1.0
145
0.0
146
1.0
147
0.09
 71
     1
 72
     0
 73
     1
 74
     1
 75
     0
 76
     0
 77
     0
 78
     4
170
     0
171
     2
172
     0
173
     0
174
     0
175
     0
176
     0
177
     0
178
     0
  0
ENDTAB
  0
ENDSEC
  0
SECTION
  2
BLOCKS
  0
BLOCK
  8
0
  2
$MODEL_SPACE
 70
     0
 10
0.0
 20
0.0
 30
0.0
  3
$MODEL_SPACE
  1

  0
ENDBLK
  5
21
  8
0
  0
BLOCK
 67
     1
  8
0
  2
$PAPER_SPACE
 70
     0
 10
0.0
 20
0.0
 30
0.0
  3
$PAPER_SPACE
  1

  0
ENDBLK
  5
1D
 67
     1
  8
0
  0
ENDSEC
  0
SECTION
  2
ENTITIES
  0
LINE
  5
18BFE
  8
0
 10
4126.6700946828095766
 20
247.556942093335806
 30
0.0
 11
4126.6700946828095766
 21
265.273477526335796
 31
0.0
  0
LINE
  5
18BFF
  8
0
 10
4127.3255669231111824
 20
262.6553672901358141
 30
0.0
 11
4127.3255669231111824
 21
250.175052329535788
 31
0.0
  0
LINE
  5
18C00
  8
0
 10
4127.719267710510394
 20
262.6553672901358141
 30
0.0
 11
4127.719267710510394
 21
250.175052329535788
 31
0.0
  0
LINE
  5
18C01
  8
0
 10
4135.3118269662109014
 20
264.5249925039357777
 30
0.0
 11
4135.3118269662109014
 21
264.5823064141358145
 31
0.0
  0
LINE
  5
18C02
  8
0
 10
4137.3197009820096355
 20
264.5249925039357777
 30
0.0
 11
4137.3197009820096355
 21
264.5823064141358145
 31
0.0
  0
LINE
  5
18C03
  8
0
 10
4158.1661576749102096
 20
247.1632413059357987
 30
0.0
 11
4127.0637954702106072
 21
247.1632413059357987
 31
0.0
  0
LINE
  5
18C04
  8
0
 10
4170.6906783103104317
 20
247.3600916996358023
 30
0.0
 11
4162.9251016064099531
 21
247.3600916996358023
 31
0.0
  0
LINE
  5
18C05
  8
0
 10
4170.6906783103104317
 20
247.525446030335786
 30
0.0
 11
4162.9251016064099531
 21
247.525446030335786
 31
0.0
  0
LINE
  5
18C06
  8
0
 10
4129.6819057064103617
 20
247.8187135462358128
 30
0.0
 11
4155.5480474387095455
 21
247.8187135462358128
 31
0.0
  0
LINE
  5
18C07
  8
0
 10
4129.6819057064103617
 20
248.2124143336357918
 30
0.0
 11
4142.9496222418101752
 21
248.2124143336357918
 31
0.0
  0
LINE
  5
18C08
  8
0
 10
4148.0677324780099298
 20
248.2124143336357918
 30
0.0
 11
4155.5480474387095455
 21
248.2124143336357918
 31
0.0
  0
LINE
  5
18C09
  8
0
 10
4170.5874175174103584
 20
250.0766271326357923
 30
0.0
 11
4163.0283623993109359
 21
250.0766271326357923
 31
0.0
  0
LINE
  5
18C0A
  8
0
 10
4170.5874175174103584
 20
250.273477526335796
 30
0.0
 11
4170.2529057336278129
 21
250.273477526335796
 31
0.0
  0
LINE
  5
18C0B
  8
0
 10
4170.2526486475780985
 20
250.273477526335796
 30
0.0
 11
4168.5304647887278406
 21
250.273477526335796
 31
0.0
  0
LINE
  5
18C0C
  8
0
 10
4168.5302077026790357
 20
250.273477526335796
 30
0.0
 11
4166.8080238438333254
 21
250.273477526335796
 31
0.0
  0
LINE
  5
18C0D
  8
0
 10
4166.807766757772697
 20
250.273477526335796
 30
0.0
 11
4165.0855828989342626
 21
250.273477526335796
 31
0.0
  0
LINE
  5
18C0E
  8
0
 10
4165.0853258128727248
 20
250.273477526335796
 30
0.0
 11
4163.0283623993109359
 21
250.273477526335796
 31
0.0
  0
LINE
  5
18C0F
  8
0
 10
4161.6258890080107449
 20
251.415209809835801
 30
0.0
 11
4161.6509721879338031
 21
251.415209809835801
 31
0.0
  0
LINE
  5
18C10
  8
0
 10
4161.8479163874580991
 20
251.415209809835801
 30
0.0
 11
4161.862109480410254
 21
251.415209809835801
 31
0.0
  0
LINE
  5
18C11
  8
0
 10
4171.7536704363101308
 20
251.415209809835801
 30
0.0
 11
4171.7678635292622857
 21
251.415209809835801
 31
0.0
  0
LINE
  5
18C12
  8
0
 10
4171.9648077287856722
 20
251.415209809835801
 30
0.0
 11
4171.9898909087105494
 21
251.415209809835801
 31
0.0
  0
LINE
  5
18C13
  8
0
 10
4161.9023781474097632
 20
251.6356822507358117
 30
0.0
 11
4171.7135360343099819
 21
251.6356822507358117
 31
0.0
  0
LINE
  5
18C14
  8
0
 10
4144.912260237710143
 20
250.175052329535788
 30
0.0
 11
4144.912260237710143
 21
262.6553672901358141
 31
0.0
  0
LINE
  5
18C15
  8
0
 10
4146.1050944821108715
 20
260.056942093335806
 30
0.0
 11
4146.1050944821108715
 21
250.175052329535788
 31
0.0
  0
LINE
  5
18C16
  8
0
 10
4161.9023781474097632
 20
251.7459184712357967
 30
0.0
 11
4171.7135360343099819
 21
251.7459184712357967
 31
0.0
  0
LINE
  5
18C17
  8
0
 10
4161.902378147359741
 20
252.423083825535798
 30
0.0
 11
4171.7135360343099819
 21
252.423083825535798
 31
0.0
  0
LINE
  5
18C18
  8
0
 10
4161.902378147359741
 20
252.5333200460358114
 30
0.0
 11
4171.7135360343099819
 21
252.5333200460358114
 31
0.0
  0
LINE
  5
18C19
  8
0
 10
4171.9898909087105494
 20
252.990012959435802
 30
0.0
 11
4171.9653702733103273
 21
252.990012959435802
 31
0.0
  0
LINE
  5
18C1A
  8
0
 10
4171.7685198796107215
 20
252.990012959435802
 30
0.0
 11
4171.7536704363101308
 21
252.990012959435802
 31
0.0
  0
LINE
  5
18C1B
  8
0
 10
4161.862109480410254
 20
252.990012959435802
 30
0.0
 11
4161.8472600371096632
 21
252.990012959435802
 31
0.0
  0
LINE
  5
18C1C
  8
0
 10
4161.650409643410967
 20
252.990012959435802
 30
0.0
 11
4161.6258890080107449
 21
252.990012959435802
 31
0.0
  0
LINE
  5
18C1D
  8
0
 10
4161.902378147359741
 20
253.2104854003358128
 30
0.0
 11
4171.7135360343099819
 21
253.2104854003358128
 31
0.0
  0
LINE
  5
18C1E
  8
0
 10
4161.902378147359741
 20
253.3207216208357977
 30
0.0
 11
4171.7135360343099819
 21
253.3207216208357977
 31
0.0
  0
LINE
  5
18C1F
  8
0
 10
4161.9022438824104029
 20
253.997886975135799
 30
0.0
 11
4171.7135360343099819
 21
253.997886975135799
 31
0.0
  0
LINE
  5
18C20
  8
0
 10
4161.9022438824104029
 20
254.1081231956358124
 30
0.0
 11
4171.7135360343099819
 21
254.1081231956358124
 31
0.0
  0
LINE
  5
18C21
  8
0
 10
4161.9022438824104029
 20
254.7852885499358138
 30
0.0
 11
4171.7135360343099819
 21
254.7852885499358138
 31
0.0
  0
LINE
  5
18C22
  8
0
 10
4161.9022438824104029
 20
254.8955247704357987
 30
0.0
 11
4171.7135360343099819
 21
254.8955247704357987
 31
0.0
  0
LINE
  5
18C23
  8
0
 10
4148.4590450697096458
 20
264.2046194592358006
 30
0.0
 11
4148.4590450697096458
 21
262.8266667033357749
 31
0.0
  0
LINE
  5
18C24
  8
0
 10
4148.7394120123099128
 20
262.8266667033357749
 30
0.0
 11
4148.7394120123099128
 21
264.2046194592358006
 31
0.0
  0
LINE
  5
18C25
  8
0
 10
4149.1283364083101333
 20
264.2046194592358006
 30
0.0
 11
4149.1283364083101333
 21
262.8266667033357749
 31
0.0
  0
LINE
  5
18C26
  8
0
 10
4149.4087033509104003
 20
262.8266667033357749
 30
0.0
 11
4149.4087033509104003
 21
264.2046194592358006
 31
0.0
  0
LINE
  5
18C27
  8
0
 10
4161.9022438824104029
 20
255.5726901247358001
 30
0.0
 11
4171.7135360343099819
 21
255.5726901247358001
 31
0.0
  0
LINE
  5
18C28
  8
0
 10
4161.9022438824104029
 20
255.6829263452358134
 30
0.0
 11
4171.7135360343099819
 21
255.6829263452358134
 31
0.0
  0
LINE
  5
18C29
  8
0
 10
4161.9022438824104029
 20
256.3600916996358023
 30
0.0
 11
4171.7135360343099819
 21
256.3600916996358023
 31
0.0
  0
LINE
  5
18C2A
  8
0
 10
4161.9022438824104029
 20
256.4703279200357997
 30
0.0
 11
4171.7135360343099819
 21
256.4703279200357997
 31
0.0
  0
LINE
  5
18C2B
  8
0
 10
4149.7976277469097113
 20
264.2046194592358006
 30
0.0
 11
4149.7976277469097113
 21
262.8266667033357749
 31
0.0
  0
LINE
  5
18C2C
  8
0
 10
4150.0779946895099783
 20
262.8266667033357749
 30
0.0
 11
4150.0779946895099783
 21
264.2046194592358006
 31
0.0
  0
LINE
  5
18C2D
  8
0
 10
4150.4669190854101544
 20
264.2046194592358006
 30
0.0
 11
4150.4669190854101544
 21
262.8266667033357749
 31
0.0
  0
LINE
  5
18C2E
  8
0
 10
4150.7472860281095564
 20
262.8266667033357749
 30
0.0
 11
4150.7472860281095564
 21
264.2046194592358006
 31
0.0
  0
LINE
  5
18C2F
  8
0
 10
4151.1362104240097324
 20
264.2046194592358006
 30
0.0
 11
4151.1362104240097324
 21
262.8266667033357749
 31
0.0
  0
LINE
  5
18C30
  8
0
 10
4161.9022438824104029
 20
257.1474932744358171
 30
0.0
 11
4171.7135360343099819
 21
257.1474932744358171
 31
0.0
  0
LINE
  5
18C31
  8
0
 10
4161.9022438824104029
 20
257.2577294948358144
 30
0.0
 11
4171.7135360343099819
 21
257.2577294948358144
 31
0.0
  0
LINE
  5
18C32
  8
0
 10
4161.9022438824104029
 20
257.9348948492357749
 30
0.0
 11
4171.7135360343099819
 21
257.9348948492357749
 31
0.0
  0
LINE
  5
18C33
  8
0
 10
4161.9022438824104029
 20
258.0451310696357723
 30
0.0
 11
4171.7135360343099819
 21
258.0451310696357723
 31
0.0
  0
LINE
  5
18C34
  8
0
 10
4151.4165773667109534
 20
262.8266667033357749
 30
0.0
 11
4151.4165773667109534
 21
264.2046194592358006
 31
0.0
  0
LINE
  5
18C35
  8
0
 10
4151.8055017626102199
 20
264.2046194592358006
 30
0.0
 11
4151.8055017626102199
 21
262.8266667033357749
 31
0.0
  0
LINE
  5
18C36
  8
0
 10
4152.0858687053096219
 20
262.8266667033357749
 30
0.0
 11
4152.0858687053096219
 21
264.2046194592358006
 31
0.0
  0
LINE
  5
18C37
  8
0
 10
4152.4747931012107074
 20
264.2046194592358006
 30
0.0
 11
4152.4747931012107074
 21
262.8266667033357749
 31
0.0
  0
LINE
  5
18C38
  8
0
 10
4152.7551600438109745
 20
262.8266667033357749
 30
0.0
 11
4152.7551600438109745
 21
264.2046194592358006
 31
0.0
  0
LINE
  5
18C39
  8
0
 10
4161.9022438824104029
 20
258.7222964240357896
 30
0.0
 11
4171.7135360343099819
 21
258.7222964240357896
 31
0.0
  0
LINE
  5
18C3A
  8
0
 10
4161.9022438824104029
 20
258.832532644435787
 30
0.0
 11
4171.7135360343099819
 21
258.832532644435787
 31
0.0
  0
LINE
  5
18C3B
  8
0
 10
4161.9022438824104029
 20
259.5096979988358044
 30
0.0
 11
4171.7135360343099819
 21
259.5096979988358044
 31
0.0
  0
LINE
  5
18C3C
  8
0
 10
4161.9022438824104029
 20
259.6199342192358017
 30
0.0
 11
4171.7135360343099819
 21
259.6199342192358017
 31
0.0
  0
LINE
  5
18C3D
  8
0
 10
4161.6258890080107449
 20
259.8404066602357716
 30
0.0
 11
4161.650409643410967
 21
259.8404066602357716
 31
0.0
  0
LINE
  5
18C3E
  8
0
 10
4161.8472600371096632
 20
259.8404066602357716
 30
0.0
 11
4161.862109480410254
 21
259.8404066602357716
 31
0.0
  0
LINE
  5
18C3F
  8
0
 10
4171.7536704363101308
 20
259.8404066602357716
 30
0.0
 11
4171.7685198796107215
 21
259.8404066602357716
 31
0.0
  0
LINE
  5
18C40
  8
0
 10
4171.9653702733103273
 20
259.8404066602357716
 30
0.0
 11
4171.9898909087105494
 21
259.8404066602357716
 31
0.0
  0
LINE
  5
18C41
  8
0
 10
4153.1440844398102854
 20
264.2046194592358006
 30
0.0
 11
4153.1440844398102854
 21
262.8266667033357749
 31
0.0
  0
LINE
  5
18C42
  8
0
 10
4153.424451382409643
 20
262.8266667033357749
 30
0.0
 11
4153.424451382409643
 21
264.2046194592358006
 31
0.0
  0
LINE
  5
18C43
  8
0
 10
4153.8133757783107285
 20
264.2046194592358006
 30
0.0
 11
4153.8133757783107285
 21
262.8266667033357749
 31
0.0
  0
LINE
  5
18C44
  8
0
 10
4154.0937427210101305
 20
262.8266667033357749
 30
0.0
 11
4154.0937427210101305
 21
264.2046194592358006
 31
0.0
  0
LINE
  5
18C45
  8
0
 10
4161.9022438824104029
 20
260.2970995736358191
 30
0.0
 11
4171.7135360343099819
 21
260.2970995736358191
 31
0.0
  0
LINE
  5
18C46
  8
0
 10
4161.9022438824104029
 20
260.4073357940358164
 30
0.0
 11
4171.7135360343099819
 21
260.4073357940358164
 31
0.0
  0
LINE
  5
18C47
  8
0
 10
4161.9022438824104029
 20
261.0845011484357769
 30
0.0
 11
4171.7135360343099819
 21
261.0845011484357769
 31
0.0
  0
LINE
  5
18C48
  8
0
 10
4161.9022438824104029
 20
261.1947373688357743
 30
0.0
 11
4171.7135360343099819
 21
261.1947373688357743
 31
0.0
  0
LINE
  5
18C49
  8
0
 10
4171.9898909087105494
 20
261.415209809835801
 30
0.0
 11
4171.9648077287829437
 21
261.415209809835801
 31
0.0
  0
LINE
  5
18C4A
  8
0
 10
4171.7678635292586478
 20
261.415209809835801
 30
0.0
 11
4171.7536704363101308
 21
261.415209809835801
 31
0.0
  0
LINE
  5
18C4B
  8
0
 10
4161.862109480410254
 20
261.415209809835801
 30
0.0
 11
4161.8479163874608275
 21
261.415209809835801
 31
0.0
  0
LINE
  5
18C4C
  8
0
 10
4161.650972187937441
 20
261.415209809835801
 30
0.0
 11
4161.6258890080107449
 21
261.415209809835801
 31
0.0
  0
LINE
  5
18C4D
  8
0
 10
4154.4826671169103065
 20
264.2046194592358006
 30
0.0
 11
4154.4826671169103065
 21
262.8266667033357749
 31
0.0
  0
LINE
  5
18C4E
  8
0
 10
4154.763034059610618
 20
262.8266667033357749
 30
0.0
 11
4154.763034059610618
 21
264.2046194592358006
 31
0.0
  0
LINE
  5
18C4F
  8
0
 10
4155.5480474387095455
 20
262.0195800892357738
 30
0.0
 11
4148.0677324780099298
 21
262.0195800892357738
 31
0.0
  0
LINE
  5
18C50
  8
0
 10
4163.0283623993109359
 20
262.556942093335806
 30
0.0
 11
4170.5874175174103584
 21
262.556942093335806
 31
0.0
  0
LINE
  5
18C51
  8
0
 10
4163.0283623993109359
 20
262.7537924870358097
 30
0.0
 11
4170.5874175174103584
 21
262.7537924870358097
 31
0.0
  0
LINE
  5
18C52
  8
0
 10
4157.5106854346104228
 20
250.175052329535788
 30
0.0
 11
4157.5106854346104228
 21
260.056942093335806
 31
0.0
  0
LINE
  5
18C53
  8
0
 10
4135.3376106804098526
 20
264.4990488163358009
 30
0.0
 11
4137.2939172678097748
 21
264.4990488163358009
 31
0.0
  0
LINE
  5
18C54
  8
0
 10
4137.2927009820095918
 20
264.5419467914358052
 30
0.0
 11
4135.3388269662109451
 21
264.5419467914358052
 31
0.0
  0
LINE
  5
18C55
  8
0
 10
4137.3197009820096355
 20
264.5823064141358145
 30
0.0
 11
4135.3118269662109014
 21
264.5823064141358145
 31
0.0
  0
LINE
  5
18C56
  8
0
 10
4142.9496222418101752
 20
264.6180052860357819
 30
0.0
 11
4129.6819057064103617
 21
264.6180052860357819
 31
0.0
  0
LINE
  5
18C57
  8
0
 10
4157.9043862220096344
 20
250.175052329535788
 30
0.0
 11
4157.9043862220096344
 21
264.623871227135794
 31
0.0
  0
LINE
  5
18C58
  8
0
 10
4158.5598584623103307
 20
265.273477526335796
 30
0.0
 11
4158.5598584623103307
 21
247.556942093335806
 31
0.0
  0
LINE
  5
18C59
  8
0
 10
4157.5165513757092413
 20
265.0117060734357892
 30
0.0
 11
4129.6819057064103617
 21
265.0117060734357892
 31
0.0
  0
LINE
  5
18C5A
  8
0
 10
4170.6906783103104317
 20
265.3049735893358161
 30
0.0
 11
4162.9251016064099531
 21
265.3049735893358161
 31
0.0
  0
LINE
  5
18C5B
  8
0
 10
4170.6906783103104317
 20
265.4703279200357997
 30
0.0
 11
4162.9251016064099531
 21
265.4703279200357997
 31
0.0
  0
LINE
  5
18C5C
  8
0
 10
4127.0637954702106072
 20
265.6671783137358034
 30
0.0
 11
4158.1661576749102096
 21
265.6671783137358034
 31
0.0
  0
LINE
  5
18C5D
  8
0
 10
4161.6613220788103717
 20
264.206548392535808
 30
0.0
 11
4161.6613220788103717
 21
261.5489135870038808
 31
0.0
  0
LINE
  5
18C5E
  8
0
 10
4161.6613220788103717
 20
248.623871227135794
 30
0.0
 11
4161.6613220788103717
 21
251.2815060325677905
 31
0.0
  0
LINE
  5
18C5F
  8
0
 10
4161.8266764095096732
 20
264.206548392535808
 30
0.0
 11
4161.8266764095096732
 21
262.0501575933312779
 31
0.0
  0
LINE
  5
18C60
  8
0
 10
4161.8266764095096732
 20
248.623871227135794
 30
0.0
 11
4161.8266764095096732
 21
250.7802620262403082
 31
0.0
  0
LINE
  5
18C61
  8
0
 10
4161.8472600371096632
 20
251.4545798885357897
 30
0.0
 11
4161.8472600371096632
 21
261.3758397310357964
 31
0.0
  0
LINE
  5
18C62
  8
0
 10
4161.862109480410254
 20
261.415209809835801
 30
0.0
 11
4161.862109480410254
 21
261.1772548872788775
 31
0.0
  0
LINE
  5
18C63
  8
0
 10
4161.862109480410254
 20
261.1019836300926045
 30
0.0
 11
4161.862109480410254
 21
260.3898533124789765
 31
0.0
  0
LINE
  5
18C64
  8
0
 10
4161.862109480410254
 20
260.3145820552925898
 30
0.0
 11
4161.862109480410254
 21
259.8404066602357716
 31
0.0
  0
LINE
  5
18C65
  8
0
 10
4161.862109480410254
 20
251.415209809835801
 30
0.0
 11
4161.862109480410254
 21
251.6531647324229084
 31
0.0
  0
LINE
  5
18C66
  8
0
 10
4161.862109480410254
 20
251.7284359896486023
 30
0.0
 11
4161.862109480410254
 21
252.4405663071925972
 31
0.0
  0
LINE
  5
18C67
  8
0
 10
4161.862109480410254
 20
252.5158375643790123
 30
0.0
 11
4161.862109480410254
 21
252.990012959435802
 31
0.0
  0
LINE
  5
18C68
  8
0
 10
4163.3078899583097154
 20
261.0845011484357769
 30
0.0
 11
4163.3078899583097154
 21
260.4073357940358164
 31
0.0
  0
LINE
  5
18C69
  8
0
 10
4163.3078899583097154
 20
260.2970995736358191
 30
0.0
 11
4163.3078899583097154
 21
259.6199342192358017
 31
0.0
  0
LINE
  5
18C6A
  8
0
 10
4163.3078899583097154
 20
259.5096979988358044
 30
0.0
 11
4163.3078899583097154
 21
258.832532644435787
 31
0.0
  0
LINE
  5
18C6B
  8
0
 10
4163.3078899583097154
 20
258.7222964240357896
 30
0.0
 11
4163.3078899583097154
 21
258.0451310696357723
 31
0.0
  0
LINE
  5
18C6C
  8
0
 10
4163.3078899583097154
 20
257.9348948492357749
 30
0.0
 11
4163.3078899583097154
 21
257.2577294948358144
 31
0.0
  0
LINE
  5
18C6D
  8
0
 10
4163.3078899583097154
 20
257.1474932744358171
 30
0.0
 11
4163.3078899583097154
 21
256.4703279200357997
 31
0.0
  0
LINE
  5
18C6E
  8
0
 10
4163.3078899583097154
 20
256.3600916996358023
 30
0.0
 11
4163.3078899583097154
 21
255.6829263452358134
 31
0.0
  0
LINE
  5
18C6F
  8
0
 10
4163.3078899583097154
 20
255.5726901247358001
 30
0.0
 11
4163.3078899583097154
 21
254.8955247704357987
 31
0.0
  0
LINE
  5
18C70
  8
0
 10
4163.3078899583097154
 20
254.7852885499358138
 30
0.0
 11
4163.3078899583097154
 21
254.1081231956358124
 31
0.0
  0
LINE
  5
18C71
  8
0
 10
4163.3078899583097154
 20
253.997886975135799
 30
0.0
 11
4163.3078899583097154
 21
253.3207216208357977
 31
0.0
  0
LINE
  5
18C72
  8
0
 10
4163.3078899583097154
 20
252.423083825535798
 30
0.0
 11
4163.3078899583097154
 21
251.7459184712357967
 31
0.0
  0
LINE
  5
18C73
  8
0
 10
4163.3078899583097154
 20
250.3285956365857885
 30
0.0
 11
4163.3078899583097154
 21
251.6356822507358117
 31
0.0
  0
LINE
  5
18C74
  8
0
 10
4163.3078899583097154
 20
252.5333200460358114
 30
0.0
 11
4163.3078899583097154
 21
253.2104854003358128
 31
0.0
  0
LINE
  5
18C75
  8
0
 10
4163.3078899583097154
 20
261.1947373688357743
 30
0.0
 11
4163.3078899583097154
 21
262.5018239830857851
 31
0.0
  0
LINE
  5
18C76
  8
0
 10
4163.4181261788098709
 20
261.0845011484357769
 30
0.0
 11
4163.4181261788098709
 21
260.4073357940358164
 31
0.0
  0
LINE
  5
18C77
  8
0
 10
4163.4181261788098709
 20
260.2970995736358191
 30
0.0
 11
4163.4181261788098709
 21
259.6199342192358017
 31
0.0
  0
LINE
  5
18C78
  8
0
 10
4163.4181261788098709
 20
259.5096979988358044
 30
0.0
 11
4163.4181261788098709
 21
258.832532644435787
 31
0.0
  0
LINE
  5
18C79
  8
0
 10
4163.4181261788098709
 20
258.7222964240357896
 30
0.0
 11
4163.4181261788098709
 21
258.0451310696357723
 31
0.0
  0
LINE
  5
18C7A
  8
0
 10
4163.4181261788098709
 20
257.9348948492357749
 30
0.0
 11
4163.4181261788098709
 21
257.2577294948358144
 31
0.0
  0
LINE
  5
18C7B
  8
0
 10
4163.4181261788098709
 20
257.1474932744358171
 30
0.0
 11
4163.4181261788098709
 21
256.4703279200357997
 31
0.0
  0
LINE
  5
18C7C
  8
0
 10
4163.4181261788098709
 20
256.3600916996358023
 30
0.0
 11
4163.4181261788098709
 21
255.6829263452358134
 31
0.0
  0
LINE
  5
18C7D
  8
0
 10
4163.4181261788098709
 20
255.5726901247358001
 30
0.0
 11
4163.4181261788098709
 21
254.8955247704357987
 31
0.0
  0
LINE
  5
18C7E
  8
0
 10
4163.4181261788098709
 20
254.7852885499358138
 30
0.0
 11
4163.4181261788098709
 21
254.1081231956358124
 31
0.0
  0
LINE
  5
18C7F
  8
0
 10
4163.4181261788098709
 20
253.997886975135799
 30
0.0
 11
4163.4181261788098709
 21
253.3207216208357977
 31
0.0
  0
LINE
  5
18C80
  8
0
 10
4163.4181261788098709
 20
252.423083825535798
 30
0.0
 11
4163.4181261788098709
 21
251.7459184712357967
 31
0.0
  0
LINE
  5
18C81
  8
0
 10
4163.4181261788098709
 20
252.5333200460358114
 30
0.0
 11
4163.4181261788098709
 21
253.2104854003358128
 31
0.0
  0
LINE
  5
18C82
  8
0
 10
4163.4181261788098709
 20
261.1947373688357743
 30
0.0
 11
4163.4181261788098709
 21
262.5018239830857851
 31
0.0
  0
LINE
  5
18C83
  8
0
 10
4165.0303309032096877
 20
261.0845011484357769
 30
0.0
 11
4165.0303309032096877
 21
260.4073357940358164
 31
0.0
  0
LINE
  5
18C84
  8
0
 10
4165.0303309032096877
 20
260.2970995736358191
 30
0.0
 11
4165.0303309032096877
 21
259.6199342192358017
 31
0.0
  0
LINE
  5
18C85
  8
0
 10
4165.0303309032096877
 20
259.5096979988358044
 30
0.0
 11
4165.0303309032096877
 21
258.832532644435787
 31
0.0
  0
LINE
  5
18C86
  8
0
 10
4165.0303309032096877
 20
258.7222964240357896
 30
0.0
 11
4165.0303309032096877
 21
258.0451310696357723
 31
0.0
  0
LINE
  5
18C87
  8
0
 10
4165.0303309032096877
 20
257.9348948492357749
 30
0.0
 11
4165.0303309032096877
 21
257.2577294948358144
 31
0.0
  0
LINE
  5
18C88
  8
0
 10
4165.0303309032096877
 20
257.1474932744358171
 30
0.0
 11
4165.0303309032096877
 21
256.4703279200357997
 31
0.0
  0
LINE
  5
18C89
  8
0
 10
4165.0303309032096877
 20
256.3600916996358023
 30
0.0
 11
4165.0303309032096877
 21
255.6829263452358134
 31
0.0
  0
LINE
  5
18C8A
  8
0
 10
4165.0303309032096877
 20
255.5726901247358001
 30
0.0
 11
4165.0303309032096877
 21
254.8955247704357987
 31
0.0
  0
LINE
  5
18C8B
  8
0
 10
4165.0303309032096877
 20
254.7852885499358138
 30
0.0
 11
4165.0303309032096877
 21
254.1081231956358124
 31
0.0
  0
LINE
  5
18C8C
  8
0
 10
4165.0303309032096877
 20
253.997886975135799
 30
0.0
 11
4165.0303309032096877
 21
253.3207216208357977
 31
0.0
  0
LINE
  5
18C8D
  8
0
 10
4165.0303309032096877
 20
253.2104854003358128
 30
0.0
 11
4165.0303309032096877
 21
252.5333200460358114
 31
0.0
  0
LINE
  5
18C8E
  8
0
 10
4165.0303309032096877
 20
252.423083825535798
 30
0.0
 11
4165.0303309032096877
 21
251.7459184712357967
 31
0.0
  0
LINE
  5
18C8F
  8
0
 10
4165.1405671237098431
 20
261.0845011484357769
 30
0.0
 11
4165.1405671237098431
 21
260.4073357940358164
 31
0.0
  0
LINE
  5
18C90
  8
0
 10
4165.1405671237098431
 20
260.2970995736358191
 30
0.0
 11
4165.1405671237098431
 21
259.6199342192358017
 31
0.0
  0
LINE
  5
18C91
  8
0
 10
4165.1405671237098431
 20
259.5096979988358044
 30
0.0
 11
4165.1405671237098431
 21
258.832532644435787
 31
0.0
  0
LINE
  5
18C92
  8
0
 10
4165.1405671237098431
 20
258.7222964240357896
 30
0.0
 11
4165.1405671237098431
 21
258.0451310696357723
 31
0.0
  0
LINE
  5
18C93
  8
0
 10
4165.1405671237098431
 20
257.9348948492357749
 30
0.0
 11
4165.1405671237098431
 21
257.2577294948358144
 31
0.0
  0
LINE
  5
18C94
  8
0
 10
4165.1405671237098431
 20
257.1474932744358171
 30
0.0
 11
4165.1405671237098431
 21
256.4703279200357997
 31
0.0
  0
LINE
  5
18C95
  8
0
 10
4165.1405671237098431
 20
256.3600916996358023
 30
0.0
 11
4165.1405671237098431
 21
255.6829263452358134
 31
0.0
  0
LINE
  5
18C96
  8
0
 10
4165.1405671237098431
 20
255.5726901247358001
 30
0.0
 11
4165.1405671237098431
 21
254.8955247704357987
 31
0.0
  0
LINE
  5
18C97
  8
0
 10
4165.1405671237098431
 20
254.7852885499358138
 30
0.0
 11
4165.1405671237098431
 21
254.1081231956358124
 31
0.0
  0
LINE
  5
18C98
  8
0
 10
4165.1405671237098431
 20
253.997886975135799
 30
0.0
 11
4165.1405671237098431
 21
253.3207216208357977
 31
0.0
  0
LINE
  5
18C99
  8
0
 10
4165.1405671237098431
 20
253.2104854003358128
 30
0.0
 11
4165.1405671237098431
 21
252.5333200460358114
 31
0.0
  0
LINE
  5
18C9A
  8
0
 10
4165.1405671237098431
 20
252.423083825535798
 30
0.0
 11
4165.1405671237098431
 21
251.7459184712357967
 31
0.0
  0
LINE
  5
18C9B
  8
0
 10
4166.7527718481096599
 20
251.7459184712357967
 30
0.0
 11
4166.7527718481096599
 21
252.423083825535798
 31
0.0
  0
LINE
  5
18C9C
  8
0
 10
4166.7527718481096599
 20
252.5333200460358114
 30
0.0
 11
4166.7527718481096599
 21
253.2104854003358128
 31
0.0
  0
LINE
  5
18C9D
  8
0
 10
4166.7527718481096599
 20
253.3207216208357977
 30
0.0
 11
4166.7527718481096599
 21
253.997886975135799
 31
0.0
  0
LINE
  5
18C9E
  8
0
 10
4166.7527718481096599
 20
254.1081231956358124
 30
0.0
 11
4166.7527718481096599
 21
254.7852885499358138
 31
0.0
  0
LINE
  5
18C9F
  8
0
 10
4166.7527718481096599
 20
254.8955247704357987
 30
0.0
 11
4166.7527718481096599
 21
255.5726901247358001
 31
0.0
  0
LINE
  5
18CA0
  8
0
 10
4166.7527718481096599
 20
255.6829263452358134
 30
0.0
 11
4166.7527718481096599
 21
256.3600916996358023
 31
0.0
  0
LINE
  5
18CA1
  8
0
 10
4166.7527718481096599
 20
256.4703279200357997
 30
0.0
 11
4166.7527718481096599
 21
257.1474932744358171
 31
0.0
  0
LINE
  5
18CA2
  8
0
 10
4166.7527718481096599
 20
257.2577294948358144
 30
0.0
 11
4166.7527718481096599
 21
257.9348948492357749
 31
0.0
  0
LINE
  5
18CA3
  8
0
 10
4166.7527718481096599
 20
258.0451310696357723
 30
0.0
 11
4166.7527718481096599
 21
258.7222964240357896
 31
0.0
  0
LINE
  5
18CA4
  8
0
 10
4166.7527718481096599
 20
258.832532644435787
 30
0.0
 11
4166.7527718481096599
 21
259.5096979988358044
 31
0.0
  0
LINE
  5
18CA5
  8
0
 10
4166.7527718481096599
 20
259.6199342192358017
 30
0.0
 11
4166.7527718481096599
 21
260.2970995736358191
 31
0.0
  0
LINE
  5
18CA6
  8
0
 10
4166.7527718481096599
 20
260.4073357940358164
 30
0.0
 11
4166.7527718481096599
 21
261.0845011484357769
 31
0.0
  0
LINE
  5
18CA7
  8
0
 10
4166.8630080686098154
 20
251.7459184712357967
 30
0.0
 11
4166.8630080686098154
 21
252.423083825535798
 31
0.0
  0
LINE
  5
18CA8
  8
0
 10
4166.8630080686098154
 20
252.5333200460358114
 30
0.0
 11
4166.8630080686098154
 21
253.2104854003358128
 31
0.0
  0
LINE
  5
18CA9
  8
0
 10
4166.8630080686098154
 20
253.3207216208357977
 30
0.0
 11
4166.8630080686098154
 21
253.997886975135799
 31
0.0
  0
LINE
  5
18CAA
  8
0
 10
4166.8630080686098154
 20
254.1081231956358124
 30
0.0
 11
4166.8630080686098154
 21
254.7852885499358138
 31
0.0
  0
LINE
  5
18CAB
  8
0
 10
4166.8630080686098154
 20
254.8955247704357987
 30
0.0
 11
4166.8630080686098154
 21
255.5726901247358001
 31
0.0
  0
LINE
  5
18CAC
  8
0
 10
4166.8630080686098154
 20
255.6829263452358134
 30
0.0
 11
4166.8630080686098154
 21
256.3600916996358023
 31
0.0
  0
LINE
  5
18CAD
  8
0
 10
4166.8630080686098154
 20
256.4703279200357997
 30
0.0
 11
4166.8630080686098154
 21
257.1474932744358171
 31
0.0
  0
LINE
  5
18CAE
  8
0
 10
4166.8630080686098154
 20
257.2577294948358144
 30
0.0
 11
4166.8630080686098154
 21
257.9348948492357749
 31
0.0
  0
LINE
  5
18CAF
  8
0
 10
4166.8630080686098154
 20
258.0451310696357723
 30
0.0
 11
4166.8630080686098154
 21
258.7222964240357896
 31
0.0
  0
LINE
  5
18CB0
  8
0
 10
4166.8630080686098154
 20
258.832532644435787
 30
0.0
 11
4166.8630080686098154
 21
259.5096979988358044
 31
0.0
  0
LINE
  5
18CB1
  8
0
 10
4166.8630080686098154
 20
259.6199342192358017
 30
0.0
 11
4166.8630080686098154
 21
260.2970995736358191
 31
0.0
  0
LINE
  5
18CB2
  8
0
 10
4166.8630080686098154
 20
260.4073357940358164
 30
0.0
 11
4166.8630080686098154
 21
261.0845011484357769
 31
0.0
  0
LINE
  5
18CB3
  8
0
 10
4168.4752127930096322
 20
251.7459184712357967
 30
0.0
 11
4168.4752127930096322
 21
252.423083825535798
 31
0.0
  0
LINE
  5
18CB4
  8
0
 10
4168.4752127930096322
 20
252.5333200460358114
 30
0.0
 11
4168.4752127930096322
 21
253.2104854003358128
 31
0.0
  0
LINE
  5
18CB5
  8
0
 10
4168.4752127930096322
 20
253.3207216208357977
 30
0.0
 11
4168.4752127930096322
 21
253.997886975135799
 31
0.0
  0
LINE
  5
18CB6
  8
0
 10
4168.4752127930096322
 20
254.1081231956358124
 30
0.0
 11
4168.4752127930096322
 21
254.7852885499358138
 31
0.0
  0
LINE
  5
18CB7
  8
0
 10
4168.4752127930096322
 20
254.8955247704357987
 30
0.0
 11
4168.4752127930096322
 21
255.5726901247358001
 31
0.0
  0
LINE
  5
18CB8
  8
0
 10
4168.4752127930096322
 20
255.6829263452358134
 30
0.0
 11
4168.4752127930096322
 21
256.3600916996358023
 31
0.0
  0
LINE
  5
18CB9
  8
0
 10
4168.4752127930096322
 20
256.4703279200357997
 30
0.0
 11
4168.4752127930096322
 21
257.1474932744358171
 31
0.0
  0
LINE
  5
18CBA
  8
0
 10
4168.4752127930096322
 20
257.2577294948358144
 30
0.0
 11
4168.4752127930096322
 21
257.9348948492357749
 31
0.0
  0
LINE
  5
18CBB
  8
0
 10
4168.4752127930096322
 20
258.0451310696357723
 30
0.0
 11
4168.4752127930096322
 21
258.7222964240357896
 31
0.0
  0
LINE
  5
18CBC
  8
0
 10
4168.4752127930096322
 20
258.832532644435787
 30
0.0
 11
4168.4752127930096322
 21
259.5096979988358044
 31
0.0
  0
LINE
  5
18CBD
  8
0
 10
4168.4752127930096322
 20
259.6199342192358017
 30
0.0
 11
4168.4752127930096322
 21
260.2970995736358191
 31
0.0
  0
LINE
  5
18CBE
  8
0
 10
4168.4752127930096322
 20
260.4073357940358164
 30
0.0
 11
4168.4752127930096322
 21
261.0845011484357769
 31
0.0
  0
LINE
  5
18CBF
  8
0
 10
4168.5854490135106971
 20
251.7459184712357967
 30
0.0
 11
4168.5854490135106971
 21
252.423083825535798
 31
0.0
  0
LINE
  5
18CC0
  8
0
 10
4168.5854490135106971
 20
252.5333200460358114
 30
0.0
 11
4168.5854490135106971
 21
253.2104854003358128
 31
0.0
  0
LINE
  5
18CC1
  8
0
 10
4168.5854490135106971
 20
253.3207216208357977
 30
0.0
 11
4168.5854490135106971
 21
253.997886975135799
 31
0.0
  0
LINE
  5
18CC2
  8
0
 10
4168.5854490135106971
 20
254.1081231956358124
 30
0.0
 11
4168.5854490135106971
 21
254.7852885499358138
 31
0.0
  0
LINE
  5
18CC3
  8
0
 10
4168.5854490135106971
 20
254.8955247704357987
 30
0.0
 11
4168.5854490135106971
 21
255.5726901247358001
 31
0.0
  0
LINE
  5
18CC4
  8
0
 10
4168.5854490135106971
 20
255.6829263452358134
 30
0.0
 11
4168.5854490135106971
 21
256.3600916996358023
 31
0.0
  0
LINE
  5
18CC5
  8
0
 10
4168.5854490135106971
 20
256.4703279200357997
 30
0.0
 11
4168.5854490135106971
 21
257.1474932744358171
 31
0.0
  0
LINE
  5
18CC6
  8
0
 10
4168.5854490135106971
 20
257.2577294948358144
 30
0.0
 11
4168.5854490135106971
 21
257.9348948492357749
 31
0.0
  0
LINE
  5
18CC7
  8
0
 10
4168.5854490135106971
 20
258.0451310696357723
 30
0.0
 11
4168.5854490135106971
 21
258.7222964240357896
 31
0.0
  0
LINE
  5
18CC8
  8
0
 10
4168.5854490135106971
 20
258.832532644435787
 30
0.0
 11
4168.5854490135106971
 21
259.5096979988358044
 31
0.0
  0
LINE
  5
18CC9
  8
0
 10
4168.5854490135106971
 20
259.6199342192358017
 30
0.0
 11
4168.5854490135106971
 21
260.2970995736358191
 31
0.0
  0
LINE
  5
18CCA
  8
0
 10
4168.5854490135106971
 20
260.4073357940358164
 30
0.0
 11
4168.5854490135106971
 21
261.0845011484357769
 31
0.0
  0
LINE
  5
18CCB
  8
0
 10
4170.1976537379096044
 20
251.7459184712357967
 30
0.0
 11
4170.1976537379096044
 21
252.423083825535798
 31
0.0
  0
LINE
  5
18CCC
  8
0
 10
4170.1976537379096044
 20
252.5333200460358114
 30
0.0
 11
4170.1976537379096044
 21
253.2104854003358128
 31
0.0
  0
LINE
  5
18CCD
  8
0
 10
4170.1976537379096044
 20
253.3207216208357977
 30
0.0
 11
4170.1976537379096044
 21
253.997886975135799
 31
0.0
  0
LINE
  5
18CCE
  8
0
 10
4170.1976537379096044
 20
254.1081231956358124
 30
0.0
 11
4170.1976537379096044
 21
254.7852885499358138
 31
0.0
  0
LINE
  5
18CCF
  8
0
 10
4170.1976537379096044
 20
254.8955247704357987
 30
0.0
 11
4170.1976537379096044
 21
255.5726901247358001
 31
0.0
  0
LINE
  5
18CD0
  8
0
 10
4170.1976537379096044
 20
255.6829263452358134
 30
0.0
 11
4170.1976537379096044
 21
256.3600916996358023
 31
0.0
  0
LINE
  5
18CD1
  8
0
 10
4170.1976537379096044
 20
256.4703279200357997
 30
0.0
 11
4170.1976537379096044
 21
257.1474932744358171
 31
0.0
  0
LINE
  5
18CD2
  8
0
 10
4170.1976537379096044
 20
257.2577294948358144
 30
0.0
 11
4170.1976537379096044
 21
257.9348948492357749
 31
0.0
  0
LINE
  5
18CD3
  8
0
 10
4170.1976537379096044
 20
258.0451310696357723
 30
0.0
 11
4170.1976537379096044
 21
258.7222964240357896
 31
0.0
  0
LINE
  5
18CD4
  8
0
 10
4170.1976537379096044
 20
258.832532644435787
 30
0.0
 11
4170.1976537379096044
 21
259.5096979988358044
 31
0.0
  0
LINE
  5
18CD5
  8
0
 10
4170.1976537379096044
 20
259.6199342192358017
 30
0.0
 11
4170.1976537379096044
 21
260.2970995736358191
 31
0.0
  0
LINE
  5
18CD6
  8
0
 10
4170.1976537379096044
 20
260.4073357940358164
 30
0.0
 11
4170.1976537379096044
 21
261.0845011484357769
 31
0.0
  0
LINE
  5
18CD7
  8
0
 10
4170.3078899583097154
 20
251.7459184712357967
 30
0.0
 11
4170.3078899583097154
 21
252.423083825535798
 31
0.0
  0
LINE
  5
18CD8
  8
0
 10
4170.3078899583097154
 20
252.5333200460358114
 30
0.0
 11
4170.3078899583097154
 21
253.2104854003358128
 31
0.0
  0
LINE
  5
18CD9
  8
0
 10
4170.3078899583097154
 20
253.3207216208357977
 30
0.0
 11
4170.3078899583097154
 21
253.997886975135799
 31
0.0
  0
LINE
  5
18CDA
  8
0
 10
4170.3078899583097154
 20
254.1081231956358124
 30
0.0
 11
4170.3078899583097154
 21
254.7852885499358138
 31
0.0
  0
LINE
  5
18CDB
  8
0
 10
4170.3078899583097154
 20
254.8955247704357987
 30
0.0
 11
4170.3078899583097154
 21
255.5726901247358001
 31
0.0
  0
LINE
  5
18CDC
  8
0
 10
4170.3078899583097154
 20
255.6829263452358134
 30
0.0
 11
4170.3078899583097154
 21
256.3600916996358023
 31
0.0
  0
LINE
  5
18CDD
  8
0
 10
4170.3078899583097154
 20
256.4703279200357997
 30
0.0
 11
4170.3078899583097154
 21
257.1474932744358171
 31
0.0
  0
LINE
  5
18CDE
  8
0
 10
4170.3078899583097154
 20
257.2577294948358144
 30
0.0
 11
4170.3078899583097154
 21
257.9348948492357749
 31
0.0
  0
LINE
  5
18CDF
  8
0
 10
4170.3078899583097154
 20
258.0451310696357723
 30
0.0
 11
4170.3078899583097154
 21
258.7222964240357896
 31
0.0
  0
LINE
  5
18CE0
  8
0
 10
4170.3078899583097154
 20
258.832532644435787
 30
0.0
 11
4170.3078899583097154
 21
259.5096979988358044
 31
0.0
  0
LINE
  5
18CE1
  8
0
 10
4170.3078899583097154
 20
259.6199342192358017
 30
0.0
 11
4170.3078899583097154
 21
260.2970995736358191
 31
0.0
  0
LINE
  5
18CE2
  8
0
 10
4170.3078899583097154
 20
260.4073357940358164
 30
0.0
 11
4170.3078899583097154
 21
261.0845011484357769
 31
0.0
  0
LINE
  5
18CE3
  8
0
 10
4171.7536704363101308
 20
261.415209809835801
 30
0.0
 11
4171.7536704363101308
 21
261.1772548872788775
 31
0.0
  0
LINE
  5
18CE4
  8
0
 10
4171.7536704363101308
 20
261.1019836300926045
 30
0.0
 11
4171.7536704363101308
 21
260.3894567057358245
 31
0.0
  0
LINE
  5
18CE5
  8
0
 10
4171.7536704363101308
 20
260.314974292135787
 30
0.0
 11
4171.7536704363101308
 21
259.8404066602357716
 31
0.0
  0
LINE
  5
18CE6
  8
0
 10
4171.7536704363101308
 20
251.415209809835801
 30
0.0
 11
4171.7536704363101308
 21
251.6531647324229084
 31
0.0
  0
LINE
  5
18CE7
  8
0
 10
4171.7536704363101308
 20
251.7284359896486023
 30
0.0
 11
4171.7536704363101308
 21
252.4405663071925972
 31
0.0
  0
LINE
  5
18CE8
  8
0
 10
4171.7536704363101308
 20
252.5158375643790123
 30
0.0
 11
4171.7536704363101308
 21
252.990012959435802
 31
0.0
  0
LINE
  5
18CE9
  8
0
 10
4171.7685198796107215
 20
261.3758397310357964
 30
0.0
 11
4171.7685198796107215
 21
251.4545798885357897
 31
0.0
  0
LINE
  5
18CEA
  8
0
 10
4171.7891035072107115
 20
250.7802620262403082
 30
0.0
 11
4171.7891035072107115
 21
248.623871227135794
 31
0.0
  0
LINE
  5
18CEB
  8
0
 10
4171.7891035072107115
 20
262.0501575933312779
 30
0.0
 11
4171.7891035072107115
 21
264.206548392535808
 31
0.0
  0
LINE
  5
18CEC
  8
0
 10
4171.9544578379109225
 20
251.2815060325677905
 30
0.0
 11
4171.9544578379109225
 21
248.623871227135794
 31
0.0
  0
LINE
  5
18CED
  8
0
 10
4171.9544578379109225
 20
261.5489135870038808
 30
0.0
 11
4171.9544578379109225
 21
264.206548392535808
 31
0.0
  0
ARC
  5
18CEE
  8
0
 10
4129.6819057064103617
 20
250.175052329535788
 30
0.0
 40
2.3563387833
 50
180.0
 51
270.0
  0
ARC
  5
18CEF
  8
0
 10
4148.0677324780099298
 20
250.175052329535788
 30
0.0
 40
1.9626379958999991
 50
180.0
 51
270.0
  0
ARC
  5
18CF0
  8
0
 10
4129.6819057064103617
 20
250.175052329535788
 30
0.0
 40
1.9626379958999991
 50
180.0
 51
270.0
  0
ARC
  5
18CF1
  8
0
 10
4142.9496222418101752
 20
250.175052329535788
 30
0.0
 40
1.9626379958999991
 50
270.0
 51
0.0
  0
ARC
  5
18CF2
  8
0
 10
4127.0637954702106072
 20
247.556942093335806
 30
0.0
 40
0.3937007874
 50
180.0
 51
270.0
  0
CIRCLE
  5
18CF3
  8
0
 10
4136.3157639741102685
 20
256.415209809835801
 30
0.0
 40
2.3003010059999989
  0
CIRCLE
  5
18CF4
  8
0
 10
4136.3157639741102685
 20
256.415209809835801
 30
0.0
 40
1.9488188975999989
  0
ARC
  5
18CF5
  8
0
 10
4129.6819057064103617
 20
262.6553672901358141
 30
0.0
 40
2.3563387833
 50
90.0
 51
180.0
  0
ARC
  5
18CF6
  8
0
 10
4129.6819057064103617
 20
262.6553672901358141
 30
0.0
 40
1.9626379958999991
 50
90.0
 51
180.0
  0
ARC
  5
18CF7
  8
0
 10
4127.0637954702106072
 20
265.273477526335796
 30
0.0
 40
0.3937007874
 50
90.0
 51
180.0
  0
ARC
  5
18CF8
  8
0
 10
4137.2927730598112248
 20
264.5249925848357861
 30
0.0
 40
0.0269279222
 50
344.9536733122944838
 51
359.9998279465003748
  0
ARC
  5
18CF9
  8
0
 10
4135.3387548884102216
 20
264.5249925848357861
 30
0.0
 40
0.0269279222
 50
180.0001720534995968
 51
195.0463266877054878
  0
ARC
  5
18CFA
  8
0
 10
4148.0677324780099298
 20
260.056942093335806
 30
0.0
 40
1.9626379958999991
 50
90.0
 51
180.0
  0
ARC
  5
18CFB
  8
0
 10
4142.9496222418101752
 20
262.6553672901358141
 30
0.0
 40
1.9626379958999991
 50
0.0
 51
90.0
  0
CIRCLE
  5
18CFC
  8
0
 10
4146.5126143678098742
 20
263.1868633531357773
 30
0.0
 40
0.688976378
  0
ARC
  5
18CFD
  8
0
 10
4148.599228541010234
 20
262.8266667033357749
 30
0.0
 40
0.1401834713
 50
180.000000004899988
 51
359.9999999950999836
  0
ARC
  5
18CFE
  8
0
 10
4148.599228541010234
 20
264.2046194592358006
 30
0.0
 40
0.1401834713
 50
0.0000000031005574
 51
179.999999995100012
  0
ARC
  5
18CFF
  8
0
 10
4162.9251016064099531
 20
248.623871227135794
 30
0.0
 40
1.2637795275999999
 50
180.0
 51
270.0
  0
ARC
  5
18D00
  8
0
 10
4162.9251016064099531
 20
248.623871227135794
 30
0.0
 40
1.0984251969000001
 50
180.0
 51
270.0
  0
ARC
  5
18D01
  8
0
 10
4158.1661576749102096
 20
247.556942093335806
 30
0.0
 40
0.3937007874
 50
270.0
 51
0.0
  0
ARC
  5
18D02
  8
0
 10
4155.5480474387095455
 20
250.175052329535788
 30
0.0
 40
2.3563387833
 50
270.0
 51
0.0
  0
ARC
  5
18D03
  8
0
 10
4155.5480474387095455
 20
250.175052329535788
 30
0.0
 40
1.9626379958999991
 50
270.0
 51
0.0
  0
ARC
  5
18D04
  8
0
 10
4163.0283623993109359
 20
251.4545798885357897
 30
0.0
 40
1.3779527558999991
 50
180.0
 51
270.0
  0
ARC
  5
18D05
  8
0
 10
4163.0283623993109359
 20
251.4545798885357897
 30
0.0
 40
1.1811023622000001
 50
180.0
 51
270.0
  0
ARC
  5
18D06
  8
0
 10
4170.6906783103104317
 20
248.623871227135794
 30
0.0
 40
1.2637795275999999
 50
270.0
 51
0.0
  0
ARC
  5
18D07
  8
0
 10
4170.6906783103104317
 20
248.623871227135794
 30
0.0
 40
1.0984251969000001
 50
270.0
 51
0.0
  0
ARC
  5
18D08
  8
0
 10
4170.5874175174103584
 20
251.4545798885357897
 30
0.0
 40
1.3779527558999991
 50
270.0
 51
0.0
  0
ARC
  5
18D09
  8
0
 10
4170.5874175174103584
 20
251.4545798885357897
 30
0.0
 40
1.1811023622000001
 50
270.0
 51
0.0
  0
CIRCLE
  5
18D0A
  8
0
 10
4151.8078899583106249
 20
256.415209809835801
 30
0.0
 40
2.3003010059999989
  0
ARC
  5
18D0B
  8
0
 10
4155.5480474387095455
 20
260.056942093335806
 30
0.0
 40
1.9626379958999991
 50
0.0
 51
58.1232582662215407
  0
ARC
  5
18D0C
  8
0
 10
4155.5480474387095455
 20
260.056942093335806
 30
0.0
 40
1.9626379958999991
 50
70.4509484654008133
 51
90.0
  0
CIRCLE
  5
18D0D
  8
0
 10
4151.8078899583106249
 20
256.415209809835801
 30
0.0
 40
1.9488188975999989
  0
ARC
  5
18D0E
  8
0
 10
4149.9378112182112091
 20
262.8266667033357749
 30
0.0
 40
0.1401834713
 50
180.000000004899988
 51
359.9999999950999836
  0
ARC
  5
18D0F
  8
0
 10
4150.6071025568098776
 20
262.8266667033357749
 30
0.0
 40
0.1401834713
 50
180.000000004899988
 51
359.9999999950999836
  0
ARC
  5
18D10
  8
0
 10
4151.2763938953112302
 20
262.8266667033357749
 30
0.0
 40
0.1401834713
 50
180.000000004899988
 51
359.9999999950999836
  0
ARC
  5
18D11
  8
0
 10
4151.9456852339098987
 20
262.8266667033357749
 30
0.0
 40
0.1401834713
 50
180.000000004899988
 51
359.9999999950999836
  0
ARC
  5
18D12
  8
0
 10
4152.6149765725103862
 20
262.8266667033357749
 30
0.0
 40
0.1401834713
 50
180.000000004899988
 51
359.9999999950999836
  0
ARC
  5
18D13
  8
0
 10
4153.2842679111108737
 20
262.8266667033357749
 30
0.0
 40
0.1401834713
 50
180.000000004899988
 51
359.9999999950999836
  0
ARC
  5
18D14
  8
0
 10
4149.2685198796107215
 20
262.8266667033357749
 30
0.0
 40
0.1401834713
 50
180.000000004899988
 51
359.9999999950999836
  0
ARC
  5
18D15
  8
0
 10
4149.9378112182112091
 20
264.2046194592358006
 30
0.0
 40
0.1401834713
 50
0.0000000031005574
 51
179.999999995100012
  0
ARC
  5
18D16
  8
0
 10
4150.6071025568098776
 20
264.2046194592358006
 30
0.0
 40
0.1401834713
 50
0.0000000031005574
 51
179.999999995100012
  0
ARC
  5
18D17
  8
0
 10
4151.2763938953112302
 20
264.2046194592358006
 30
0.0
 40
0.1401834713
 50
0.0000000031005574
 51
179.999999995100012
  0
ARC
  5
18D18
  8
0
 10
4151.9456852339098987
 20
264.2046194592358006
 30
0.0
 40
0.1401834713
 50
0.0000000031005574
 51
179.999999995100012
  0
ARC
  5
18D19
  8
0
 10
4152.6149765725103862
 20
264.2046194592358006
 30
0.0
 40
0.1401834713
 50
0.0000000031005574
 51
179.999999995100012
  0
ARC
  5
18D1A
  8
0
 10
4153.2842679111108737
 20
264.2046194592358006
 30
0.0
 40
0.1401834713
 50
0.0000000031005574
 51
179.999999995100012
  0
ARC
  5
18D1B
  8
0
 10
4149.2685198796107215
 20
264.2046194592358006
 30
0.0
 40
0.1401834713
 50
0.0000000031005574
 51
179.999999995100012
  0
ARC
  5
18D1C
  8
0
 10
4153.9535592497104517
 20
262.8266667033357749
 30
0.0
 40
0.1401834713
 50
180.000000004899988
 51
359.9999999950999836
  0
ARC
  5
18D1D
  8
0
 10
4154.6228505883100297
 20
262.8266667033357749
 30
0.0
 40
0.1401834713
 50
180.000000004899988
 51
359.9999999950999836
  0
ARC
  5
18D1E
  8
0
 10
4158.1661576749102096
 20
265.273477526335796
 30
0.0
 40
0.3937007874
 50
0.0
 51
90.0
  0
ARC
  5
18D1F
  8
0
 10
4157.5165513757092413
 20
264.623871227135794
 30
0.0
 40
0.3878348463
 50
0.0
 51
90.0
  0
ARC
  5
18D20
  8
0
 10
4153.9535592497104517
 20
264.2046194592358006
 30
0.0
 40
0.1401834713
 50
0.0000000031005574
 51
179.999999995100012
  0
ARC
  5
18D21
  8
0
 10
4154.6228505883100297
 20
264.2046194592358006
 30
0.0
 40
0.1401834713
 50
0.0000000031005574
 51
179.999999995100012
  0
ARC
  5
18D22
  8
0
 10
4163.0283623993109359
 20
261.3758397310357964
 30
0.0
 40
1.3779527558999991
 50
90.0
 51
180.0
  0
ARC
  5
18D23
  8
0
 10
4170.5874175174103584
 20
261.3758397310357964
 30
0.0
 40
1.3779527558999991
 50
0.0
 51
90.0
  0
ARC
  5
18D24
  8
0
 10
4162.9251016064099531
 20
264.206548392535808
 30
0.0
 40
1.2637795275999999
 50
90.0
 51
180.0
  0
ARC
  5
18D25
  8
0
 10
4170.6906783103104317
 20
264.206548392535808
 30
0.0
 40
1.2637795275999999
 50
0.0
 51
90.0
  0
ARC
  5
18D26
  8
0
 10
4163.0283623993109359
 20
261.3758397310357964
 30
0.0
 40
1.1811023622000001
 50
90.0
 51
180.0
  0
ARC
  5
18D27
  8
0
 10
4170.5874175174103584
 20
261.3758397310357964
 30
0.0
 40
1.1811023622000001
 50
0.0
 51
90.0
  0
ARC
  5
18D28
  8
0
 10
4162.9251016064099531
 20
264.206548392535808
 30
0.0
 40
1.0984251969000001
 50
90.0
 51
180.0
  0
ARC
  5
18D29
  8
0
 10
4170.6906783103104317
 20
264.206548392535808
 30
0.0
 40
1.0984251969000001
 50
0.0
 51
90.0
  0
ARC
  5
18D2A
  8
0
 10
4137.2909490710453611
 20
264.5706471107873199
 30
0.0
 40
0.0287537392856505
 50
273.4930869779219051
 51
359.3538714966474004
  0
ARC
  5
18D2B
  8
0
 10
4137.2941522921510114
 20
264.5245216315768744
 30
0.0
 40
0.0254738994413307
 50
269.4713768166540149
 51
345.171302722070493
  0
ARC
  5
18D2C
  8
0
 10
4135.3373752104416781
 20
264.5245210470628763
 30
0.0
 40
0.0254733190676286
 50
194.8276830969388129
 51
270.5296376002107763
  0
ARC
  5
18D2D
  8
0
 10
4135.3405844684366457
 20
264.5706524309060796
 30
0.0
 40
0.0287593906659356
 50
180.6566012001418073
 51
266.4964403252711804
  0
ARC
  5
18D2E
  8
0
 10
4163.361900139087993
 20
252.6820666129081019
 30
0.0
 40
0.0540233208293629
 50
88.8248753437138987
 51
178.7362698930994043
  0
ARC
  5
18D2F
  8
0
 10
4163.3641159981989404
 20
252.6820666130797122
 30
0.0
 40
0.0540233206590802
 50
1.2637299287618009
 51
91.1751247305587356
  0
ARC
  5
18D30
  8
0
 10
4163.3619001390634367
 20
253.0617388335377882
 30
0.0
 40
0.0540233208041313
 50
181.2637300801883953
 51
271.1751246829721254
  0
ARC
  5
18D31
  8
0
 10
4163.3641159982216777
 20
253.0617388333685085
 30
0.0
 40
0.0540233206362214
 50
268.8248752452569761
 51
358.7362700954407728
  0
ARC
  5
18D32
  8
0
 10
4170.2538797776333013
 20
252.6820666129081019
 30
0.0
 40
0.0540233208293629
 50
1.2637301069006051
 51
91.1751246562861013
  0
ARC
  5
18D33
  8
0
 10
4170.2516639185214444
 20
252.6820666130797122
 30
0.0
 40
0.0540233206590802
 50
88.824875269441236
 51
178.7362700712382093
  0
ARC
  5
18D34
  8
0
 10
4170.2538797776569481
 20
253.0617388335377882
 30
0.0
 40
0.0540233208041313
 50
268.8248753170278746
 51
358.7362699198116047
  0
ARC
  5
18D35
  8
0
 10
4170.2516639184996166
 20
253.0617388333685085
 30
0.0
 40
0.0540233206362214
 50
181.2637299045591135
 51
271.1751247547430239
  0
ARC
  5
18D36
  8
0
 10
4163.361900139087993
 20
260.1483530066636263
 30
0.0
 40
0.0540233208293629
 50
181.2637301069005957
 51
271.1751246562860729
  0
ARC
  5
18D37
  8
0
 10
4163.3641159981989404
 20
260.1483530064919023
 30
0.0
 40
0.0540233206590802
 50
268.8248752694411792
 51
358.7362700712366177
  0
ARC
  5
18D38
  8
0
 10
4163.3619001390634367
 20
259.7686807860338263
 30
0.0
 40
0.0540233208041313
 50
88.8248753170278462
 51
178.736269919811491
  0
ARC
  5
18D39
  8
0
 10
4163.3641159982216777
 20
259.768680786203106
 30
0.0
 40
0.0540233206362214
 50
1.263729904559145
 51
91.1751247547429671
  0
ARC
  5
18D3A
  8
0
 10
4170.2538797776333013
 20
260.1483530066636263
 30
0.0
 40
0.0540233208293629
 50
268.8248753437139271
 51
358.7362698930994043
  0
ARC
  5
18D3B
  8
0
 10
4170.2516639185214444
 20
260.1483530064919023
 30
0.0
 40
0.0540233206590802
 50
181.2637299287617907
 51
271.1751247305588208
  0
ARC
  5
18D3C
  8
0
 10
4170.2538797776569481
 20
259.7686807860338263
 30
0.0
 40
0.0540233208041313
 50
1.2637300801884559
 51
91.1751246829721254
  0
ARC
  5
18D3D
  8
0
 10
4170.2516639184996166
 20
259.768680786203106
 30
0.0
 40
0.0540233206362214
 50
88.8248752452570187
 51
178.7362700954408012
  0
CIRCLE
  5
18D3E
  8
0
 10
4161.9023781474097632
 20
251.690800361035798
 30
0.0
 40
0.0551181103000005
  0
CIRCLE
  5
18D3F
  8
0
 10
4161.902378147359741
 20
252.4782019357857905
 30
0.0
 40
0.0551181102500031
  0
CIRCLE
  5
18D40
  8
0
 10
4161.902378147359741
 20
253.2656035105858052
 30
0.0
 40
0.0551181102500031
  0
CIRCLE
  5
18D41
  8
0
 10
4161.902378147359741
 20
254.0530050853857915
 30
0.0
 40
0.0551181102500031
  0
CIRCLE
  5
18D42
  8
0
 10
4161.902378147359741
 20
254.8404066601858062
 30
0.0
 40
0.0551181102500031
  0
CIRCLE
  5
18D43
  8
0
 10
4161.902378147359741
 20
255.6278082349857925
 30
0.0
 40
0.0551181102500031
  0
CIRCLE
  5
18D44
  8
0
 10
4161.902378147359741
 20
256.4152098098858232
 30
0.0
 40
0.0551181102500031
  0
CIRCLE
  5
18D45
  8
0
 10
4161.902378147359741
 20
257.2026113846857811
 30
0.0
 40
0.0551181102500031
  0
CIRCLE
  5
18D46
  8
0
 10
4161.902378147359741
 20
257.9900129594857958
 30
0.0
 40
0.0551181102500031
  0
CIRCLE
  5
18D47
  8
0
 10
4161.902378147359741
 20
258.7774145342858105
 30
0.0
 40
0.0551181102500031
  0
CIRCLE
  5
18D48
  8
0
 10
4161.902378147359741
 20
259.5648161090858252
 30
0.0
 40
0.0551181102500031
  0
CIRCLE
  5
18D49
  8
0
 10
4161.902378147359741
 20
260.3522176838857831
 30
0.0
 40
0.0551181102500031
  0
CIRCLE
  5
18D4A
  8
0
 10
4161.902378147359741
 20
261.1396192586857978
 30
0.0
 40
0.0551181102500031
  0
CIRCLE
  5
18D4B
  8
0
 10
4171.7134017693097121
 20
251.690800361035798
 30
0.0
 40
0.0551181103000005
  0
CIRCLE
  5
18D4C
  8
0
 10
4171.7134017693606438
 20
252.4782019357857905
 30
0.0
 40
0.0551181102500031
  0
CIRCLE
  5
18D4D
  8
0
 10
4171.7134017693606438
 20
253.2656035105858052
 30
0.0
 40
0.0551181102500031
  0
CIRCLE
  5
18D4E
  8
0
 10
4171.7134017693606438
 20
254.0530050853857915
 30
0.0
 40
0.0551181102500031
  0
CIRCLE
  5
18D4F
  8
0
 10
4171.7134017693606438
 20
254.8404066601858062
 30
0.0
 40
0.0551181102500031
  0
CIRCLE
  5
18D50
  8
0
 10
4171.7134017693606438
 20
255.6278082349857925
 30
0.0
 40
0.0551181102500031
  0
CIRCLE
  5
18D51
  8
0
 10
4171.7134017693606438
 20
256.4152098098858232
 30
0.0
 40
0.0551181102500031
  0
CIRCLE
  5
18D52
  8
0
 10
4171.7134017693606438
 20
257.2026113846857811
 30
0.0
 40
0.0551181102500031
  0
CIRCLE
  5
18D53
  8
0
 10
4171.7134017693606438
 20
257.9900129594857958
 30
0.0
 40
0.0551181102500031
  0
CIRCLE
  5
18D54
  8
0
 10
4171.7134017693606438
 20
258.7774145342858105
 30
0.0
 40
0.0551181102500031
  0
CIRCLE
  5
18D55
  8
0
 10
4171.7134017693606438
 20
259.5648161090858252
 30
0.0
 40
0.0551181102500031
  0
CIRCLE
  5
18D56
  8
0
 10
4171.7134017693606438
 20
260.3522176838857831
 30
0.0
 40
0.0551181102500031
  0
CIRCLE
  5
18D57
  8
0
 10
4171.7134017693606438
 20
261.1396192586857978
 30
0.0
 40
0.0551181102500031
  0
LINE
  5
18D58
  8
0
 10
4163.4181261788098709
 20
251.6356822507358117
 30
0.0
 11
4163.4181261788098709
 21
250.3285956365857885
 31
0.0
  0
POINT
  5
18D5A
  8
DEFPOINTS
 10
4146.5126143678098742
 20
263.1868633531357773
 30
0.0
  0
LINE
  5
18D5B
  8
0
 10
4148.0347470692104253
 20
260.4181399672357884
 30
0.0
 11
4155.581032847510869
 21
260.4181399668357813
 31
0.0
  0
LINE
  5
18D5C
  8
0
 10
4155.9100855227106877
 20
260.0890247929357884
 30
0.0
 11
4155.9041779225099162
 21
250.1347727845358122
 31
0.0
  0
LINE
  5
18D5D
  8
0
 10
4155.5718385373102137
 20
249.8033557052357878
 30
0.0
 11
4148.0439416588096719
 21
249.803199277335807
 31
0.0
  0
LINE
  5
18D5E
  8
0
 10
4147.7116020061102972
 20
250.1347727845358122
 30
0.0
 11
4147.7056944022106109
 21
260.0890247928358008
 31
0.0
  0
ARC
  5
18D5F
  8
0
 10
4148.0363146130166569
 20
260.0875200482095124
 30
0.0
 40
0.3306236350453264
 50
90.2716502128709379
 51
179.7392327564029131
  0
ARC
  5
18D60
  8
0
 10
4155.5794652977147052
 20
260.0875200335830755
 30
0.0
 40
0.3306236492998451
 50
0.2607697843884922
 51
89.7283487611717447
  0
ARC
  5
18D61
  8
0
 10
4155.571602583881031
 20
250.1359329838541044
 30
0.0
 40
0.3325773623191885
 50
270.040649600207928
 51
359.8001227182148796
  0
ARC
  5
18D62
  8
0
 10
4148.0444454815306017
 20
250.1360448020492981
 30
0.0
 40
0.3328459060273182
 50
180.2189644249091884
 51
269.9132724000367034
  0
ARC
  5
18D63
  8
0
 10
4129.6483152999599042
 20
262.686942555403391
 30
0.0
 40
0.2941633549711804
 50
90.1316512598343422
 51
179.880265500294513
  0
LINE
  5
18D64
  8
0
 10
4129.6476393873099369
 20
262.981105133835797
 30
0.0
 11
4142.9838885817098344
 21
262.9811170707358201
 31
0.0
  0
ARC
  5
18D65
  8
0
 10
4142.9831894093304072
 20
262.6869274019568934
 30
0.0
 40
0.2941904996056394
 50
0.1226763244975623
 51
89.8638308704027367
  0
LINE
  5
18D66
  8
0
 10
4143.2773792346033588
 20
262.6875572944538817
 30
0.0
 11
4143.2773817132101613
 21
250.1428623664357929
 31
0.0
  0
ARC
  5
18D67
  8
0
 10
4142.9832080831720305
 20
250.1434879940086944
 30
0.0
 40
0.2941742953072797
 50
270.1325354996143915
 51
359.8781475911832786
  0
LINE
  5
18D68
  8
0
 10
4129.6476394331102711
 20
249.849290600235804
 30
0.0
 11
4142.9838885609106001
 21
249.849314485735789
 31
0.0
  0
ARC
  5
18D69
  8
0
 10
4129.6483590315756373
 20
250.1435007025833102
 30
0.0
 40
0.2942109823669231
 50
180.1243201523234063
 51
269.8598624842525737
  0
ARC
  5
18D6A
  8
0
 10
6600.4792374741336971
 20
256.4144522921944827
 30
0.0
 40
2471.1330472079362153
 50
179.8545514062716961
 51
180.1454134661435091
  0
CIRCLE
  5
18D6B
  8
0
 10
4163.3630080685597932
 20
262.5018239830857851
 30
0.0
 40
0.0551181102499969
  0
LINE
  5
18D6C
  8
0
 10
4165.0303309032096877
 20
261.1947373688357743
 30
0.0
 11
4165.0303309032096877
 21
262.5018239830857851
 31
0.0
  0
LINE
  5
18D6D
  8
0
 10
4165.1405671237098431
 20
261.1947373688357743
 30
0.0
 11
4165.1405671237098431
 21
262.5018239830857851
 31
0.0
  0
CIRCLE
  5
18D6E
  8
0
 10
4165.0854490134597654
 20
262.5018239830857851
 30
0.0
 40
0.0551181102499969
  0
LINE
  5
18D6F
  8
0
 10
4166.7527718481096599
 20
261.1947373688357743
 30
0.0
 11
4166.7527718481096599
 21
262.5018239830857851
 31
0.0
  0
LINE
  5
18D70
  8
0
 10
4166.8630080686098154
 20
261.1947373688357743
 30
0.0
 11
4166.8630080686098154
 21
262.5018239830857851
 31
0.0
  0
CIRCLE
  5
18D71
  8
0
 10
4166.8078899583597376
 20
262.5018239830857851
 30
0.0
 40
0.0551181102499969
  0
LINE
  5
18D72
  8
0
 10
4168.4752127930096322
 20
261.1947373688357743
 30
0.0
 11
4168.4752127930096322
 21
262.5018239830857851
 31
0.0
  0
LINE
  5
18D73
  8
0
 10
4168.5854490135106971
 20
261.1947373688357743
 30
0.0
 11
4168.5854490135106971
 21
262.5018239830857851
 31
0.0
  0
CIRCLE
  5
18D74
  8
0
 10
4168.5303309032597099
 20
262.5018239830857851
 30
0.0
 40
0.0551181102499969
  0
LINE
  5
18D75
  8
0
 10
4170.1976537379096044
 20
261.1947373688357743
 30
0.0
 11
4170.1976537379096044
 21
262.5018239830857851
 31
0.0
  0
LINE
  5
18D76
  8
0
 10
4170.3078899584106694
 20
261.1947373688357743
 30
0.0
 11
4170.3078899584106694
 21
262.5018239830857851
 31
0.0
  0
CIRCLE
  5
18D77
  8
0
 10
4170.2527718481605916
 20
262.5018239830857851
 30
0.0
 40
0.0551181102499969
  0
CIRCLE
  5
18D78
  8
0
 10
4163.3630080685597932
 20
250.3285956365857885
 30
0.0
 40
0.0551181102499996
  0
LINE
  5
18D79
  8
0
 10
4165.0303309032096877
 20
250.3285956365857885
 30
0.0
 11
4165.0303309032096877
 21
251.6356822507358117
 31
0.0
  0
LINE
  5
18D7A
  8
0
 10
4165.1405671237098431
 20
251.6356822507358117
 30
0.0
 11
4165.1405671237098431
 21
250.3285956365857885
 31
0.0
  0
CIRCLE
  5
18D7B
  8
0
 10
4165.0854490134597654
 20
250.3285956365857885
 30
0.0
 40
0.0551181102499996
  0
LINE
  5
18D7C
  8
0
 10
4166.7527718481096599
 20
250.3285956365857885
 30
0.0
 11
4166.7527718481096599
 21
251.6356822507358117
 31
0.0
  0
LINE
  5
18D7D
  8
0
 10
4166.8630080686098154
 20
251.6356822507358117
 30
0.0
 11
4166.8630080686098154
 21
250.3285956365857885
 31
0.0
  0
CIRCLE
  5
18D7E
  8
0
 10
4166.8078899583597376
 20
250.3285956365857885
 30
0.0
 40
0.0551181102499996
  0
LINE
  5
18D7F
  8
0
 10
4168.4752127930096322
 20
250.3285956365857885
 30
0.0
 11
4168.4752127930096322
 21
251.6356822507358117
 31
0.0
  0
LINE
  5
18D80
  8
0
 10
4168.5854490135106971
 20
251.6356822507358117
 30
0.0
 11
4168.5854490135106971
 21
250.3285956365857885
 31
0.0
  0
CIRCLE
  5
18D81
  8
0
 10
4168.5303309032597099
 20
250.3285956365857885
 30
0.0
 40
0.0551181102499996
  0
LINE
  5
18D82
  8
0
 10
4170.1976537379096044
 20
250.3285956365857885
 30
0.0
 11
4170.1976537379096044
 21
251.6356822507358117
 31
0.0
  0
LINE
  5
18D83
  8
0
 10
4170.3078899584106694
 20
251.6356822507358117
 30
0.0
 11
4170.3078899584106694
 21
250.3285956365857885
 31
0.0
  0
CIRCLE
  5
18D84
  8
0
 10
4170.2527718481605916
 20
250.3285956365857885
 30
0.0
 40
0.0551181102499996
  0
LINE
  5
18D85
  8
0
 10
4161.6258890080107449
 20
261.415209809835801
 30
0.0
 11
4161.6258890080107449
 21
259.8404066602357716
 31
0.0
  0
LINE
  5
18D86
  8
0
 10
4161.6258890080107449
 20
251.415209809835801
 30
0.0
 11
4161.6258890080107449
 21
252.990012959435802
 31
0.0
  0
LINE
  5
18D87
  8
0
 10
4161.6504096433109225
 20
251.4545798885357897
 30
0.0
 11
4161.6504096433109225
 21
261.3758397310357964
 31
0.0
  0
LINE
  5
18D88
  8
0
 10
4171.9898909087105494
 20
261.415209809835801
 30
0.0
 11
4171.9898909087105494
 21
259.8404066602357716
 31
0.0
  0
LINE
  5
18D89
  8
0
 10
4171.9898909087105494
 20
252.990012959435802
 30
0.0
 11
4171.9898909087105494
 21
251.415209809835801
 31
0.0
  0
LINE
  5
18D8A
  8
0
 10
4171.9653702734112812
 20
261.3758397310357964
 30
0.0
 11
4171.9653702734112812
 21
251.4545798885357897
 31
0.0
  0
LINE
  5
18D8B
  8
0
 10
4156.2842679111099642
 20
262.7409643251544935
 30
0.0
 11
4156.2842679111099642
 21
259.534907808135813
 31
0.0
  0
LINE
  5
18D8C
  8
0
 10
4156.5047403521111846
 20
262.7409643251544935
 30
0.0
 11
4156.5047403521111846
 21
259.5349270913358168
 31
0.0
  0
ARC
  5
18D8D
  8
0
 10
4156.3945041316101197
 20
263.3049735893358161
 30
0.0
 40
0.8267716534999999
 50
277.6712871415119821
 51
262.3288211317944274
  0
ARC
  5
18D8E
  8
0
 10
4156.3945041316101197
 20
263.3049735893358161
 30
0.0
 40
0.5746811937
 50
281.0591051843210835
 51
258.9408948156789165
  0
CIRCLE
  5
18D8F
  8
0
 10
4156.3945041316101197
 20
263.3049735893358161
 30
0.0
 40
0.4400161866
  0
ARC
  5
18D90
  8
0
 10
4156.3713408100866218
 20
259.5331970422196832
 30
0.0
 40
0.0870897035028902
 50
178.8744252445303005
 51
224.4775857803768133
  0
ARC
  5
18D91
  8
0
 10
4156.3860342100933849
 20
259.5441136157559754
 30
0.0
 40
0.1052521098316818
 50
223.113601998750994
 51
256.7469012898283722
  0
ARC
  5
18D92
  8
0
 10
4156.3954067331333135
 20
259.5635584243656808
 30
0.0
 40
0.1264138306561572
 50
254.6320021096890116
 51
288.1123414244295873
  0
ARC
  5
18D93
  8
0
 10
4156.4034247464669534
 20
259.5417257488957148
 30
0.0
 40
0.1031737069144194
 50
287.6495530935757188
 51
329.7911851683596751
  0
ARC
  5
18D94
  8
0
 10
4156.4002609797289551
 20
259.5388791437247846
 30
0.0
 40
0.1045540911264472
 50
332.0121808799109999
 51
357.8337540358754723
  0
ATTDEF
  5
18D95
  8
DEFPOINTS
 10
4142.6163513071505804
 20
256.4143033653019188
 30
0.0
 40
0.001
  1
K-23053T-2HD
  3

  2
MODELNUMBER
 70
     0
1001
ACDBATTR
1070
     0
1070
     1
  0
ATTDEF
  5
18D96
  8
DEFPOINTS
 10
4142.6162254974933603
 20
256.4126365249226751
 30
0.0
 40
0.001
  1
CUFF
  3

  2
TRADENAME
 70
     0
1001
ACDBATTR
1070
     0
1070
     1
  0
ATTDEF
  5
18D97
  8
DEFPOINTS
 10
4142.6163513071505804
 20
256.4109700319684748
 30
0.0
 40
0.001
  1
KITCHEN SINK
  3

  2
PRODUCT
 70
     0
1001
ACDBATTR
1070
     0
1070
     1
  0
ENDSEC
  0
EOF
