  0
SECTION
  2
HEADER
  9
$ACADVER
  1
AC1009
  9
$INSBASE
 10
4216.8102338233193223
 20
179.7028975221892892
 30
0.0
  9
$EXTMIN
 10
4207.2424190432384421
 20
171.8010162126325042
 30
-0.0000000000112498
  9
$EXTMAX
 10
4226.1541059717583266
 20
181.7908951472182935
 30
0.0000000000002956
  9
$LIMMIN
 10
0.0
 20
0.0
  9
$LIMMAX
 10
11.6929133858000007
 20
8.2677165353999982
  9
$ORTHOMODE
 70
     0
  9
$REGENMODE
 70
     1
  9
$FILLMODE
 70
     1
  9
$QTEXTMODE
 70
     0
  9
$MIRRTEXT
 70
     0
  9
$DRAGMODE
 70
     2
  9
$LTSCALE
 40
0.6431102362
  9
$OSMODE
 70
  4095
  9
$ATTMODE
 70
     1
  9
$TEXTSIZE
 40
0.2
  9
$TRACEWID
 40
0.05
  9
$TEXTSTYLE
  7
STANDARD
  9
$CLAYER
  8
0
  9
$CELTYPE
  6
BYLAYER
  9
$CECOLOR
 62
   256
  9
$DIMSCALE
 40
1.0
  9
$DIMASZ
 40
0.1875
  9
$DIMEXO
 40
0.0625
  9
$DIMDLI
 40
0.4443307087
  9
$DIMRND
 40
0.0
  9
$DIMDLE
 40
0.0
  9
$DIMEXE
 40
0.125
  9
$DIMTP
 40
0.01
  9
$DIMTM
 40
0.01
  9
$DIMTXT
 40
2.0
  9
$DIMCEN
 40
0.1052362205
  9
$DIMTSZ
 40
0.0
  9
$DIMTOL
 70
     1
  9
$DIMLIM
 70
     0
  9
$DIMTIH
 70
     1
  9
$DIMTOH
 70
     1
  9
$DIMSE1
 70
     0
  9
$DIMSE2
 70
     0
  9
$DIMTAD
 70
     0
  9
$DIMZIN
 70
     0
  9
$DIMBLK
  1

  9
$DIMASO
 70
     1
  9
$DIMSHO
 70
     1
  9
$DIMPOST
  1
\X
  9
$DIMAPOST
  1

  9
$DIMALT
 70
     1
  9
$DIMALTD
 70
     2
  9
$DIMALTF
 40
25.3999999999999986
  9
$DIMLFAC
 40
1.0
  9
$DIMTOFL
 70
     0
  9
$DIMTVP
 40
0.0
  9
$DIMTIX
 70
     0
  9
$DIMSOXD
 70
     0
  9
$DIMSAH
 70
     0
  9
$DIMBLK1
  1

  9
$DIMBLK2
  1

  9
$DIMSTYLE
  2
STANDARD
  9
$DIMCLRD
 70
     0
  9
$DIMCLRE
 70
     0
  9
$DIMCLRT
 70
     0
  9
$DIMTFAC
 40
1.0
  9
$DIMGAP
 40
0.09
  9
$LUNITS
 70
     2
  9
$LUPREC
 70
     4
  9
$SKETCHINC
 40
0.1
  9
$FILLETRAD
 40
0.0
  9
$AUNITS
 70
     0
  9
$AUPREC
 70
     0
  9
$MENU
  1
.
  9
$ELEVATION
 40
0.0
  9
$PELEVATION
 40
0.0
  9
$THICKNESS
 40
0.0
  9
$LIMCHECK
 70
     0
  9
$BLIPMODE
 70
     0
  9
$CHAMFERA
 40
0.0
  9
$CHAMFERB
 40
0.0
  9
$SKPOLY
 70
     0
  9
$TDCREATE
 40
2458060.468368056230247
  9
$TDUPDATE
 40
2459166.7373842601664364
  9
$TDINDWG
 40
0.4385371528
  9
$TDUSRTIMER
 40
0.4385371528
  9
$USRTIMER
 70
     1
  9
$ANGBASE
 50
0.0
  9
$ANGDIR
 70
     0
  9
$PDMODE
 70
     0
  9
$PDSIZE
 40
0.3125
  9
$PLINEWID
 40
0.0
  9
$COORDS
 70
     1
  9
$SPLFRAME
 70
     0
  9
$SPLINETYPE
 70
     6
  9
$SPLINESEGS
 70
     8
  9
$ATTDIA
 70
     1
  9
$ATTREQ
 70
     1
  9
$HANDLING
 70
     1
  9
$HANDSEED
  5
18A78
  9
$SURFTAB1
 70
     6
  9
$SURFTAB2
 70
     6
  9
$SURFTYPE
 70
     6
  9
$SURFU
 70
     6
  9
$SURFV
 70
     6
  9
$UCSNAME
  2

  9
$UCSORG
 10
0.0
 20
0.0
 30
0.0
  9
$UCSXDIR
 10
1.0
 20
0.0
 30
0.0
  9
$UCSYDIR
 10
0.0
 20
1.0
 30
0.0
  9
$PUCSNAME
  2

  9
$PUCSORG
 10
0.0
 20
0.0
 30
0.0
  9
$PUCSXDIR
 10
1.0
 20
0.0
 30
0.0
  9
$PUCSYDIR
 10
0.0
 20
1.0
 30
0.0
  9
$USERI1
 70
     0
  9
$USERI2
 70
     0
  9
$USERI3
 70
     0
  9
$USERI4
 70
     0
  9
$USERI5
 70
     0
  9
$USERR1
 40
0.0
  9
$USERR2
 40
0.0
  9
$USERR3
 40
0.0
  9
$USERR4
 40
0.0
  9
$USERR5
 40
0.0
  9
$WORLDVIEW
 70
     1
  9
$SHADEDGE
 70
     3
  9
$SHADEDIF
 70
    70
  9
$TILEMODE
 70
     1
  9
$MAXACTVP
 70
    64
  9
$PLIMCHECK
 70
     0
  9
$PEXTMIN
 10
1.0000000000000000E+20
 20
1.0000000000000000E+20
 30
1.0000000000000000E+20
  9
$PEXTMAX
 10
-1.0000000000000000E+20
 20
-1.0000000000000000E+20
 30
-1.0000000000000000E+20
  9
$PLIMMIN
 10
0.0
 20
0.0
  9
$PLIMMAX
 10
12.0
 20
9.0
  9
$UNITMODE
 70
     0
  9
$VISRETAIN
 70
     1
  9
$PLINEGEN
 70
     0
  9
$PSLTSCALE
 70
     1
  0
ENDSEC
  0
SECTION
  2
TABLES
  0
TABLE
  2
VPORT
 70
     1
  0
VPORT
  2
*ACTIVE
 70
     0
 10
0.0
 20
0.0
 11
1.0
 21
1.0
 12
305.3329060621853728
 22
44.2163505773863221
 13
0.0
 23
0.0
 14
1.0
 24
1.0
 15
0.0
 25
0.0
 16
0.0
 26
0.0
 36
60.4960186965801583
 17
3911.3653564453120453
 27
132.5796051025390057
 37
0.0
 40
10.1960887647921101
 41
1.861419068736142
 42
50.0
 43
0.0
 44
0.0
 50
0.0
 51
0.0
 71
     0
 72
   100
 73
     1
 74
     1
 75
     0
 76
     0
 77
     0
 78
     0
  0
ENDTAB
  0
TABLE
  2
LTYPE
 70
     2
  0
LTYPE
  2
CONTINUOUS
 70
     0
  3
Solid line
 72
    65
 73
     0
 40
0.0
  0
LTYPE
  2
PHANTOM2
 70
     0
  3
___ _ _ ___ _ _ ___ _ _ ___ _ _
 72
    65
 73
     6
 40
1.25
 49
0.625
 49
-0.125
 49
0.125
 49
-0.125
 49
0.125
 49
-0.125
  0
ENDTAB
  0
TABLE
  2
LAYER
 70
     2
  0
LAYER
  2
0
 70
     0
 62
   255
  6
CONTINUOUS
  0
LAYER
  2
DEFPOINTS
 70
     0
 62
     7
  6
CONTINUOUS
  0
ENDTAB
  0
TABLE
  2
STYLE
 70
     1
  0
STYLE
  2
STANDARD
 70
     0
 40
0.0
 41
0.8
 50
0.0
 71
     0
 42
0.2
  3
txt
  4

  0
ENDTAB
  0
TABLE
  2
VIEW
 70
     0
  0
ENDTAB
  0
TABLE
  2
UCS
 70
     0
  0
ENDTAB
  0
TABLE
  2
APPID
 70
    11
  0
APPID
  2
ACAD
 70
     0
  0
APPID
  2
ACAD_MLEADERVER
 70
     0
  0
APPID
  2
ACAD_EXEMPT_FROM_CAD_STANDARDS
 70
     0
  0
APPID
  2
ACAD_NAV_VCDISPLAY
 70
     0
  0
APPID
  2
ACAECLAYERSTANDARD
 70
     0
  0
APPID
  2
ACCMTRANSPARENCY
 70
     0
  0
APPID
  2
ACAD_DSTYLE_DIMJAG
 70
     0
  0
APPID
  2
ACAD_DSTYLE_DIMTALN
 70
     0
  0
APPID
  2
ACDBATTR
 70
     0
  0
APPID
  2
ACADANNOTATIVE
 70
     0
  0
APPID
  2
DCO15
 70
     0
  0
ENDTAB
  0
TABLE
  2
DIMSTYLE
 70
     1
  0
DIMSTYLE
  2
STANDARD
 70
     0
  3

  4

  5

  6

  7

 40
1.0
 41
0.1875
 42
0.0625
 43
0.38
 44
0.125
 45
0.0
 46
0.0
 47
0.01
 48
0.01
140
0.15625
141
0.09
142
0.0
143
25.3999999999999986
144
1.0
145
0.0
146
1.0
147
0.09
 71
     1
 72
     0
 73
     1
 74
     1
 75
     0
 76
     0
 77
     0
 78
     4
170
     0
171
     2
172
     0
173
     0
174
     0
175
     0
176
     0
177
     0
178
     0
  0
ENDTAB
  0
ENDSEC
  0
SECTION
  2
BLOCKS
  0
BLOCK
  8
0
  2
$MODEL_SPACE
 70
     0
 10
0.0
 20
0.0
 30
0.0
  3
$MODEL_SPACE
  1

  0
ENDBLK
  5
21
  8
0
  0
BLOCK
 67
     1
  8
0
  2
$PAPER_SPACE
 70
     0
 10
0.0
 20
0.0
 30
0.0
  3
$PAPER_SPACE
  1

  0
ENDBLK
  5
1D
 67
     1
  8
0
  0
ENDSEC
  0
SECTION
  2
ENTITIES
  0
LINE
  5
18711
  8
0
 10
4207.5582653193687293
 20
179.7028975221892892
 30
0.0
 11
4207.5582653193687293
 21
179.8603778371893043
 31
0.0
  0
LINE
  5
18712
  8
0
 10
4208.1173204374690613
 20
179.6399593963892869
 30
0.0
 11
4208.1173204374690613
 21
179.1910864985892999
 31
0.0
  0
LINE
  5
18713
  8
0
 10
4208.1488165004693656
 20
179.1910864985892999
 30
0.0
 11
4208.1488165004693656
 21
179.6399593963892869
 31
0.0
  0
LINE
  5
18714
  8
0
 10
4208.1897284026681518
 20
179.5330543829892918
 30
0.0
 11
4208.1841257482692527
 21
179.6399593963892869
 31
0.0
  0
LINE
  5
18715
  8
0
 10
4208.8677914613026587
 20
173.5165478353765138
 30
0.0
 11
4208.5681222236689791
 21
179.2345775187893082
 31
0.0
  0
LINE
  5
18716
  8
0
 10
4210.3141708311686671
 20
179.6399593963892869
 30
0.0
 11
4210.3141708311686671
 21
179.3879368922893036
 31
0.0
  0
LINE
  5
18717
  8
0
 10
4210.8731626810686066
 20
177.0157644015893084
 30
0.0
 11
4210.6896610911680909
 21
179.6399593963892869
 31
0.0
  0
LINE
  5
18718
  8
0
 10
4210.678098389968909
 20
179.8053137270892989
 30
0.0
 11
4210.6756244443686228
 21
179.8406927977893019
 31
0.0
  0
LINE
  5
18719
  8
0
 10
4210.9831303716691764
 20
177.0234540915892865
 30
0.0
 11
4210.8001664972689468
 21
179.6399593963892869
 31
0.0
  0
LINE
  5
1871A
  8
0
 10
4210.7886037960697649
 20
179.8053137270892989
 30
0.0
 11
4210.7861298504685692
 21
179.8406927977893019
 31
0.0
  0
LINE
  5
1871B
  8
0
 10
4211.810233823370254
 20
179.8407461211893121
 30
0.0
 11
4211.810233823370254
 21
179.6045263255892905
 31
0.0
  0
LINE
  5
1871C
  8
0
 10
4211.8889739807691512
 20
179.6045263255892905
 30
0.0
 11
4211.8889739807691512
 21
179.3879368922893036
 31
0.0
  0
LINE
  5
1871D
  8
0
 10
4212.0307062642687015
 20
176.1556534277893036
 30
0.0
 11
4212.0307062642687015
 21
179.6045263255892905
 31
0.0
  0
LINE
  5
1871E
  8
0
 10
4212.1409424847697665
 20
176.1556534277893036
 30
0.0
 11
4212.1409424847697665
 21
179.6045263255892905
 31
0.0
  0
LINE
  5
1871F
  8
0
 10
4213.7793312941175827
 20
179.2929571748393016
 30
0.0
 11
4213.8962544626692761
 21
179.4098803433892897
 31
0.0
  0
LINE
  5
18720
  8
0
 10
4212.8181078390680341
 20
176.1556534277893036
 30
0.0
 11
4212.8181078390680341
 21
179.6045263255892905
 31
0.0
  0
LINE
  5
18721
  8
0
 10
4212.928344059569099
 20
176.1556534277893036
 30
0.0
 11
4212.928344059569099
 21
179.6045263255892905
 31
0.0
  0
LINE
  5
18722
  8
0
 10
4213.3850369729689191
 20
179.6045263255892905
 30
0.0
 11
4213.3850369729689191
 21
179.8406927977893019
 31
0.0
  0
LINE
  5
18723
  8
0
 10
4213.6055094138691857
 20
176.1556534277893036
 30
0.0
 11
4213.6055094138691857
 21
179.4667790550892903
 31
0.0
  0
LINE
  5
18724
  8
0
 10
4213.6055094138691857
 20
179.7006253921892949
 30
0.0
 11
4213.6055094138691857
 21
179.8406927977893019
 31
0.0
  0
LINE
  5
18725
  8
0
 10
4213.7157456343693411
 20
176.1556534277893036
 30
0.0
 11
4213.7157456343693411
 21
179.3565428346892929
 31
0.0
  0
LINE
  5
18726
  8
0
 10
4213.7157456343693411
 20
179.5903891716893099
 30
0.0
 11
4213.7157456343693411
 21
179.8406927977893019
 31
0.0
  0
LINE
  5
18727
  8
0
 10
4218.9906058880687851
 20
171.8421342962892879
 30
0.0
 11
4218.7618728222687423
 21
171.8091967347893103
 31
0.0
  0
LINE
  5
18728
  8
0
 10
4223.3867588082703151
 20
172.1742503098892882
 30
0.0
 11
4219.1734696336698107
 21
172.0271190098893044
 31
0.0
  0
LINE
  5
18729
  8
0
 10
4214.8585948243689927
 20
171.8091967347893103
 30
0.0
 11
4218.7618728222687423
 21
171.8091967347893103
 31
0.0
  0
LINE
  5
1872A
  8
0
 10
4210.2337088383692389
 20
172.1742503098892882
 30
0.0
 11
4214.4469980129688338
 21
172.0271190098893044
 31
0.0
  0
LINE
  5
1872B
  8
0
 10
4214.6298617586689943
 20
171.8421342962892879
 30
0.0
 11
4214.8585948243689927
 21
171.8091967347893103
 31
0.0
  0
LINE
  5
1872C
  8
0
 10
4214.4777784171692474
 20
172.0104906969893079
 30
0.0
 11
4214.5714671819687283
 21
171.8778850606892945
 31
0.0
  0
LINE
  5
1872D
  8
0
 10
4214.4777784171692474
 20
172.7978922717892942
 30
0.0
 11
4214.5714671819687283
 21
172.6652866354893092
 31
0.0
  0
LINE
  5
1872E
  8
0
 10
4214.3929109886694278
 20
176.1556534277893036
 30
0.0
 11
4214.3929109886694278
 21
179.8406927977893019
 31
0.0
  0
LINE
  5
1872F
  8
0
 10
4214.5031472091686737
 20
176.1556534277893036
 30
0.0
 11
4214.5031472091686737
 21
179.8406927977893019
 31
0.0
  0
LINE
  5
18730
  8
0
 10
4218.9906058880687851
 20
172.6295358710893026
 30
0.0
 11
4218.7618728222687423
 21
172.5965983095892966
 31
0.0
  0
LINE
  5
18731
  8
0
 10
4220.8249110906690476
 20
172.8721901910892882
 30
0.0
 11
4219.1734696336698107
 21
172.8145205846892907
 31
0.0
  0
LINE
  5
18732
  8
0
 10
4214.8585948243689927
 20
172.5965983095892966
 30
0.0
 11
4218.7618728222687423
 21
172.5965983095892966
 31
0.0
  0
LINE
  5
18733
  8
0
 10
4210.1922081235697988
 20
172.9631011215892897
 30
0.0
 11
4214.4469980129688338
 21
172.8145205846892907
 31
0.0
  0
LINE
  5
18734
  8
0
 10
4214.6298617586689943
 20
172.6295358710893026
 30
0.0
 11
4214.8585948243689927
 21
172.5965983095892966
 31
0.0
  0
LINE
  5
18735
  8
0
 10
4215.1803125634696698
 20
176.1556534277893036
 30
0.0
 11
4215.1803125634696698
 21
179.8406927977893019
 31
0.0
  0
LINE
  5
18736
  8
0
 10
4215.2905487839680063
 20
176.1556534277893036
 30
0.0
 11
4215.2905487839680063
 21
179.8406927977893019
 31
0.0
  0
LINE
  5
18737
  8
0
 10
4215.9677141382690024
 20
176.1556534277893036
 30
0.0
 11
4215.9677141382690024
 21
179.8406927977893019
 31
0.0
  0
LINE
  5
18738
  8
0
 10
4216.0779503587682484
 20
176.1556534277893036
 30
0.0
 11
4216.0779503587682484
 21
179.8406927977893019
 31
0.0
  0
LINE
  5
18739
  8
0
 10
4219.7242131839693684
 20
179.4098803433892897
 30
0.0
 11
4220.0377748411692664
 21
179.7234420005893014
 31
0.0
  0
LINE
  5
1873A
  8
0
 10
4219.8411363525201523
 20
179.2929571748393016
 30
0.0
 11
4220.154698009769163
 21
179.6065188320893071
 31
0.0
  0
LINE
  5
1873B
  8
0
 10
4216.7551157130692445
 20
176.1556534277893036
 30
0.0
 11
4216.7551157130692445
 21
179.8406927977893019
 31
0.0
  0
LINE
  5
1873C
  8
0
 10
4216.8653519335694
 20
176.1556534277893036
 30
0.0
 11
4216.8653519335694
 21
179.8406927977893019
 31
0.0
  0
LINE
  5
1873D
  8
0
 10
4217.5425172878703961
 20
176.1556534277893036
 30
0.0
 11
4217.5425172878703961
 21
179.8406927977893019
 31
0.0
  0
LINE
  5
1873E
  8
0
 10
4217.6527535083696421
 20
176.1556534277893036
 30
0.0
 11
4217.6527535083696421
 21
179.8406927977893019
 31
0.0
  0
LINE
  5
1873F
  8
0
 10
4213.4657696369686164
 20
179.6065188320893071
 30
0.0
 11
4213.7793312941175827
 21
179.2929571748393016
 31
0.0
  0
LINE
  5
18740
  8
0
 10
4218.3299188626697287
 20
176.1556534277893036
 30
0.0
 11
4218.3299188626697287
 21
179.8406927977893019
 31
0.0
  0
LINE
  5
18741
  8
0
 10
4218.4401550831680652
 20
176.1556534277893036
 30
0.0
 11
4218.4401550831680652
 21
179.8406927977893019
 31
0.0
  0
LINE
  5
18742
  8
0
 10
4220.4837754271693484
 20
175.990299096989304
 30
0.0
 11
4220.2233063926696559
 21
175.990299096989304
 31
0.0
  0
LINE
  5
18743
  8
0
 10
4213.3971612539680791
 20
175.990299096989304
 30
0.0
 11
4213.1366922194692961
 21
175.990299096989304
 31
0.0
  0
LINE
  5
18744
  8
0
 10
4220.6176434269691526
 20
176.1005353174892889
 30
0.0
 11
4220.0894383928689422
 21
176.1005353174892889
 31
0.0
  0
LINE
  5
18745
  8
0
 10
4213.5310292537687928
 20
176.1005353174892889
 30
0.0
 11
4213.0028242196685824
 21
176.1005353174892889
 31
0.0
  0
LINE
  5
18746
  8
0
 10
4211.9728395868687585
 20
176.1005353174892889
 30
0.0
 11
4213.0028242196685824
 21
176.1005353174892889
 31
0.0
  0
LINE
  5
18747
  8
0
 10
4213.5310292537687928
 20
176.1005353174892889
 30
0.0
 11
4220.0894383928689422
 21
176.1005353174892889
 31
0.0
  0
LINE
  5
18748
  8
0
 10
4220.6176434269691526
 20
176.1005353174892889
 30
0.0
 11
4221.6478684040694134
 21
176.1005353174892889
 31
0.0
  0
LINE
  5
18749
  8
0
 10
4213.5826928054693781
 20
179.7234420005893014
 30
0.0
 11
4213.8962544626692761
 21
179.4098803433892897
 31
0.0
  0
LINE
  5
1874A
  8
0
 10
4219.1173204374690613
 20
176.1556534277893036
 30
0.0
 11
4219.1173204374690613
 21
179.8406927977893019
 31
0.0
  0
LINE
  5
1874B
  8
0
 10
4219.2275566579692168
 20
176.1556534277893036
 30
0.0
 11
4219.2275566579692168
 21
179.8406927977893019
 31
0.0
  0
LINE
  5
1874C
  8
0
 10
4219.9047220122693034
 20
179.8406927977893019
 30
0.0
 11
4219.9047220122693034
 21
179.5903891716893099
 31
0.0
  0
LINE
  5
1874D
  8
0
 10
4219.9047220122693034
 20
176.1556534277893036
 30
0.0
 11
4219.9047220122693034
 21
179.3565428346892929
 31
0.0
  0
LINE
  5
1874E
  8
0
 10
4220.0149582327685494
 20
179.8406927977893019
 30
0.0
 11
4220.0149582327685494
 21
179.7006253921892949
 31
0.0
  0
LINE
  5
1874F
  8
0
 10
4220.0149582327685494
 20
176.1556534277893036
 30
0.0
 11
4220.0149582327685494
 21
179.4667790550892903
 31
0.0
  0
LINE
  5
18750
  8
0
 10
4219.1426892294693971
 20
172.7978922717892942
 30
0.0
 11
4219.0490004646690068
 21
172.6652866354893092
 31
0.0
  0
LINE
  5
18751
  8
0
 10
4225.0733995829696141
 20
177.6524147877892972
 30
0.0
 11
4225.2867034488690479
 21
177.8107596707893094
 31
0.0
  0
LINE
  5
18752
  8
0
 10
4225.0478722400694096
 20
177.6447105135893025
 30
0.0
 11
4224.971101326968892
 21
177.6473914128893057
 31
0.0
  0
LINE
  5
18753
  8
0
 10
4225.0829195548703865
 20
177.7614470813892922
 30
0.0
 11
4225.0540693835246202
 21
177.7629590547915939
 31
0.0
  0
LINE
  5
18754
  8
0
 10
4220.2354306736697254
 20
179.8407461211893121
 30
0.0
 11
4220.2354306736697254
 21
179.6045263255892905
 31
0.0
  0
LINE
  5
18755
  8
0
 10
4220.4519661067697598
 20
175.9439665120893039
 30
0.0
 11
4220.4519661067697598
 21
175.990299096989304
 31
0.0
  0
LINE
  5
18756
  8
0
 10
4220.4519661067697598
 20
176.1005353174892889
 30
0.0
 11
4220.4519661067697598
 21
179.3091967347893103
 31
0.0
  0
LINE
  5
18757
  8
0
 10
4220.6921235870695455
 20
176.1556534277893036
 30
0.0
 11
4220.6921235870695455
 21
179.6045263255892905
 31
0.0
  0
LINE
  5
18758
  8
0
 10
4220.8023598075697009
 20
176.1556534277893036
 30
0.0
 11
4220.8023598075697009
 21
179.6045263255892905
 31
0.0
  0
LINE
  5
18759
  8
0
 10
4219.1426892294693971
 20
172.0104906969893079
 30
0.0
 11
4219.0490004646690068
 21
171.8778850606892945
 31
0.0
  0
LINE
  5
1875A
  8
0
 10
4225.1375743733688068
 20
177.8489570126893113
 30
0.0
 11
4225.2632373088254099
 21
177.8423705336811906
 31
0.0
  0
LINE
  5
1875B
  8
0
 10
4225.0673388149689345
 20
178.016154889589302
 30
0.0
 11
4225.0287088524692081
 21
178.0181794000893092
 31
0.0
  0
LINE
  5
1875C
  8
0
 10
4225.0724899917686344
 20
178.1144451980892995
 30
0.0
 11
4225.033860029268908
 21
178.1164697085893067
 31
0.0
  0
LINE
  5
1875D
  8
0
 10
4225.0832044394692275
 20
178.3188890398893136
 30
0.0
 11
4225.0739838245990541
 21
178.319372271826694
 31
0.0
  0
LINE
  5
1875E
  8
0
 10
4221.4795251618688781
 20
176.1556534277893036
 30
0.0
 11
4221.4795251618688781
 21
179.6045263255892905
 31
0.0
  0
LINE
  5
1875F
  8
0
 10
4221.5897613823690335
 20
176.1556534277893036
 30
0.0
 11
4221.5897613823690335
 21
179.6045263255892905
 31
0.0
  0
LINE
  5
18760
  8
0
 10
4225.5031472091686737
 20
179.1910864985892999
 30
0.0
 11
4225.4716511461692789
 21
179.1910864985892999
 31
0.0
  0
LINE
  5
18761
  8
0
 10
4211.692123587068636
 20
179.1910864985892999
 30
0.0
 11
4210.8315547479687666
 21
179.1910864985892999
 31
0.0
  0
LINE
  5
18762
  8
0
 10
4210.7210493418688202
 20
179.1910864985892999
 30
0.0
 11
4210.5110212248691823
 21
179.1910864985892999
 31
0.0
  0
LINE
  5
18763
  8
0
 10
4208.1488165004693656
 20
179.1910864985892999
 30
0.0
 11
4208.1173204374690613
 21
179.1910864985892999
 31
0.0
  0
LINE
  5
18764
  8
0
 10
4221.928344059569099
 20
179.1910864985892999
 30
0.0
 11
4222.7891532429694053
 21
179.1910864985892999
 31
0.0
  0
LINE
  5
18765
  8
0
 10
4222.8996586490693517
 20
179.1910864985892999
 30
0.0
 11
4223.1094464217685527
 21
179.1910864985892999
 31
0.0
  0
LINE
  5
18766
  8
0
 10
4224.267267341769184
 20
179.2304565773893046
 30
0.0
 11
4223.2273402864693708
 21
179.2304565773893046
 31
0.0
  0
LINE
  5
18767
  8
0
 10
4221.7480011794687016
 20
179.3091967347893103
 30
0.0
 11
4221.5897613823690335
 21
179.3091967347893103
 31
0.0
  0
LINE
  5
18768
  8
0
 10
4221.4795251618688781
 20
179.3091967347893103
 30
0.0
 11
4220.8023598075697009
 21
179.3091967347893103
 31
0.0
  0
LINE
  5
18769
  8
0
 10
4220.6921235870695455
 20
179.3091967347893103
 30
0.0
 11
4220.0149582327685494
 21
179.3091967347893103
 31
0.0
  0
LINE
  5
1876A
  8
0
 10
4219.9047220122693034
 20
179.3091967347893103
 30
0.0
 11
4219.8573759124692515
 21
179.3091967347893103
 31
0.0
  0
LINE
  5
1876B
  8
0
 10
4219.8248967924691897
 20
179.3091967347893103
 30
0.0
 11
4219.2275566579692168
 21
179.3091967347893103
 31
0.0
  0
LINE
  5
1876C
  8
0
 10
4219.1173204374690613
 20
179.3091967347893103
 30
0.0
 11
4218.4401550831680652
 21
179.3091967347893103
 31
0.0
  0
LINE
  5
1876D
  8
0
 10
4218.3299188626697287
 20
179.3091967347893103
 30
0.0
 11
4217.6527535083696421
 21
179.3091967347893103
 31
0.0
  0
LINE
  5
1876E
  8
0
 10
4217.5425172878703961
 20
179.3091967347893103
 30
0.0
 11
4216.8653519335694
 21
179.3091967347893103
 31
0.0
  0
LINE
  5
1876F
  8
0
 10
4216.7551157130692445
 20
179.3091967347893103
 30
0.0
 11
4216.0779503587682484
 21
179.3091967347893103
 31
0.0
  0
LINE
  5
18770
  8
0
 10
4215.9677141382690024
 20
179.3091967347893103
 30
0.0
 11
4215.2905487839680063
 21
179.3091967347893103
 31
0.0
  0
LINE
  5
18771
  8
0
 10
4215.1803125634696698
 20
179.3091967347893103
 30
0.0
 11
4214.5031472091686737
 21
179.3091967347893103
 31
0.0
  0
LINE
  5
18772
  8
0
 10
4214.3929109886694278
 20
179.3091967347893103
 30
0.0
 11
4213.7955708541685453
 21
179.3091967347893103
 31
0.0
  0
LINE
  5
18773
  8
0
 10
4213.763091734169393
 20
179.3091967347893103
 30
0.0
 11
4213.7157456343693411
 21
179.3091967347893103
 31
0.0
  0
LINE
  5
18774
  8
0
 10
4213.6055094138691857
 20
179.3091967347893103
 30
0.0
 11
4212.928344059569099
 21
179.3091967347893103
 31
0.0
  0
LINE
  5
18775
  8
0
 10
4212.8181078390680341
 20
179.3091967347893103
 30
0.0
 11
4212.1409424847697665
 21
179.3091967347893103
 31
0.0
  0
LINE
  5
18776
  8
0
 10
4212.0307062642687015
 20
179.3091967347893103
 30
0.0
 11
4211.8724639682686757
 21
179.3091967347893103
 31
0.0
  0
LINE
  5
18777
  8
0
 10
4208.4256251431697819
 20
179.3091967347893103
 30
0.0
 11
4210.3306783448688293
 21
179.3091967347893103
 31
0.0
  0
LINE
  5
18778
  8
0
 10
4223.289786802868548
 20
179.3091967347893103
 30
0.0
 11
4225.1948425035698165
 21
179.3091967347893103
 31
0.0
  0
LINE
  5
18779
  8
0
 10
4222.6566905162690091
 20
179.3485668135892865
 30
0.0
 11
4222.3810999650686426
 21
179.3485668135892865
 31
0.0
  0
LINE
  5
1877A
  8
0
 10
4210.9637771303687259
 20
179.3485668135892865
 30
0.0
 11
4211.2393676815690924
 21
179.3485668135892865
 31
0.0
  0
LINE
  5
1877B
  8
0
 10
4221.8102338233693445
 20
179.6045263255892905
 30
0.0
 11
4220.2354306736697254
 21
179.6045263255892905
 31
0.0
  0
LINE
  5
1877C
  8
0
 10
4213.3850369729689191
 20
179.6045263255892905
 30
0.0
 11
4211.810233823370254
 21
179.6045263255892905
 31
0.0
  0
LINE
  5
1877D
  8
0
 10
4207.8377928784702817
 20
179.6399593963892869
 30
0.0
 11
4211.810233823370254
 21
179.6399593963892869
 31
0.0
  0
LINE
  5
1877E
  8
0
 10
4221.8102338233693445
 20
179.6399593963892869
 30
0.0
 11
4225.7826747681692723
 21
179.6399593963892869
 31
0.0
  0
LINE
  5
1877F
  8
0
 10
4220.0172303627696238
 20
179.7028975221892892
 30
0.0
 11
4220.0149582327685494
 21
179.7028975221892892
 31
0.0
  0
LINE
  5
18780
  8
0
 10
4219.9047220122693034
 20
179.7028975221892892
 30
0.0
 11
4219.2275566579692168
 21
179.7028975221892892
 31
0.0
  0
LINE
  5
18781
  8
0
 10
4219.1173204374690613
 20
179.7028975221892892
 30
0.0
 11
4218.4401550831680652
 21
179.7028975221892892
 31
0.0
  0
LINE
  5
18782
  8
0
 10
4218.3299188626697287
 20
179.7028975221892892
 30
0.0
 11
4217.6527535083696421
 21
179.7028975221892892
 31
0.0
  0
LINE
  5
18783
  8
0
 10
4217.5425172878703961
 20
179.7028975221892892
 30
0.0
 11
4216.8653519335694
 21
179.7028975221892892
 31
0.0
  0
LINE
  5
18784
  8
0
 10
4216.7551157130692445
 20
179.7028975221892892
 30
0.0
 11
4216.0779503587682484
 21
179.7028975221892892
 31
0.0
  0
LINE
  5
18785
  8
0
 10
4215.9677141382690024
 20
179.7028975221892892
 30
0.0
 11
4215.2905487839680063
 21
179.7028975221892892
 31
0.0
  0
LINE
  5
18786
  8
0
 10
4215.1803125634696698
 20
179.7028975221892892
 30
0.0
 11
4214.5031472091686737
 21
179.7028975221892892
 31
0.0
  0
LINE
  5
18787
  8
0
 10
4214.3929109886694278
 20
179.7028975221892892
 30
0.0
 11
4213.7157456343693411
 21
179.7028975221892892
 31
0.0
  0
LINE
  5
18788
  8
0
 10
4213.6055094138691857
 20
179.7028975221892892
 30
0.0
 11
4213.6032372838681113
 21
179.7028975221892892
 31
0.0
  0
LINE
  5
18789
  8
0
 10
4207.5582653193687293
 20
179.7028975221892892
 30
0.0
 11
4207.7575066156696266
 21
179.7028975221892892
 31
0.0
  0
LINE
  5
1878A
  8
0
 10
4225.8629610309681084
 20
179.7028975221892892
 30
0.0
 11
4226.0622023272690058
 21
179.7028975221892892
 31
0.0
  0
LINE
  5
1878B
  8
0
 10
4207.8377928784702817
 20
179.8053137270892989
 30
0.0
 11
4211.810233823370254
 21
179.8053137270892989
 31
0.0
  0
LINE
  5
1878C
  8
0
 10
4221.8102338233693445
 20
179.8053137270892989
 30
0.0
 11
4225.7826747681692723
 21
179.8053137270892989
 31
0.0
  0
LINE
  5
1878D
  8
0
 10
4225.0208892532691607
 20
178.5974016397892967
 30
0.0
 11
4225.0589252130694149
 21
178.594741906389288
 31
0.0
  0
LINE
  5
1878E
  8
0
 10
4225.1289029461549944
 20
177.8486861219232935
 30
0.0
 11
4225.1529678833703656
 21
177.8443076942893128
 31
0.0
  0
LINE
  5
1878F
  8
0
 10
4221.7314936658704028
 20
179.6045263255892905
 30
0.0
 11
4221.7314936658704028
 21
179.3879368922893036
 31
0.0
  0
LINE
  5
18790
  8
0
 10
4221.8102338233693445
 20
179.6045263255892905
 30
0.0
 11
4221.8102338233693445
 21
179.8407467979893113
 31
0.0
  0
LINE
  5
18791
  8
0
 10
4222.451640958369353
 20
179.1910864985892999
 30
0.0
 11
4222.302601797801799
 21
176.3472499040668993
 31
0.0
  0
LINE
  5
18792
  8
0
 10
4222.2948930556831328
 20
176.2001583435001919
 30
0.0
 11
4222.1908276799686064
 21
174.2144726850893051
 31
0.0
  0
LINE
  5
18793
  8
0
 10
4210.5700763429686049
 20
179.8406927977893019
 30
0.0
 11
4211.810233823370254
 21
179.8406927977893019
 31
0.0
  0
LINE
  5
18794
  8
0
 10
4213.3850369729689191
 20
179.8406927977893019
 30
0.0
 11
4220.2354306736697254
 21
179.8406927977893019
 31
0.0
  0
LINE
  5
18795
  8
0
 10
4221.8102338233693445
 20
179.8406927977893019
 30
0.0
 11
4223.0503913036691301
 21
179.8406927977893019
 31
0.0
  0
LINE
  5
18796
  8
0
 10
4221.8102338233693445
 20
179.8407467979893113
 30
0.0
 11
4220.2354306736697254
 21
179.8407467979893113
 31
0.0
  0
LINE
  5
18797
  8
0
 10
4213.3850369729689191
 20
179.8407467979893113
 30
0.0
 11
4211.810233823370254
 21
179.8407467979893113
 31
0.0
  0
LINE
  5
18798
  8
0
 10
4207.6370054768685804
 20
179.9391179946892976
 30
0.0
 11
4210.4716511460692345
 21
179.9391179946892976
 31
0.0
  0
LINE
  5
18799
  8
0
 10
4223.1488165004693656
 20
179.9391179946892976
 30
0.0
 11
4225.9834621697691546
 21
179.9391179946892976
 31
0.0
  0
LINE
  5
1879A
  8
0
 10
4210.5700763429686049
 20
180.0375431914893056
 30
0.0
 11
4223.0503913036691301
 21
180.0375431914893056
 31
0.0
  0
LINE
  5
1879B
  8
0
 10
4219.7242131839693684
 20
179.4098803433892897
 30
0.0
 11
4219.8411363525201523
 21
179.2929571748393016
 31
0.0
  0
LINE
  5
1879C
  8
0
 10
4222.8345781404696027
 20
179.8406927977893019
 30
0.0
 11
4222.8321041948693164
 21
179.8053137270892989
 31
0.0
  0
LINE
  5
1879D
  8
0
 10
4222.820541493669225
 20
179.6399593963892869
 30
0.0
 11
4222.6375776192689955
 21
177.0234540915892865
 31
0.0
  0
LINE
  5
1879E
  8
0
 10
4222.9450835465686396
 20
179.8406927977893019
 30
0.0
 11
4222.9426096009692628
 21
179.8053137270892989
 31
0.0
  0
LINE
  5
1879F
  8
0
 10
4222.9310468997691714
 20
179.6399593963892869
 30
0.0
 11
4222.7475453098695652
 21
177.0157644015893084
 31
0.0
  0
LINE
  5
187A0
  8
0
 10
4223.306296815469068
 20
179.6399593963892869
 30
0.0
 11
4223.306296815469068
 21
179.3879368922893036
 31
0.0
  0
LINE
  5
187A1
  8
0
 10
4224.2869493829693965
 20
179.2497980653893137
 30
0.0
 11
4224.2879861906685619
 21
179.3091967347893103
 31
0.0
  0
LINE
  5
187A2
  8
0
 10
4225.4716511461692789
 20
179.1910864985892999
 30
0.0
 11
4225.4716511461692789
 21
179.6399593963892869
 31
0.0
  0
LINE
  5
187A3
  8
0
 10
4225.5031472091686737
 20
179.1910864985892999
 30
0.0
 11
4225.5031472091686737
 21
179.6399593963892869
 31
0.0
  0
LINE
  5
187A4
  8
0
 10
4225.0523454229696654
 20
179.2345775187893082
 30
0.0
 11
4224.7526753975689644
 21
173.5165328038893051
 31
0.0
  0
LINE
  5
187A5
  8
0
 10
4225.0287088524692081
 20
178.0181794000893092
 30
0.0
 11
4225.033860029268908
 21
178.1164697085893067
 31
0.0
  0
LINE
  5
187A6
  8
0
 10
4225.0832044394692275
 20
178.3188890398893136
 30
0.0
 11
4225.0724899917686344
 21
178.1144451980892995
 31
0.0
  0
LINE
  5
187A7
  8
0
 10
4225.0478722400694096
 20
177.6447105135893025
 30
0.0
 11
4225.0673388149689345
 21
178.016154889589302
 31
0.0
  0
LINE
  5
187A8
  8
0
 10
4225.0911842480718406
 20
178.4711528579798028
 30
0.0
 11
4225.0954950186696806
 21
178.5534072603892923
 31
0.0
  0
LINE
  5
187A9
  8
0
 10
4225.167322706768573
 20
178.4165890282893088
 30
0.0
 11
4225.1374784079689562
 21
177.8471258834892978
 31
0.0
  0
LINE
  5
187AA
  8
0
 10
4225.4363418983693919
 20
179.6399593963892869
 30
0.0
 11
4225.4307392440687181
 21
179.5330543829892918
 31
0.0
  0
LINE
  5
187AB
  8
0
 10
4225.2868783201693077
 20
177.8118879484893
 30
0.0
 11
4225.2867034488690479
 21
177.8107596707893094
 31
0.0
  0
LINE
  5
187AC
  8
0
 10
4225.0733995829696141
 20
177.6524147877892972
 30
0.0
 11
4225.0499327107690988
 21
177.6840266369893016
 31
0.0
  0
LINE
  5
187AD
  8
0
 10
4226.0622023272690058
 20
179.8603778371893043
 30
0.0
 11
4226.0622023272690058
 21
179.7028975221892892
 31
0.0
  0
ARC
  5
187AE
  8
0
 10
4210.2504266541018296
 20
174.4039318891987875
 30
0.0
 40
1.442006483406886
 50
191.2226201732368054
 51
267.6861526035457928
  0
ARC
  5
187AF
  8
0
 10
4210.2831925135533311
 20
173.5907299201581964
 30
0.0
 40
1.4173436846500449
 50
183.0001638527066916
 51
267.999227661515306
  0
ARC
  5
187B0
  8
0
 10
4211.9728395868687585
 20
177.0926613017892919
 30
0.0
 40
1.102362204699999
 50
183.9999999999996874
 51
270.0
  0
ARC
  5
187B1
  8
0
 10
4211.9728395868687585
 20
177.0926613017892919
 30
0.0
 40
0.9921259843000001
 50
183.9999999999996874
 51
270.0
  0
ARC
  5
187B2
  8
0
 10
4213.0028242196685824
 20
175.9666770497892969
 30
0.0
 40
0.1338582677
 50
16.6015495978951186
 51
90.0
  0
ARC
  5
187B3
  8
0
 10
4212.0858243744696665
 20
176.1556534277893036
 30
0.0
 40
0.0551181102
 50
180.0
 51
0.0
  0
ARC
  5
187B4
  8
0
 10
4212.8732259492689991
 20
176.1556534277893036
 30
0.0
 40
0.0551181102
 50
180.0
 51
0.0
  0
ARC
  5
187B5
  8
0
 10
4213.0028242196685824
 20
175.9666770497892969
 30
0.0
 40
0.0236220472
 50
16.6015495978951186
 51
90.0
  0
ARC
  5
187B6
  8
0
 10
4214.642206862268722
 20
172.7152657574893055
 30
0.0
 40
0.0866141732
 50
215.2420365588874915
 51
261.8057366654971929
  0
ARC
  5
187B7
  8
0
 10
4214.642206862268722
 20
171.9278641826892908
 30
0.0
 40
0.0866141732
 50
215.2420365588874915
 51
261.8057366654971929
  0
ARC
  5
187B8
  8
0
 10
4214.4456240170693491
 20
172.7751744890892951
 30
0.0
 40
0.0393700787
 50
35.2420365583067507
 51
88.0000000008827357
  0
ARC
  5
187B9
  8
0
 10
4214.4456240170693491
 20
171.9877729142893088
 30
0.0
 40
0.0393700787
 50
35.2420365583067507
 51
87.999999999579245
  0
ARC
  5
187BA
  8
0
 10
4213.2669267366691201
 20
176.0454172072892902
 30
0.0
 40
0.2519685039
 50
196.6015495993001139
 51
343.3984504006998009
  0
ARC
  5
187BB
  8
0
 10
4213.2669267366691201
 20
176.0454172072892902
 30
0.0
 40
0.1417322835
 50
196.6015495993001139
 51
343.3984504006998009
  0
ARC
  5
187BC
  8
0
 10
4213.5310292537687928
 20
175.9666770497892969
 30
0.0
 40
0.1338582677
 50
90.0
 51
163.3984504021047997
  0
ARC
  5
187BD
  8
0
 10
4215.2354306736688159
 20
176.1556534277893036
 30
0.0
 40
0.0551181102
 50
180.0
 51
0.0
  0
ARC
  5
187BE
  8
0
 10
4216.0228322485691024
 20
176.1556534277893036
 30
0.0
 40
0.0551181102
 50
180.0
 51
0.0
  0
ARC
  5
187BF
  8
0
 10
4214.4480290988685738
 20
176.1556534277893036
 30
0.0
 40
0.0551181102
 50
180.0
 51
0.0
  0
ARC
  5
187C0
  8
0
 10
4213.6606275240701507
 20
176.1556534277893036
 30
0.0
 40
0.0551181102
 50
180.0
 51
0.0
  0
ARC
  5
187C1
  8
0
 10
4213.5310292537687928
 20
175.9666770497892969
 30
0.0
 40
0.0236220472
 50
90.0
 51
163.3984504021047997
  0
ARC
  5
187C2
  8
0
 10
4213.3850369729689191
 20
179.5257861680892972
 30
0.0
 40
0.2795275591
 50
44.9999999999953886
 51
90.0
  0
ARC
  5
187C3
  8
0
 10
4208.4256251431697819
 20
179.5454172072892902
 30
0.0
 40
0.2362204724
 50
183.0000000003996092
 51
269.999999999791612
  0
ARC
  5
187C4
  8
0
 10
4211.692123587068636
 20
179.3879368922893036
 30
0.0
 40
0.1968503937
 50
270.0
 51
0.0
  0
ARC
  5
187C5
  8
0
 10
4210.5110212248691823
 20
179.3879368922893036
 30
0.0
 40
0.1968503937
 50
180.0
 51
270.0
  0
ARC
  5
187C6
  8
0
 10
4210.9637771303687259
 20
179.5257321678892879
 30
0.0
 40
0.1771653543
 50
139.7951936490075013
 51
155.2802139625908069
  0
ARC
  5
187C7
  8
0
 10
4210.9637771303687259
 20
179.5257321678892879
 30
0.0
 40
0.1771653543
 50
212.7486877870890112
 51
270.0
  0
ARC
  5
187C8
  8
0
 10
4211.2393676815690924
 20
179.5257321678892879
 30
0.0
 40
0.1771653543
 50
270.0
 51
40.2045823441929002
  0
ARC
  5
187C9
  8
0
 10
4213.3850369729689191
 20
179.5257861680892972
 30
0.0
 40
0.1141732283
 50
44.9999999999953886
 51
90.0
  0
ARC
  5
187CA
  8
0
 10
4210.5700763429686049
 20
179.9391179946892976
 30
0.0
 40
0.0984251969
 50
90.0
 51
270.0
  0
ARC
  5
187CB
  8
0
 10
4207.8377928784702817
 20
179.7226365617893009
 30
0.0
 40
0.0826771654
 50
90.0
 51
270.0
  0
ARC
  5
187CC
  8
0
 10
4207.6370054768685804
 20
179.8603778371893043
 30
0.0
 40
0.0787401575
 50
90.0
 51
180.0
  0
ARC
  5
187CD
  8
0
 10
4208.4894899768687537
 20
179.2304565773893046
 30
0.0
 40
0.0787401575
 50
3.0000000003996479
 51
90.0
  0
ARC
  5
187CE
  8
0
 10
4218.978260784369013
 20
172.7152657574893055
 30
0.0
 40
0.0866141732
 50
278.1942633345029208
 51
324.7579634411125085
  0
ARC
  5
187CF
  8
0
 10
4218.978260784369013
 20
171.9278641826892908
 30
0.0
 40
0.0866141732
 50
278.1942633345029208
 51
324.7579634411125085
  0
ARC
  5
187D0
  8
0
 10
4219.1748436295692954
 20
172.7751744890892951
 30
0.0
 40
0.0393700787
 50
91.9999999982829735
 51
144.7579634416931924
  0
ARC
  5
187D1
  8
0
 10
4219.1748436295692954
 20
171.9877729142893088
 30
0.0
 40
0.0393700787
 50
91.9999999990651247
 51
144.7579634416931924
  0
ARC
  5
187D2
  8
0
 10
4218.3850369729689191
 20
176.1556534277893036
 30
0.0
 40
0.0551181102
 50
180.0
 51
0.0
  0
ARC
  5
187D3
  8
0
 10
4216.8102338233693445
 20
176.1556534277893036
 30
0.0
 40
0.0551181102
 50
180.0
 51
0.0
  0
ARC
  5
187D4
  8
0
 10
4217.5976353981695866
 20
176.1556534277893036
 30
0.0
 40
0.0551181102
 50
180.0
 51
0.0
  0
ARC
  5
187D5
  8
0
 10
4219.9598401225694033
 20
176.1556534277893036
 30
0.0
 40
0.0551181102
 50
180.0
 51
0.0
  0
ARC
  5
187D6
  8
0
 10
4219.1724385477691612
 20
176.1556534277893036
 30
0.0
 40
0.0551181102
 50
180.0
 51
0.0
  0
ARC
  5
187D7
  8
0
 10
4220.7754274153303413
 20
174.2886698016448861
 30
0.0
 40
1.4173436849419729
 50
272.0007723442723773
 51
356.9992276578702217
  0
ARC
  5
187D8
  8
0
 10
4223.3372751329334278
 20
173.5907299204415892
 30
0.0
 40
1.4173436849385339
 50
272.0007723441681264
 51
356.9992276579998247
  0
ARC
  5
187D9
  8
0
 10
4221.6478684040694134
 20
177.0926613017892919
 30
0.0
 40
1.102362204699999
 50
270.0
 51
356.0000000000002274
  0
ARC
  5
187DA
  8
0
 10
4221.6478684040694134
 20
177.0926613017892919
 30
0.0
 40
0.9921259843000001
 50
270.0
 51
356.0000000000002274
  0
ARC
  5
187DB
  8
0
 10
4220.3535409099686149
 20
176.0454172072892902
 30
0.0
 40
0.2519685039
 50
196.6015495993001139
 51
343.3984504006998009
  0
ARC
  5
187DC
  8
0
 10
4220.3535409099686149
 20
176.0454172072892902
 30
0.0
 40
0.1417322835
 50
196.6015495993001139
 51
343.3984504006998009
  0
ARC
  5
187DD
  8
0
 10
4220.0894383928689422
 20
175.9666770497892969
 30
0.0
 40
0.1338582677
 50
16.6015495978951186
 51
90.0
  0
ARC
  5
187DE
  8
0
 10
4220.6176434269691526
 20
175.9666770497892969
 30
0.0
 40
0.1338582677
 50
90.0
 51
163.3984504021047997
  0
ARC
  5
187DF
  8
0
 10
4221.5346432721680685
 20
176.1556534277893036
 30
0.0
 40
0.0551181102
 50
180.0
 51
0.0
  0
ARC
  5
187E0
  8
0
 10
4220.7472416973687359
 20
176.1556534277893036
 30
0.0
 40
0.0551181102
 50
180.0
 51
0.0
  0
ARC
  5
187E1
  8
0
 10
4220.6176434269691526
 20
175.9666770497892969
 30
0.0
 40
0.0236220472
 50
90.0
 51
163.3984504021047997
  0
ARC
  5
187E2
  8
0
 10
4220.0894383928689422
 20
175.9666770497892969
 30
0.0
 40
0.0236220472
 50
16.6015495978951186
 51
90.0
  0
ARC
  5
187E3
  8
0
 10
4220.2354306736697254
 20
179.5257861680892972
 30
0.0
 40
0.2795275591
 50
90.0
 51
135.0000000000046043
  0
ARC
  5
187E4
  8
0
 10
4225.1948425035698165
 20
179.5454172072892902
 30
0.0
 40
0.2362204724
 50
269.9999999992182893
 51
357.0000000002979732
  0
ARC
  5
187E5
  8
0
 10
4221.928344059569099
 20
179.3879368922893036
 30
0.0
 40
0.1968503937
 50
180.0
 51
270.0
  0
ARC
  5
187E6
  8
0
 10
4223.1094464217685527
 20
179.3879368922893036
 30
0.0
 40
0.1968503937
 50
270.0
 51
0.0
  0
ARC
  5
187E7
  8
0
 10
4222.6566905162690091
 20
179.5257321678892879
 30
0.0
 40
0.1771653543
 50
270.0
 51
327.3565157775786929
  0
ARC
  5
187E8
  8
0
 10
4222.6566905162690091
 20
179.5257321678892879
 30
0.0
 40
0.1771653543
 50
24.6434842223296684
 51
40.2045823441929002
  0
ARC
  5
187E9
  8
0
 10
4222.3810999650686426
 20
179.5257321678892879
 30
0.0
 40
0.1771653543
 50
139.7951936490075013
 51
270.0
  0
ARC
  5
187EA
  8
0
 10
4220.2354306736697254
 20
179.5257861680892972
 30
0.0
 40
0.1141732283
 50
90.0
 51
135.0000000000046043
  0
ARC
  5
187EB
  8
0
 10
4223.0503913036691301
 20
179.9391179946892976
 30
0.0
 40
0.0984251969
 50
270.0
 51
90.0
  0
ARC
  5
187EC
  8
0
 10
4225.7826747681692723
 20
179.7226365617893009
 30
0.0
 40
0.0826771654
 50
270.0
 51
90.0
  0
ARC
  5
187ED
  8
0
 10
4225.9834621697691546
 20
179.8603778371893043
 30
0.0
 40
0.0787401575
 50
0.0
 51
90.0
  0
ARC
  5
187EE
  8
0
 10
4225.1309776697689813
 20
179.2304565773893046
 30
0.0
 40
0.0787401575
 50
90.0
 51
176.9999999996003055
  0
ARC
  5
187EF
  8
0
 10
4225.1173912299691438
 20
178.4192058260892964
 30
0.0
 40
0.05
 50
356.9999999999986926
 51
86.9999999999944151
  0
ARC
  5
187F0
  8
0
 10
4225.0855363526688961
 20
177.8113785580893023
 30
0.0
 40
0.05
 50
266.9999999999943725
 51
356.9999999999986926
  0
ARC
  5
187F1
  8
0
 10
4225.0561788951690687
 20
178.5554677310892941
 30
0.0
 40
0.0393700787
 50
357.0000000033011247
 51
86.0000000005912568
  0
ARC
  5
187F2
  8
0
 10
4224.267267341769184
 20
179.2501416166892909
 30
0.0
 40
0.0196850394
 50
270.0
 51
358.9999999999001261
  0
ARC
  5
187F3
  8
0
 10
4224.9710326271688245
 20
177.6454241081893031
 30
0.0
 40
0.0019685039
 50
88.0000000354007454
 51
176.999999999481588
  0
ARC
  5
187F4
  8
0
 10
4225.0210265691694076
 20
178.5993653484893002
 30
0.0
 40
0.0019685039
 50
176.9999999995125108
 51
265.9999999845020966
  0
LINE
  5
187F5
  8
0
 10
4225.0819720679892271
 20
178.4717970363622044
 30
0.0
 11
4225.1200080277885718
 21
178.4691373029621957
 31
0.0
  0
LINE
  5
187F6
  8
0
 10
4225.0819720679892271
 20
178.4717970363622044
 30
0.0
 11
4225.0739838245990541
 21
178.319372271826694
 31
0.0
  0
LINE
  5
187F7
  8
0
 10
4225.0581182000978515
 20
178.0166381215267108
 30
0.0
 11
4225.0632693768993704
 21
178.1149284300267084
 31
0.0
  0
LINE
  5
187F8
  8
0
 10
4225.1289029461549944
 20
177.8486861219232935
 30
0.0
 11
4225.1289029461549944
 21
177.8087617602770933
 31
0.0
  0
LINE
  5
187F9
  8
0
 10
4225.1354678294073892
 20
177.8087617602770933
 30
0.0
 11
4225.1289029461549944
 21
177.8087617602770933
 31
0.0
  0
ARC
  5
187FA
  8
0
 10
4224.6932876558848875
 20
177.7364854307245992
 30
0.0
 40
0.3892980222341187
 50
347.528470796549982
 51
3.6619731762329599
  0
LINE
  5
187FB
  8
0
 10
4225.2632373088254099
 20
177.8423705336811906
 30
0.0
 11
4225.2868783201693077
 21
177.8118879484893
 31
0.0
  0
ARC
  5
187FC
  8
0
 10
4225.2849513684332123
 20
177.8102540389344881
 30
0.0
 40
0.0025264210704303
 50
40.2954275951742531
 51
53.8394196605385318
  0
ARC
  5
187FD
  8
0
 10
4225.2817048361821435
 20
177.8056769849746104
 30
0.0
 40
0.0081377872044542
 50
54.3995237745604783
 51
64.800544377990775
  0
ARC
  5
187FE
  8
0
 10
4225.259535078661429
 20
177.7532875371877878
 30
0.0
 40
0.0650194259667804
 50
66.7801411521177783
 51
76.4229659479374561
  0
ARC
  5
187FF
  8
0
 10
4224.4458219411808386
 20
174.4665887574228123
 30
0.0
 40
3.4509477828591382
 50
76.100646959271856
 51
78.1755619238901573
  0
LINE
  5
18801
  8
0
 10
4213.0028242196685824
 20
175.9902990970892915
 30
0.0
 11
4211.9728395868687585
 21
175.9902990970892915
 31
0.0
  0
LINE
  5
18802
  8
0
 10
4213.5310292537687928
 20
175.9902990970892915
 30
0.0
 11
4220.0894383928689422
 21
175.9902990970892915
 31
0.0
  0
LINE
  5
18803
  8
0
 10
4220.6176434269691526
 20
175.9902990970892915
 30
0.0
 11
4221.6478684040694134
 21
175.9902990970892915
 31
0.0
  0
LINE
  5
18804
  8
0
 10
4223.1450010753187598
 20
180.0099841363893063
 30
0.0
 11
4224.2549941303186642
 21
180.0099841363893063
 31
0.0
  0
LINE
  5
18805
  8
0
 10
4223.135012580419243
 20
181.6044965667892939
 30
0.0
 11
4223.133726513819056
 21
181.3956329937890075
 31
0.0
  0
LINE
  5
18806
  8
0
 10
4223.132322598018618
 20
181.1676301138896008
 30
0.0
 11
4223.1253164091185681
 21
180.0297903830893063
 31
0.0
  0
LINE
  5
18807
  8
0
 10
4223.1290457392187818
 20
181.7363818581893042
 30
0.0
 11
4223.1283418325192542
 21
181.6557221405892903
 31
0.0
  0
LINE
  5
18808
  8
0
 10
4223.1471915740194163
 20
181.6477794119892906
 30
0.0
 11
4223.146882054418711
 21
181.6123119846893132
 31
0.0
  0
LINE
  5
18809
  8
0
 10
4223.2398282404183192
 20
180.0099841363893063
 30
0.0
 11
4223.2392098009740948
 21
179.9391179946892976
 31
0.0
  0
LINE
  5
1880A
  8
0
 10
4223.2348112603185655
 20
181.7648388087893068
 30
0.0
 11
4223.1388053504188065
 21
181.7479103764893011
 31
0.0
  0
LINE
  5
1880B
  8
0
 10
4224.1601669652181954
 20
180.0099841363893063
 30
0.0
 11
4224.1607854046660577
 21
179.9391179946892976
 31
0.0
  0
LINE
  5
1880C
  8
0
 10
4223.2599814162185794
 20
181.7676229858892896
 30
0.0
 11
4223.2348112603185655
 21
181.7648388087893068
 31
0.0
  0
LINE
  5
1880D
  8
0
 10
4223.6999976028191668
 20
181.7777010732893075
 30
0.0
 11
4223.2599814162185794
 21
181.7676229858892896
 31
0.0
  0
LINE
  5
1880E
  8
0
 10
4224.2610456121192328
 20
181.6084093332893019
 30
0.0
 11
4223.1389495935181913
 21
181.6084093332893019
 31
0.0
  0
LINE
  5
1880F
  8
0
 10
4223.1362302789193564
 20
181.6477794119892906
 30
0.0
 11
4224.2637649267180677
 21
181.6477794119892906
 31
0.0
  0
LINE
  5
18810
  8
0
 10
4223.1388053504188065
 20
181.7479103764893011
 30
0.0
 11
4224.2611898552186176
 21
181.7479103764893011
 31
0.0
  0
LINE
  5
18811
  8
0
 10
4224.2528036316180078
 20
181.6477794119892906
 30
0.0
 11
4224.253113151218713
 21
181.6123119846893132
 31
0.0
  0
LINE
  5
18812
  8
0
 10
4224.2709494664186423
 20
181.7363818581893042
 30
0.0
 11
4224.2716533731190793
 21
181.6557221405892903
 31
0.0
  0
LINE
  5
18813
  8
0
 10
4224.2649826252190906
 20
181.6044965667892939
 30
0.0
 11
4224.274678796518856
 21
180.0297903830893063
 31
0.0
  0
LINE
  5
18814
  8
0
 10
4223.2599814162185794
 20
181.7676229858892896
 30
0.0
 11
4224.1400137894188447
 21
181.7676229858892896
 31
0.0
  0
LINE
  5
18815
  8
0
 10
4223.6999976028191668
 20
181.7777010732893075
 30
0.0
 11
4224.1400137894188447
 21
181.7676229858892896
 31
0.0
  0
LINE
  5
18816
  8
0
 10
4224.1400137894188447
 20
181.7676229858892896
 30
0.0
 11
4224.1651839453188586
 21
181.7648388087893068
 31
0.0
  0
LINE
  5
18817
  8
0
 10
4224.1651839453188586
 20
181.7648388087893068
 30
0.0
 11
4224.2611898552186176
 21
181.7479103764893011
 31
0.0
  0
ARC
  5
18818
  8
0
 10
4223.1063617668187362
 20
173.4076219316893059
 30
0.0
 40
7.9842519684999997
 50
89.7983008282876227
 51
114.1733610074042957
  0
ARC
  5
18819
  8
0
 10
4223.1063617668187362
 20
173.4076219316893059
 30
0.0
 40
7.7637795275999988
 50
89.8026993906294138
 51
113.2660189207806951
  0
ARC
  5
1881A
  8
0
 10
4220.4784621697190232
 20
181.3892336109892938
 30
0.0
 40
0.9587401574999999
 50
227.8242189299054132
 51
242.3066545268989955
  0
ARC
  5
1881B
  8
0
 10
4223.1450010753187598
 20
180.0296691757893086
 30
0.0
 40
0.0196850394
 50
179.6472086818988032
 51
270.0
  0
ARC
  5
1881C
  8
0
 10
4224.2549941303186642
 20
180.0296691757893086
 30
0.0
 40
0.0196850394
 50
270.0
 51
0.3527913180995287
  0
ARC
  5
1881D
  8
0
 10
4224.2591388925193314
 20
181.7362787888893081
 30
0.0
 40
0.0118110236
 50
0.4999999999998307
 51
79.9999999999949836
  0
ARC
  5
1881E
  8
0
 10
4223.1408563131180927
 20
181.7362787888893081
 30
0.0
 40
0.0118110236
 50
100.0000000000050022
 51
179.5000000000001137
  0
ARC
  5
1881F
  8
0
 10
4224.2637796338340195
 20
181.6556534371565022
 30
0.0
 40
0.0078740389021335
 50
269.8929829933777
 51
0.4999296355776896
  0
ARC
  5
18820
  8
0
 10
4223.1362155718052236
 20
181.6556534371565022
 30
0.0
 40
0.0078740389021459
 50
179.5000703644238911
 51
270.107017006309718
  0
ARC
  5
18821
  8
0
 10
4224.2610456920183424
 20
181.6044723253887128
 30
0.0
 40
0.0039370079013554
 50
0.3527913366966482
 51
90.0011627751417365
  0
ARC
  5
18822
  8
0
 10
4223.1389495136209007
 20
181.6044723253887128
 30
0.0
 40
0.0039370079013679
 50
89.9988372250667084
 51
179.6472086633050083
  0
ARC
  5
18823
  8
0
 10
4223.1429451965195767
 20
181.6123463410893066
 30
0.0
 40
0.0039370079
 50
270.0
 51
359.4999999994985842
  0
ARC
  5
18824
  8
0
 10
4224.2570500091196664
 20
181.6123463410893066
 30
0.0
 40
0.0039370079
 50
180.5000000004997105
 51
270.0
  0
ARC
  5
18825
  8
0
 10
4222.5765155425242483
 20
181.2850582289632086
 30
0.0
 40
0.56807644305005
 50
348.0702742898126871
 51
11.2241430999651204
  0
ARC
  5
18826
  8
0
 10
4220.0365574422548889
 20
180.5473293003039998
 30
0.0
 40
0.0079075648709983
 50
242.4337421876589929
 51
293.1267513723469733
  0
ARC
  5
18827
  8
0
 10
4219.840048393930374
 20
180.6845560540660074
 30
0.0
 40
0.0078760211827436
 50
114.2043381084339018
 51
227.7905074890643107
  0
ATTDEF
  5
18828
  8
DEFPOINTS
 10
4216.8102140691153181
 20
179.7017420340991976
 30
0.0
 40
0.001
  1
K-23053T-2HD
  3

  2
MODELNUMBER
 70
     0
1001
ACDBATTR
1070
     0
1070
     1
  0
ATTDEF
  5
18829
  8
DEFPOINTS
 10
4216.8100882594571885
 20
179.7000751937200107
 30
0.0
 40
0.001
  1
CUFF
  3

  2
TRADENAME
 70
     0
1001
ACDBATTR
1070
     0
1070
     1
  0
ATTDEF
  5
1882A
  8
DEFPOINTS
 10
4216.8102140691153181
 20
179.6984087007658957
 30
0.0
 40
0.001
  1
KITCHEN SINK
  3

  2
PRODUCT
 70
     0
1001
ACDBATTR
1070
     0
1070
     1
  0
ENDSEC
  0
EOF
