  0
SECTION
  2
HEADER
  9
$ACADVER
  1
AC1009
  9
$INSBASE
 10
5898.9703588090824269
 20
284.399884051861477
 30
0.0
  9
$EXTMIN
 10
5882.8599442002023352
 20
284.3230956780915903
 30
-0.0000000349181948
  9
$EXTMAX
 10
5914.8992002405138919
 20
305.4115100341334141
 30
0.0000000814935746
  9
$LIMMIN
 10
0.0
 20
0.0
  9
$LIMMAX
 10
11.6929133858000007
 20
8.2677165353999982
  9
$ORTHOMODE
 70
     0
  9
$REGENMODE
 70
     1
  9
$FILLMODE
 70
     1
  9
$QTEXTMODE
 70
     0
  9
$MIRRTEXT
 70
     0
  9
$DRAGMODE
 70
     2
  9
$LTSCALE
 40
0.6431102362
  9
$OSMODE
 70
  4095
  9
$ATTMODE
 70
     1
  9
$TEXTSIZE
 40
0.2
  9
$TRACEWID
 40
0.05
  9
$TEXTSTYLE
  7
STANDARD
  9
$CLAYER
  8
0
  9
$CELTYPE
  6
BYLAYER
  9
$CECOLOR
 62
   256
  9
$DIMSCALE
 40
1.0
  9
$DIMASZ
 40
0.1875
  9
$DIMEXO
 40
0.0625
  9
$DIMDLI
 40
0.4443307087
  9
$DIMRND
 40
0.0
  9
$DIMDLE
 40
0.0
  9
$DIMEXE
 40
0.125
  9
$DIMTP
 40
0.01
  9
$DIMTM
 40
0.01
  9
$DIMTXT
 40
2.0
  9
$DIMCEN
 40
0.1052362205
  9
$DIMTSZ
 40
0.0
  9
$DIMTOL
 70
     1
  9
$DIMLIM
 70
     0
  9
$DIMTIH
 70
     1
  9
$DIMTOH
 70
     1
  9
$DIMSE1
 70
     0
  9
$DIMSE2
 70
     0
  9
$DIMTAD
 70
     0
  9
$DIMZIN
 70
     0
  9
$DIMBLK
  1

  9
$DIMASO
 70
     1
  9
$DIMSHO
 70
     1
  9
$DIMPOST
  1
\X
  9
$DIMAPOST
  1

  9
$DIMALT
 70
     1
  9
$DIMALTD
 70
     2
  9
$DIMALTF
 40
25.3999999999999986
  9
$DIMLFAC
 40
1.0
  9
$DIMTOFL
 70
     0
  9
$DIMTVP
 40
0.0
  9
$DIMTIX
 70
     0
  9
$DIMSOXD
 70
     0
  9
$DIMSAH
 70
     0
  9
$DIMBLK1
  1

  9
$DIMBLK2
  1

  9
$DIMSTYLE
  2
STANDARD
  9
$DIMCLRD
 70
     0
  9
$DIMCLRE
 70
     0
  9
$DIMCLRT
 70
     0
  9
$DIMTFAC
 40
1.0
  9
$DIMGAP
 40
0.09
  9
$LUNITS
 70
     2
  9
$LUPREC
 70
     4
  9
$SKETCHINC
 40
0.1
  9
$FILLETRAD
 40
0.0
  9
$AUNITS
 70
     0
  9
$AUPREC
 70
     0
  9
$MENU
  1
.
  9
$ELEVATION
 40
0.0
  9
$PELEVATION
 40
0.0
  9
$THICKNESS
 40
0.0
  9
$LIMCHECK
 70
     0
  9
$BLIPMODE
 70
     0
  9
$CHAMFERA
 40
0.0
  9
$CHAMFERB
 40
0.0
  9
$SKPOLY
 70
     0
  9
$TDCREATE
 40
2458060.468368056230247
  9
$TDUPDATE
 40
2460223.7864930559881032
  9
$TDINDWG
 40
0.7320903935
  9
$TDUSRTIMER
 40
0.7320903935
  9
$USRTIMER
 70
     1
  9
$ANGBASE
 50
0.0
  9
$ANGDIR
 70
     0
  9
$PDMODE
 70
     0
  9
$PDSIZE
 40
0.3125
  9
$PLINEWID
 40
0.0
  9
$COORDS
 70
     1
  9
$SPLFRAME
 70
     0
  9
$SPLINETYPE
 70
     6
  9
$SPLINESEGS
 70
     8
  9
$ATTDIA
 70
     1
  9
$ATTREQ
 70
     1
  9
$HANDLING
 70
     1
  9
$HANDSEED
  5
2CA30
  9
$SURFTAB1
 70
     6
  9
$SURFTAB2
 70
     6
  9
$SURFTYPE
 70
     6
  9
$SURFU
 70
     6
  9
$SURFV
 70
     6
  9
$UCSNAME
  2

  9
$UCSORG
 10
0.0
 20
0.0
 30
0.0
  9
$UCSXDIR
 10
1.0
 20
0.0
 30
0.0
  9
$UCSYDIR
 10
0.0
 20
1.0
 30
0.0
  9
$PUCSNAME
  2

  9
$PUCSORG
 10
0.0
 20
0.0
 30
0.0
  9
$PUCSXDIR
 10
1.0
 20
0.0
 30
0.0
  9
$PUCSYDIR
 10
0.0
 20
1.0
 30
0.0
  9
$USERI1
 70
     0
  9
$USERI2
 70
     0
  9
$USERI3
 70
     0
  9
$USERI4
 70
     0
  9
$USERI5
 70
     0
  9
$USERR1
 40
0.0
  9
$USERR2
 40
0.0
  9
$USERR3
 40
0.0
  9
$USERR4
 40
0.0
  9
$USERR5
 40
0.0
  9
$WORLDVIEW
 70
     1
  9
$SHADEDGE
 70
     3
  9
$SHADEDIF
 70
    70
  9
$TILEMODE
 70
     1
  9
$MAXACTVP
 70
    64
  9
$PLIMCHECK
 70
     0
  9
$PEXTMIN
 10
1.0000000000000000E+20
 20
1.0000000000000000E+20
 30
1.0000000000000000E+20
  9
$PEXTMAX
 10
-1.0000000000000000E+20
 20
-1.0000000000000000E+20
 30
-1.0000000000000000E+20
  9
$PLIMMIN
 10
0.0
 20
0.0
  9
$PLIMMAX
 10
12.0
 20
9.0
  9
$UNITMODE
 70
     0
  9
$VISRETAIN
 70
     1
  9
$PLINEGEN
 70
     0
  9
$PSLTSCALE
 70
     1
  0
ENDSEC
  0
SECTION
  2
TABLES
  0
TABLE
  2
VPORT
 70
     1
  0
VPORT
  2
*ACTIVE
 70
     0
 10
0.0
 20
0.0
 11
1.0
 21
1.0
 12
1987.5142157750449314
 22
162.2876977535734113
 13
0.0
 23
0.0
 14
1.0
 24
1.0
 15
0.0
 25
0.0
 16
0.0
 26
0.0
 36
60.4960186965801583
 17
3911.3653564453120453
 27
132.5796051025390057
 37
0.0
 40
21.2772658278869393
 41
2.8325859491778771
 42
50.0
 43
0.0
 44
0.0
 50
0.0
 51
0.0
 71
     0
 72
   100
 73
     1
 74
     1
 75
     0
 76
     0
 77
     0
 78
     0
  0
ENDTAB
  0
TABLE
  2
LTYPE
 70
     2
  0
LTYPE
  2
CONTINUOUS
 70
     0
  3
Solid line
 72
    65
 73
     0
 40
0.0
  0
LTYPE
  2
PHANTOM2
 70
     0
  3
___ _ _ ___ _ _ ___ _ _ ___ _ _
 72
    65
 73
     6
 40
1.25
 49
0.625
 49
-0.125
 49
0.125
 49
-0.125
 49
0.125
 49
-0.125
  0
ENDTAB
  0
TABLE
  2
LAYER
 70
     2
  0
LAYER
  2
0
 70
     0
 62
   255
  6
CONTINUOUS
  0
LAYER
  2
DEFPOINTS
 70
     0
 62
     7
  6
CONTINUOUS
  0
ENDTAB
  0
TABLE
  2
STYLE
 70
     1
  0
STYLE
  2
STANDARD
 70
     0
 40
0.0
 41
0.8
 50
0.0
 71
     0
 42
0.2
  3
txt
  4

  0
ENDTAB
  0
TABLE
  2
VIEW
 70
     0
  0
ENDTAB
  0
TABLE
  2
UCS
 70
     0
  0
ENDTAB
  0
TABLE
  2
APPID
 70
    11
  0
APPID
  2
ACAD
 70
     0
  0
APPID
  2
ACAD_MLEADERVER
 70
     0
  0
APPID
  2
ACAD_EXEMPT_FROM_CAD_STANDARDS
 70
     0
  0
APPID
  2
ACAD_NAV_VCDISPLAY
 70
     0
  0
APPID
  2
ACAECLAYERSTANDARD
 70
     0
  0
APPID
  2
ACCMTRANSPARENCY
 70
     0
  0
APPID
  2
ACAD_DSTYLE_DIMJAG
 70
     0
  0
APPID
  2
ACAD_DSTYLE_DIMTALN
 70
     0
  0
APPID
  2
ACDBATTR
 70
     0
  0
APPID
  2
ACADANNOTATIVE
 70
     0
  0
APPID
  2
DCO15
 70
     0
  0
ENDTAB
  0
TABLE
  2
DIMSTYLE
 70
     1
  0
DIMSTYLE
  2
STANDARD
 70
     0
  3

  4

  5

  6

  7

 40
1.0
 41
0.1875
 42
0.0625
 43
0.38
 44
0.125
 45
0.0
 46
0.0
 47
0.01
 48
0.01
140
0.15625
141
0.09
142
0.0
143
25.3999999999999986
144
1.0
145
0.0
146
1.0
147
0.09
 71
     1
 72
     0
 73
     1
 74
     1
 75
     0
 76
     0
 77
     0
 78
     4
170
     0
171
     2
172
     0
173
     0
174
     0
175
     0
176
     0
177
     0
178
     0
  0
ENDTAB
  0
ENDSEC
  0
SECTION
  2
BLOCKS
  0
BLOCK
  8
0
  2
$MODEL_SPACE
 70
     0
 10
0.0
 20
0.0
 30
0.0
  3
$MODEL_SPACE
  1

  0
ENDBLK
  5
21
  8
0
  0
BLOCK
 67
     1
  8
0
  2
$PAPER_SPACE
 70
     0
 10
0.0
 20
0.0
 30
0.0
  3
$PAPER_SPACE
  1

  0
ENDBLK
  5
1D
 67
     1
  8
0
  0
BLOCK
  8
0
  2
_FILLED
 70
     0
 10
0.0
 20
0.0
 30
0.0
  3
_FILLED
  1

  0
SOLID
  5
26C2A
  8
0
  6
BYBLOCK
 62
     0
 10
0.0
 20
0.0
 30
0.0
 11
-1.0
 21
0.1666666667
 31
0.0
 12
-1.0
 22
-0.1666666667
 32
0.0
 13
-1.0
 23
-0.1666666667
 33
0.0
  0
ENDBLK
  5
26C2B
  8
0
  6
BYBLOCK
 62
     0
  0
ENDSEC
  0
SECTION
  2
ENTITIES
  0
ATTDEF
  5
26A5B
  8
DEFPOINTS
 10
5898.9596484410712947
 20
284.3979587357251262
 30
0.0
 40
0.001
  1
K-23074T-GR
  3

  2
MODELNUMBER
 70
     0
1001
ACDBATTR
1070
     0
1070
     1
  0
ATTDEF
  5
26A5C
  8
DEFPOINTS
 10
5898.9595226314131651
 20
284.3962918953458825
 30
0.0
 40
0.001
  1
VOLUTE
  3

  2
TRADENAME
 70
     0
1001
ACDBATTR
1070
     0
1070
     1
  0
ATTDEF
  5
26A5D
  8
DEFPOINTS
 10
5898.9596484410712947
 20
284.3946254023916822
 30
0.0
 40
0.001
  1
BATH
  3

  2
PRODUCT
 70
     0
1001
ACDBATTR
1070
     0
1070
     1
  0
LINE
  5
2C5BE
  8
0
 10
5883.6588925491651025
 20
305.404060891561528
 30
0.0
 11
5914.2818190818989024
 21
305.404060891561528
 31
0.0
  0
LINE
  5
2C5BF
  8
0
 10
5889.0490989665822781
 20
288.0809864140616128
 30
0.0
 11
5908.8916186515816662
 21
288.0809864140616128
 31
0.0
  0
LINE
  5
2C5C0
  8
0
 10
5912.3365005413816107
 20
288.0809864140616128
 30
0.0
 11
5914.2262643208805457
 21
288.0809864140616128
 31
0.0
  0
LINE
  5
2C5C1
  8
0
 10
5889.1253600163818192
 20
288.4746872014615064
 30
0.0
 11
5908.8809039117895736
 21
288.4746872014615064
 31
0.0
  0
LINE
  5
2C5C2
  8
0
 10
5912.3365005413816107
 20
288.4746872014615064
 30
0.0
 11
5914.2262643208805457
 21
288.4746872014615064
 31
0.0
  0
LINE
  5
2C5C3
  8
0
 10
5889.2065792814819361
 20
284.399884051861477
 30
0.0
 11
5889.5215399114822503
 21
284.399884051861477
 31
0.0
  0
LINE
  5
2C5C4
  8
0
 10
5890.497385482682148
 20
284.399884051861477
 30
0.0
 11
5890.8123461126815528
 21
284.399884051861477
 31
0.0
  0
LINE
  5
2C5C5
  8
0
 10
5894.0119263655824398
 20
284.399884051861477
 30
0.0
 11
5894.3268869954818001
 21
284.399884051861477
 31
0.0
  0
LINE
  5
2C5C6
  8
0
 10
5898.812878494081815
 20
284.399884051861477
 30
0.0
 11
5899.1278391240830388
 21
284.399884051861477
 31
0.0
  0
LINE
  5
2C5C7
  8
0
 10
5903.6138306226821442
 20
284.399884051861477
 30
0.0
 11
5903.928791252582414
 21
284.399884051861477
 31
0.0
  0
LINE
  5
2C5C8
  8
0
 10
5907.1283715054823915
 20
284.399884051861477
 30
0.0
 11
5907.4433321354817963
 21
284.399884051861477
 31
0.0
  0
LINE
  5
2C5C9
  8
0
 10
5908.419177706681694
 20
284.399884051861477
 30
0.0
 11
5908.7341383366820082
 21
284.399884051861477
 31
0.0
  0
LINE
  5
2C5CA
  8
0
 10
5889.4624847932809644
 20
284.340828933761486
 30
0.0
 11
5889.9742958169817939
 21
284.340828933761486
 31
0.0
  0
LINE
  5
2C5CB
  8
0
 10
5890.9250832184816318
 20
284.340828933761486
 30
0.0
 11
5891.6613036909820948
 21
284.340828933761486
 31
0.0
  0
LINE
  5
2C5CC
  8
0
 10
5906.2794139271818494
 20
284.340828933761486
 30
0.0
 11
5907.0156343995813586
 21
284.340828933761486
 31
0.0
  0
LINE
  5
2C5CD
  8
0
 10
5907.9664218011821504
 20
284.340828933761486
 30
0.0
 11
5908.478232824782026
 21
284.340828933761486
 31
0.0
  0
LINE
  5
2C5CE
  8
0
 10
5883.2223273129820882
 20
304.5376793274614897
 30
0.0
 11
5914.7183903051818561
 21
304.5376793274614897
 31
0.0
  0
LINE
  5
2C5CF
  8
0
 10
5889.0490989665822781
 20
284.5376793274614897
 30
0.0
 11
5889.0654956234820929
 21
284.5376793274614897
 31
0.0
  0
LINE
  5
2C5D0
  8
0
 10
5889.1169655502817477
 20
284.5376793274614897
 30
0.0
 11
5914.2262643208805457
 21
284.5376793274614897
 31
0.0
  0
LINE
  5
2C5D1
  8
0
 10
5889.0490989665822781
 20
284.4786242093614987
 30
0.0
 11
5889.0490989665822781
 21
288.0809864140616128
 31
0.0
  0
LINE
  5
2C5D2
  8
0
 10
5889.0490989665822781
 20
284.4786242093614987
 30
0.0
 11
5889.688861938782793
 21
284.4786242093614987
 31
0.0
  0
LINE
  5
2C5D3
  8
0
 10
5890.2344640956816875
 20
284.4786242093614987
 30
0.0
 11
5890.9691197664806168
 21
284.4786242093614987
 31
0.0
  0
LINE
  5
2C5D4
  8
0
 10
5893.7562102029805828
 20
284.4786242093614987
 30
0.0
 11
5894.4908658737822407
 21
284.4786242093614987
 31
0.0
  0
LINE
  5
2C5D5
  8
0
 10
5898.6750832184807223
 20
284.4786242093614987
 30
0.0
 11
5899.2656343995813586
 21
284.4786242093614987
 31
0.0
  0
LINE
  5
2C5D6
  8
0
 10
5903.4498517443807941
 20
284.4786242093614987
 30
0.0
 11
5904.184507415180633
 21
284.4786242093614987
 31
0.0
  0
LINE
  5
2C5D7
  8
0
 10
5906.971597851682418
 20
284.4786242093614987
 30
0.0
 11
5907.7062535224831663
 21
284.4786242093614987
 31
0.0
  0
LINE
  5
2C5D8
  8
0
 10
5908.2518556793820608
 20
284.4786242093614987
 30
0.0
 11
5908.8916186515816662
 21
284.4786242093614987
 31
0.0
  0
LINE
  5
2C5D9
  8
0
 10
5914.2262643208805457
 20
304.5376793274614897
 30
0.0
 11
5914.2262643208805457
 21
284.5376793274614897
 31
0.0
  0
ARC
  5
2C5DA
  8
0
 10
5945.6461897322487857
 20
307.4989485309604902
 30
0.0
 40
31.0692435166432617
 50
184.5365959330042926
 51
185.469272885921896
  0
ARC
  5
2C5DB
  8
0
 10
5914.2818190818989024
 20
305.0103608915615041
 30
0.0
 40
0.3937
 50
4.5365959330076224
 51
90.0
  0
ARC
  5
2C5DC
  8
0
 10
5841.1377385235864494
 20
308.4750411220297224
 30
0.0
 40
42.2683738919987206
 50
354.6550641219743056
 51
355.3417544489743136
  0
ARC
  5
2C5DD
  8
0
 10
5883.6588925491651025
 20
305.0103608915615041
 30
0.0
 40
0.3937
 50
90.0
 51
175.3417544489743136
  0
LINE
  5
2C5DE
  8
0
 10
5889.1253600163818192
 20
288.4746872014615064
 30
0.0
 11
5887.1366735095816694
 21
304.5376793274614897
 31
0.0
  0
LINE
  5
2C5DF
  8
0
 10
5889.5215399114822503
 20
288.0809864140614991
 30
0.0
 11
5889.5559842671818842
 21
288.4746872014615064
 31
0.0
  0
LINE
  5
2C5E0
  8
0
 10
5889.4374228689821393
 20
288.4746872014615064
 30
0.0
 11
5889.4352972068209056
 21
288.4503907718669211
 31
0.0
  0
LINE
  5
2C5E1
  8
0
 10
5889.4352972068209056
 20
288.4503907718669211
 30
0.0
 11
5889.5529579980038761
 21
288.4400967864594918
 31
0.0
  0
LINE
  5
2C5E2
  8
0
 10
5912.3365005413816107
 20
284.5376793274614897
 30
0.0
 11
5912.3365005413816107
 21
304.4746213916844226
 31
0.0
  0
ARC
  5
2C5E3
  8
0
 10
5912.2286084550760279
 20
304.5537271958893939
 30
0.0
 40
0.0791241011075544
 50
191.7070502892391062
 51
268.3698062304762857
  0
LINE
  5
2C5E4
  8
0
 10
5912.2263575002016296
 20
304.4746351193061855
 30
0.0
 11
5912.4837577163816604
 21
304.4746030383615221
 31
0.0
  0
ARC
  5
2C5E5
  8
0
 10
5912.4837996793357888
 20
304.5536797955695079
 30
0.0
 40
0.0790767684420045
 50
269.9695953712014784
 51
348.3111229546522054
  0
LINE
  5
2C5E6
  8
0
 10
5908.8916186515816662
 20
284.4786242093614987
 30
0.0
 11
5908.8916186515816662
 21
288.0809864140614991
 31
0.0
  0
LINE
  5
2C5E7
  8
0
 10
5908.8325635334831532
 20
288.0809864140614991
 30
0.0
 11
5910.8531913467813865
 21
304.5376793274614897
 31
0.0
  0
LINE
  5
2C5E8
  8
0
 10
5908.419177706681694
 20
288.0809864140614991
 30
0.0
 11
5908.3847333509820601
 21
288.4746872014615064
 31
0.0
  0
LINE
  5
2C5E9
  8
0
 10
5908.3877596201591587
 20
288.4400967864594918
 30
0.0
 11
5908.5054204113075684
 21
288.4503907715642868
 31
0.0
  0
LINE
  5
2C5EA
  8
0
 10
5908.5054204113075684
 20
288.4503907715642868
 30
0.0
 11
5908.5032947491818049
 21
288.4746872014615064
 31
0.0
  0
LINE
  5
2C5EB
  8
0
 10
5908.8153576017821251
 20
288.4746872014615064
 30
0.0
 11
5910.8010755511813841
 21
304.5376756854615223
 31
0.0
  0
LINE
  5
2C5EC
  8
0
 10
5908.8408445104278144
 20
288.680857428300726
 30
0.0
 11
5908.9052474901263849
 21
288.6729497367176123
 31
0.0
  0
LINE
  5
2C5ED
  8
0
 10
5908.8698738239309023
 20
288.9156830885390264
 30
0.0
 11
5908.9340833718915746
 21
288.907799147386811
 31
0.0
  0
LINE
  5
2C5EE
  8
0
 10
5889.5091681873818743
 20
284.5376793274614897
 30
0.0
 11
5889.5091681873818743
 21
284.4786242093614987
 31
0.0
  0
LINE
  5
2C5EF
  8
0
 10
5889.2065792814819361
 20
284.4786242093614987
 30
0.0
 11
5889.2065792814819361
 21
284.399884051861477
 31
0.0
  0
LINE
  5
2C5F0
  8
0
 10
5889.0654956234820929
 20
284.5376793274614897
 30
0.0
 11
5889.0654956234820929
 21
284.4786242093614987
 31
0.0
  0
LINE
  5
2C5F1
  8
0
 10
5889.1169655502817477
 20
284.5376793274614897
 30
0.0
 11
5889.1169655502817477
 21
284.4786242093614987
 31
0.0
  0
LINE
  5
2C5F2
  8
0
 10
5889.4624847932809644
 20
284.340828933761486
 30
0.0
 11
5889.4477210137820293
 21
284.399884051861477
 31
0.0
  0
LINE
  5
2C5F3
  8
0
 10
5889.5215399114822503
 20
284.4786242093614987
 30
0.0
 11
5889.5215399114822503
 21
284.399884051861477
 31
0.0
  0
LINE
  5
2C5F4
  8
0
 10
5889.688861938782793
 20
284.5376793274614897
 30
0.0
 11
5889.688861938782793
 21
284.4786242093614987
 31
0.0
  0
LINE
  5
2C5F5
  8
0
 10
5890.0136658956816973
 20
284.5376793274614897
 30
0.0
 11
5890.0136658956816973
 21
284.4983092486614851
 31
0.0
  0
LINE
  5
2C5F6
  8
0
 10
5890.0136658956816973
 20
284.4983092486614851
 30
0.0
 11
5889.9742958169817939
 21
284.340828933761486
 31
0.0
  0
LINE
  5
2C5F7
  8
0
 10
5890.2344640956816875
 20
284.5376793274614897
 30
0.0
 11
5890.2344640956816875
 21
284.4786242093614987
 31
0.0
  0
LINE
  5
2C5F8
  8
0
 10
5890.5297396862806636
 20
284.5376793274614897
 30
0.0
 11
5890.5297396862806636
 21
284.4786242093614987
 31
0.0
  0
LINE
  5
2C5F9
  8
0
 10
5890.497385482682148
 20
284.4786242093614987
 30
0.0
 11
5890.497385482682148
 21
284.399884051861477
 31
0.0
  0
LINE
  5
2C5FA
  8
0
 10
5890.8123461126815528
 20
284.4786242093614987
 30
0.0
 11
5890.8123461126815528
 21
284.399884051861477
 31
0.0
  0
LINE
  5
2C5FB
  8
0
 10
5890.9691197664806168
 20
284.5376793274614897
 30
0.0
 11
5890.9691197664806168
 21
284.4786242093614987
 31
0.0
  0
LINE
  5
2C5FC
  8
0
 10
5890.8706945696822004
 20
284.5376793274614897
 30
0.0
 11
5890.8706945696822004
 21
284.4786242093614987
 31
0.0
  0
LINE
  5
2C5FD
  8
0
 10
5890.9250832184816318
 20
284.4786242093614987
 30
0.0
 11
5890.9250832184816318
 21
284.340828933761486
 31
0.0
  0
LINE
  5
2C5FE
  8
0
 10
5891.2931934547823403
 20
284.5376793274614897
 30
0.0
 11
5891.2931934547823403
 21
284.340828933761486
 31
0.0
  0
LINE
  5
2C5FF
  8
0
 10
5891.6613036909820948
 20
284.5376793274614897
 30
0.0
 11
5891.6613036909820948
 21
284.340828933761486
 31
0.0
  0
LINE
  5
2C600
  8
0
 10
5893.7562102029805828
 20
284.5376793274614897
 30
0.0
 11
5893.7562102029805828
 21
284.4786242093614987
 31
0.0
  0
LINE
  5
2C601
  8
0
 10
5894.0119263655824398
 20
284.4786242093614987
 30
0.0
 11
5894.0119263655824398
 21
284.399884051861477
 31
0.0
  0
LINE
  5
2C602
  8
0
 10
5894.3268869954818001
 20
284.4786242093614987
 30
0.0
 11
5894.3268869954818001
 21
284.399884051861477
 31
0.0
  0
LINE
  5
2C603
  8
0
 10
5894.4908658737822407
 20
284.5376793274614897
 30
0.0
 11
5894.4908658737822407
 21
284.4786242093614987
 31
0.0
  0
LINE
  5
2C604
  8
0
 10
5894.2676425280806143
 20
284.5376793274614897
 30
0.0
 11
5894.2676425280806143
 21
284.4786242093614987
 31
0.0
  0
LINE
  5
2C605
  8
0
 10
5898.6750832184807223
 20
284.5376793274614897
 30
0.0
 11
5898.6750832184807223
 21
284.4786242093614987
 31
0.0
  0
LINE
  5
2C606
  8
0
 10
5898.812878494081815
 20
284.4786242093614987
 30
0.0
 11
5898.812878494081815
 21
284.399884051861477
 31
0.0
  0
LINE
  5
2C607
  8
0
 10
5899.1278391240830388
 20
284.4786242093614987
 30
0.0
 11
5899.1278391240830388
 21
284.399884051861477
 31
0.0
  0
LINE
  5
2C608
  8
0
 10
5899.2656343995813586
 20
284.5376793274614897
 30
0.0
 11
5899.2656343995813586
 21
284.4786242093614987
 31
0.0
  0
LINE
  5
2C609
  8
0
 10
5903.4498517443807941
 20
284.5376793274614897
 30
0.0
 11
5903.4498517443807941
 21
284.4786242093614987
 31
0.0
  0
LINE
  5
2C60A
  8
0
 10
5903.6138306226821442
 20
284.4786242093614987
 30
0.0
 11
5903.6138306226821442
 21
284.399884051861477
 31
0.0
  0
LINE
  5
2C60B
  8
0
 10
5903.928791252582414
 20
284.4786242093614987
 30
0.0
 11
5903.928791252582414
 21
284.399884051861477
 31
0.0
  0
LINE
  5
2C60C
  8
0
 10
5904.184507415180633
 20
284.5376793274614897
 30
0.0
 11
5904.184507415180633
 21
284.4786242093614987
 31
0.0
  0
LINE
  5
2C60D
  8
0
 10
5906.2794139271818494
 20
284.5376793274614897
 30
0.0
 11
5906.2794139271818494
 21
284.340828933761486
 31
0.0
  0
LINE
  5
2C60E
  8
0
 10
5906.647524163381604
 20
284.5376793274614897
 30
0.0
 11
5906.647524163381604
 21
284.340828933761486
 31
0.0
  0
LINE
  5
2C60F
  8
0
 10
5906.971597851682418
 20
284.5376793274614897
 30
0.0
 11
5906.971597851682418
 21
284.4786242093614987
 31
0.0
  0
LINE
  5
2C610
  8
0
 10
5907.0156343995813586
 20
284.4786242093614987
 30
0.0
 11
5907.0156343995813586
 21
284.340828933761486
 31
0.0
  0
LINE
  5
2C611
  8
0
 10
5908.2518556793820608
 20
284.5376793274614897
 30
0.0
 11
5908.2518556793820608
 21
284.4786242093614987
 31
0.0
  0
LINE
  5
2C612
  8
0
 10
5908.478232824782026
 20
284.340828933761486
 30
0.0
 11
5908.4929966043819149
 21
284.399884051861477
 31
0.0
  0
LINE
  5
2C613
  8
0
 10
5908.419177706681694
 20
284.399884051861477
 30
0.0
 11
5908.419177706681694
 21
284.4786242093614987
 31
0.0
  0
LINE
  5
2C614
  8
0
 10
5907.927051722482247
 20
284.5376793274614897
 30
0.0
 11
5907.927051722482247
 21
284.4983092486614851
 31
0.0
  0
LINE
  5
2C615
  8
0
 10
5907.927051722482247
 20
284.4983092486614851
 30
0.0
 11
5907.9664218011821504
 21
284.340828933761486
 31
0.0
  0
LINE
  5
2C616
  8
0
 10
5907.7062535224831663
 20
284.4786242093614987
 30
0.0
 11
5907.7062535224831663
 21
284.5376793274614897
 31
0.0
  0
LINE
  5
2C617
  8
0
 10
5907.1283715054823915
 20
284.399884051861477
 30
0.0
 11
5907.1283715054823915
 21
284.4786242093614987
 31
0.0
  0
LINE
  5
2C618
  8
0
 10
5907.4433321354817963
 20
284.399884051861477
 30
0.0
 11
5907.4433321354817963
 21
284.4786242093614987
 31
0.0
  0
LINE
  5
2C619
  8
0
 10
5908.7341383366820082
 20
284.4786242093614987
 30
0.0
 11
5908.7341383366820082
 21
284.399884051861477
 31
0.0
  0
ENDSEC
  0
EOF
