  0
SECTION
  2
HEADER
  9
$ACADVER
  1
AC1009
  9
$INSBASE
 10
3506.4669232337960239
 20
183.9757630278656109
 30
0.0
  9
$EXTMIN
 10
3499.1371314392958993
 20
166.4329663844598031
 30
-0.0000000349181948
  9
$EXTMAX
 10
3513.8815109795109493
 20
183.9934506608535116
 30
0.0000000814935746
  9
$LIMMIN
 10
0.0
 20
0.0
  9
$LIMMAX
 10
11.6929133858000007
 20
8.2677165353999982
  9
$ORTHOMODE
 70
     0
  9
$REGENMODE
 70
     1
  9
$FILLMODE
 70
     1
  9
$QTEXTMODE
 70
     0
  9
$MIRRTEXT
 70
     0
  9
$DRAGMODE
 70
     2
  9
$LTSCALE
 40
0.6431102362
  9
$OSMODE
 70
  4095
  9
$ATTMODE
 70
     1
  9
$TEXTSIZE
 40
0.2
  9
$TRACEWID
 40
0.05
  9
$TEXTSTYLE
  7
STANDARD
  9
$CLAYER
  8
0
  9
$CELTYPE
  6
BYLAYER
  9
$CECOLOR
 62
   256
  9
$DIMSCALE
 40
1.0
  9
$DIMASZ
 40
0.1875
  9
$DIMEXO
 40
0.0625
  9
$DIMDLI
 40
0.4443307087
  9
$DIMRND
 40
0.0
  9
$DIMDLE
 40
0.0
  9
$DIMEXE
 40
0.125
  9
$DIMTP
 40
0.01
  9
$DIMTM
 40
0.01
  9
$DIMTXT
 40
2.0
  9
$DIMCEN
 40
0.1052362205
  9
$DIMTSZ
 40
0.0
  9
$DIMTOL
 70
     1
  9
$DIMLIM
 70
     0
  9
$DIMTIH
 70
     1
  9
$DIMTOH
 70
     1
  9
$DIMSE1
 70
     0
  9
$DIMSE2
 70
     0
  9
$DIMTAD
 70
     0
  9
$DIMZIN
 70
     0
  9
$DIMBLK
  1

  9
$DIMASO
 70
     1
  9
$DIMSHO
 70
     1
  9
$DIMPOST
  1
\X
  9
$DIMAPOST
  1

  9
$DIMALT
 70
     1
  9
$DIMALTD
 70
     2
  9
$DIMALTF
 40
25.3999999999999986
  9
$DIMLFAC
 40
1.0
  9
$DIMTOFL
 70
     0
  9
$DIMTVP
 40
0.0
  9
$DIMTIX
 70
     0
  9
$DIMSOXD
 70
     0
  9
$DIMSAH
 70
     0
  9
$DIMBLK1
  1

  9
$DIMBLK2
  1

  9
$DIMSTYLE
  2
STANDARD
  9
$DIMCLRD
 70
     0
  9
$DIMCLRE
 70
     0
  9
$DIMCLRT
 70
     0
  9
$DIMTFAC
 40
1.0
  9
$DIMGAP
 40
0.09
  9
$LUNITS
 70
     2
  9
$LUPREC
 70
     4
  9
$SKETCHINC
 40
0.1
  9
$FILLETRAD
 40
0.0
  9
$AUNITS
 70
     0
  9
$AUPREC
 70
     0
  9
$MENU
  1
.
  9
$ELEVATION
 40
0.0
  9
$PELEVATION
 40
0.0
  9
$THICKNESS
 40
0.0
  9
$LIMCHECK
 70
     0
  9
$BLIPMODE
 70
     0
  9
$CHAMFERA
 40
0.0
  9
$CHAMFERB
 40
0.0
  9
$SKPOLY
 70
     0
  9
$TDCREATE
 40
2458060.468368056230247
  9
$TDUPDATE
 40
2459103.4878935189917684
  9
$TDINDWG
 40
0.5641274306
  9
$TDUSRTIMER
 40
0.5641274306
  9
$USRTIMER
 70
     1
  9
$ANGBASE
 50
0.0
  9
$ANGDIR
 70
     0
  9
$PDMODE
 70
     0
  9
$PDSIZE
 40
0.3125
  9
$PLINEWID
 40
0.0
  9
$COORDS
 70
     1
  9
$SPLFRAME
 70
     0
  9
$SPLINETYPE
 70
     6
  9
$SPLINESEGS
 70
     8
  9
$ATTDIA
 70
     1
  9
$ATTREQ
 70
     1
  9
$HANDLING
 70
     1
  9
$HANDSEED
  5
12DF9
  9
$SURFTAB1
 70
     6
  9
$SURFTAB2
 70
     6
  9
$SURFTYPE
 70
     6
  9
$SURFU
 70
     6
  9
$SURFV
 70
     6
  9
$UCSNAME
  2

  9
$UCSORG
 10
0.0
 20
0.0
 30
0.0
  9
$UCSXDIR
 10
1.0
 20
0.0
 30
0.0
  9
$UCSYDIR
 10
0.0
 20
1.0
 30
0.0
  9
$PUCSNAME
  2

  9
$PUCSORG
 10
0.0
 20
0.0
 30
0.0
  9
$PUCSXDIR
 10
1.0
 20
0.0
 30
0.0
  9
$PUCSYDIR
 10
0.0
 20
1.0
 30
0.0
  9
$USERI1
 70
     0
  9
$USERI2
 70
     0
  9
$USERI3
 70
     0
  9
$USERI4
 70
     0
  9
$USERI5
 70
     0
  9
$USERR1
 40
0.0
  9
$USERR2
 40
0.0
  9
$USERR3
 40
0.0
  9
$USERR4
 40
0.0
  9
$USERR5
 40
0.0
  9
$WORLDVIEW
 70
     1
  9
$SHADEDGE
 70
     3
  9
$SHADEDIF
 70
    70
  9
$TILEMODE
 70
     1
  9
$MAXACTVP
 70
    64
  9
$PLIMCHECK
 70
     0
  9
$PEXTMIN
 10
1.0000000000000000E+20
 20
1.0000000000000000E+20
 30
1.0000000000000000E+20
  9
$PEXTMAX
 10
-1.0000000000000000E+20
 20
-1.0000000000000000E+20
 30
-1.0000000000000000E+20
  9
$PLIMMIN
 10
0.0
 20
0.0
  9
$PLIMMAX
 10
12.0
 20
9.0
  9
$UNITMODE
 70
     0
  9
$VISRETAIN
 70
     1
  9
$PLINEGEN
 70
     0
  9
$PSLTSCALE
 70
     1
  0
ENDSEC
  0
SECTION
  2
TABLES
  0
TABLE
  2
VPORT
 70
     1
  0
VPORT
  2
*ACTIVE
 70
     0
 10
0.0
 20
0.0
 11
1.0
 21
1.0
 12
202.8162059750283959
 22
-20.0483030532310487
 13
0.0
 23
0.0
 14
1.0
 24
1.0
 15
0.0
 25
0.0
 16
0.0
 26
0.0
 36
96.5995694866707311
 17
3303.693115234375
 27
195.2615115758877096
 37
0.0
 40
17.7066186809129285
 41
2.6486111111111108
 42
50.0
 43
0.0
 44
0.0
 50
0.0
 51
0.0
 71
     0
 72
   100
 73
     1
 74
     1
 75
     0
 76
     0
 77
     0
 78
     0
  0
ENDTAB
  0
TABLE
  2
LTYPE
 70
     2
  0
LTYPE
  2
CONTINUOUS
 70
     0
  3
Solid line
 72
    65
 73
     0
 40
0.0
  0
LTYPE
  2
PHANTOM2
 70
     0
  3
___ _ _ ___ _ _ ___ _ _ ___ _ _
 72
    65
 73
     6
 40
1.25
 49
0.625
 49
-0.125
 49
0.125
 49
-0.125
 49
0.125
 49
-0.125
  0
ENDTAB
  0
TABLE
  2
LAYER
 70
     2
  0
LAYER
  2
0
 70
     0
 62
   255
  6
CONTINUOUS
  0
LAYER
  2
DEFPOINTS
 70
     0
 62
     7
  6
CONTINUOUS
  0
ENDTAB
  0
TABLE
  2
STYLE
 70
     1
  0
STYLE
  2
STANDARD
 70
     0
 40
0.0
 41
0.8
 50
0.0
 71
     0
 42
0.2
  3
txt
  4

  0
ENDTAB
  0
TABLE
  2
VIEW
 70
     0
  0
ENDTAB
  0
TABLE
  2
UCS
 70
     0
  0
ENDTAB
  0
TABLE
  2
APPID
 70
     9
  0
APPID
  2
ACAD
 70
     0
  0
APPID
  2
ACAD_MLEADERVER
 70
     0
  0
APPID
  2
ACAD_EXEMPT_FROM_CAD_STANDARDS
 70
     0
  0
APPID
  2
ACAD_NAV_VCDISPLAY
 70
     0
  0
APPID
  2
ACAECLAYERSTANDARD
 70
     0
  0
APPID
  2
ACCMTRANSPARENCY
 70
     0
  0
APPID
  2
ACAD_DSTYLE_DIMJAG
 70
     0
  0
APPID
  2
ACAD_DSTYLE_DIMTALN
 70
     0
  0
APPID
  2
ACDBATTR
 70
     0
  0
ENDTAB
  0
TABLE
  2
DIMSTYLE
 70
     1
  0
DIMSTYLE
  2
STANDARD
 70
     0
  3

  4

  5

  6

  7

 40
1.0
 41
0.1875
 42
0.0625
 43
0.38
 44
0.125
 45
0.0
 46
0.0
 47
0.01
 48
0.01
140
0.15625
141
0.09
142
0.0
143
25.3999999999999986
144
1.0
145
0.0
146
1.0
147
0.09
 71
     1
 72
     0
 73
     1
 74
     1
 75
     0
 76
     0
 77
     0
 78
     4
170
     0
171
     2
172
     0
173
     0
174
     0
175
     0
176
     0
177
     0
178
     0
  0
ENDTAB
  0
ENDSEC
  0
SECTION
  2
BLOCKS
  0
BLOCK
  8
0
  2
$MODEL_SPACE
 70
     0
 10
0.0
 20
0.0
 30
0.0
  3
$MODEL_SPACE
  1

  0
ENDBLK
  5
21
  8
0
  0
BLOCK
 67
     1
  8
0
  2
$PAPER_SPACE
 70
     0
 10
0.0
 20
0.0
 30
0.0
  3
$PAPER_SPACE
  1

  0
ENDBLK
  5
1D
 67
     1
  8
0
  0
BLOCK
  8
0
  2
_FILLED
 70
     0
 10
0.0
 20
0.0
 30
0.0
  3
_FILLED
  1

  0
SOLID
  5
1223D
  8
0
  6
BYBLOCK
 62
     0
 10
0.0
 20
0.0
 30
0.0
 11
-1.0
 21
0.1666666667
 31
0.0
 12
-1.0
 22
-0.1666666667
 32
0.0
 13
-1.0
 23
-0.1666666667
 33
0.0
  0
ENDBLK
  5
1223E
  8
0
  6
BYBLOCK
 62
     0
  0
ENDSEC
  0
SECTION
  2
ENTITIES
  0
ATTDEF
  5
12510
  8
DEFPOINTS
 10
3506.4675679443557783
 20
183.9804347036327954
 30
0.0
 40
0.001
  1
K-23107IN-UF
  3

  2
MODELNUMBER
 70
     0
1001
ACDBATTR
1070
     0
1070
     1
  0
ATTDEF
  5
12511
  8
DEFPOINTS
 10
3506.4675679443557783
 20
183.9787680369661018
 30
0.0
 40
0.001
  1
REPLAY
  3

  2
TRADENAME
 70
     0
1001
ACDBATTR
1070
     0
1070
     1
  0
ATTDEF
  5
12512
  8
DEFPOINTS
 10
3506.4675679443557783
 20
183.9771013702994935
 30
0.0
 40
0.001
  1
TOILET SEAT
  3

  2
PRODUCT
 70
     0
1001
ACDBATTR
1070
     0
1070
     1
  0
ARC
  5
12AAF
  8
0
 10
3506.4199972160799916
 20
192.380287737943604
 30
0.0
 40
25.9340869990253893
 50
266.3444583718933245
 51
270.1036729857502792
  0
ARC
  5
12AB0
  8
0
 10
3505.6928467365851247
 20
180.9986063205928133
 30
0.0
 40
14.5292012167874702
 50
260.5411156386272751
 51
266.3444513111592187
  0
ARC
  5
12AB1
  8
0
 10
3504.3940736744498281
 20
173.2030835493875998
 30
0.0
 40
6.6262279317948192
 50
248.7114980223057046
 51
260.5411156386272751
  0
ARC
  5
12AB2
  8
0
 10
3503.4732085809378077
 20
170.8397855015618916
 30
0.0
 40
4.0898584430758547
 50
219.5712282460690119
 51
248.7114980223057046
  0
ARC
  5
12AB3
  8
0
 10
3503.6570842793062184
 20
170.8744237289226078
 30
0.0
 40
4.2546230197834571
 50
191.7582624064226877
 51
218.3532701288791031
  0
ARC
  5
12AB4
  8
0
 10
3510.9732561579558023
 20
172.3286777997367949
 30
0.0
 40
11.7017994946754502
 50
178.6002489896586098
 51
191.4281385203638877
  0
ARC
  5
12AB5
  8
0
 10
2234.9943449661132036
 20
168.7041626099801874
 30
0.0
 40
1264.2866508410570532
 50
0.1772127836744912
 51
0.2526998311123518
  0
LINE
  5
12AB6
  8
0
 10
3499.2686993644460927
 20
174.2802100970685899
 30
0.0
 11
3499.2668235892460871
 21
180.3359520036686092
 31
0.0
  0
ARC
  5
12AB7
  8
0
 10
3551.0606947978922108
 20
180.6350172257841109
 30
0.0
 40
51.7947346249364884
 50
179.4881269290656007
 51
180.3308305125873119
  0
ARC
  5
12AB8
  8
0
 10
3505.2002685557631594
 20
181.044739232739488
 30
0.0
 40
5.9324781689704249
 50
175.0660669781092906
 51
179.4881269290656007
  0
ARC
  5
12AB9
  8
0
 10
3502.5235769780988448
 20
181.3743624771321095
 30
0.0
 40
3.2388437328580171
 50
158.5205793796332898
 51
176.8032920647474953
  0
ARC
  5
12ABA
  8
0
 10
3502.2082210039629899
 20
181.4019606253636141
 30
0.0
 40
2.9366570268125272
 50
144.4075326163300872
 51
156.7684247246083089
  0
ARC
  5
12ABB
  8
0
 10
3501.5297225830418029
 20
181.9020402188172056
 30
0.0
 40
2.0938961683899451
 50
125.6942299697525982
 51
144.7292270230074109
  0
ARC
  5
12ABC
  8
0
 10
3501.1894801665130217
 20
182.4412173400590973
 30
0.0
 40
1.4579921407730949
 50
99.3959546955508131
 51
127.1980405730268018
  0
ARC
  5
12ABD
  8
0
 10
3501.4111549093117901
 20
181.0830858969893882
 30
0.0
 40
2.4429387050903579
 50
100.2458649418452978
 51
116.9116029073308027
  0
ARC
  5
12ABE
  8
0
 10
3501.0681330433981202
 20
181.7815030996463861
 30
0.0
 40
1.6649305170941799
 50
117.2639868698454961
 51
137.9036075194800901
  0
ARC
  5
12ABF
  8
0
 10
3501.0335716636877805
 20
181.8235716396852979
 30
0.0
 40
1.611103538938804
 50
138.1897619957256893
 51
142.5838643321218058
  0
ARC
  5
12AC0
  8
0
 10
3501.1665270740868436
 20
181.7218602098041913
 30
0.0
 40
1.7785023326103131
 50
142.5838643321218058
 51
155.1033864723686122
  0
ARC
  5
12AC1
  8
0
 10
3501.8663520135810359
 20
181.3970625627146092
 30
0.0
 40
2.550025797900084
 50
155.1033864723686122
 51
170.2676504348349908
  0
ARC
  5
12AC2
  8
0
 10
3503.696041918337869
 20
181.0113621027626039
 30
0.0
 40
4.4191521695211806
 50
169.3490434812123056
 51
175.7184668421114111
  0
ARC
  5
12AC3
  8
0
 10
3508.5782354526650124
 20
180.6556730586584933
 30
0.0
 40
9.3142806542713377
 50
175.7787203123311883
 51
178.6576570641543071
  0
ARC
  5
12AC4
  8
0
 10
3502.0073386438139096
 20
169.0013701252894123
 30
0.0
 40
14.6092087233849295
 50
90.4849201604397138
 51
91.5570538529137252
  0
LINE
  5
12AC5
  8
0
 10
3501.8836957625458126
 20
183.6100556226685967
 30
0.0
 11
3511.069646512556119
 21
183.6100540839331074
 31
0.0
  0
LINE
  5
12AC6
  8
0
 10
3511.3451986602699435
 20
183.8832451281186025
 30
0.0
 11
3501.5886478073211947
 21
183.8832451281186025
 31
0.0
  0
ARC
  5
12AC7
  8
0
 10
3502.6029355105461036
 20
182.7808829233686083
 30
0.0
 40
1.194880104500029
 50
89.9999999998957776
 51
112.6950545972334936
  0
LINE
  5
12AC8
  8
0
 10
3502.6029355105479226
 20
183.9757630278685951
 30
0.0
 11
3510.332189199817094
 21
183.9757630278627119
 31
0.0
  0
LINE
  5
12AC9
  8
0
 10
3511.0696569646070202
 20
183.4555127043686014
 30
0.0
 11
3501.8837015216449799
 21
183.4364693333685921
 31
0.0
  0
ARC
  5
12ACA
  8
0
 10
3501.7225473810890435
 20
180.4391152348217986
 30
0.0
 40
3.0016832359683709
 50
86.9224288900569491
 51
123.9394865514727968
  0
ARC
  5
12ACB
  8
0
 10
3501.3283634378381066
 20
181.4526276115032033
 30
0.0
 40
1.955406289065301
 50
130.9551680522895083
 51
161.4736170779212898
  0
ARC
  5
12ACC
  8
0
 10
3504.42237211471911
 20
180.5779686618550102
 30
0.0
 40
5.1692781734732431
 50
163.1781565076423988
 51
175.3242371557095112
  0
ARC
  5
12ACD
  8
0
 10
3506.5127589779058326
 20
192.3799453095616059
 30
0.0
 40
25.9337426213176307
 50
269.8987343981107756
 51
273.6575411890049168
  0
ARC
  5
12ACE
  8
0
 10
3507.240287854926919
 20
180.9986331540696938
 30
0.0
 40
14.5292012167874596
 50
273.6575357692649959
 51
279.4608714417934721
  0
ARC
  5
12ACF
  8
0
 10
3508.5393312735550353
 20
173.2031554304259089
 30
0.0
 40
6.6262279317948174
 50
279.4608714417934721
 51
291.2904890581089035
  0
ARC
  5
12AD0
  8
0
 10
3509.460278328278946
 20
170.8398893206320963
 30
0.0
 40
4.0898584430758538
 50
291.2904890581089035
 51
320.4307588343535258
  0
ARC
  5
12AD1
  8
0
 10
3509.2764014287299688
 20
170.8745211709610885
 30
0.0
 40
4.2546230197834563
 50
321.6487169515548885
 51
348.2437246740055912
  0
ARC
  5
12AD2
  8
0
 10
3501.9601791193540521
 20
172.3285215080420869
 30
0.0
 40
11.7017994946754502
 50
348.5738485600626859
 51
1.401738090768722
  0
ARC
  5
12AD3
  8
0
 10
4777.9392152459959107
 20
168.7482586674786944
 30
0.0
 40
1264.2866508410570532
 50
179.7492872493137099
 51
179.8247742967506895
  0
LINE
  5
12AD4
  8
0
 10
3513.6646682245468583
 20
174.2804597310571069
 30
0.0
 11
3513.6663339799802088
 21
180.3362016990691927
 31
0.0
  0
ARC
  5
12AD5
  8
0
 10
3461.8724524305721388
 20
180.633470652789299
 30
0.0
 40
51.7947346249364671
 50
359.6711565678377269
 51
0.5138601513600621
  0
ARC
  5
12AD6
  8
0
 10
3507.7328644355129654
 20
181.0447831493397928
 30
0.0
 40
5.932478168970424
 50
0.5138601513600621
 51
4.9359201023172918
  0
ARC
  5
12AD7
  8
0
 10
3510.4095445798720903
 20
181.374499224131597
 30
0.0
 40
3.2388437328580162
 50
3.1986950156761051
 51
21.4814077007878694
  0
ARC
  5
12AD8
  8
0
 10
3510.7248995966851908
 20
181.4021083092372919
 30
0.0
 40
2.9366570268125258
 50
23.2335623558171385
 51
35.5944544640950511
  0
ARC
  5
12AD9
  8
0
 10
3511.403380673889842
 20
181.9022114334590015
 30
0.0
 40
2.0938961683899451
 50
35.272760057424648
 51
54.3077571106558707
  0
ARC
  5
12ADA
  8
0
 10
3511.7436043909601722
 20
182.4414003543564888
 30
0.0
 40
1.4579921407730949
 50
52.8039465073912169
 51
80.6060323848815443
  0
ARC
  5
12ADB
  8
0
 10
3511.976630019012191
 20
183.8400163607871036
 30
0.0
 40
0.040130084840379
 50
82.9132959299479069
 51
165.5270520034432025
  0
ARC
  5
12ADC
  8
0
 10
3512.1206702575541385
 20
183.8028375700804133
 30
0.0
 40
0.1888911442533862
 50
165.5270520034432025
 51
171.2129659701894013
  0
ARC
  5
12ADD
  8
0
 10
3514.4282307125140505
 20
183.6091634746564125
 30
0.0
 40
2.5041416743711058
 50
174.901708875564708
 51
179.0812316668923074
  0
LINE
  5
12ADE
  8
0
 10
3511.9244109866131112
 20
183.649316998913207
 30
0.0
 11
3511.9227942547408929
 21
183.5698529918948054
 31
0.0
  0
LINE
  5
12ADF
  8
0
 10
3511.8911400111760486
 20
183.8838530238303974
 30
0.0
 11
3511.8989547634678274
 21
183.5825966022119076
 31
0.0
  0
ARC
  5
12AE0
  8
0
 10
3512.1427297294721939
 20
183.6657549129106997
 30
0.0
 40
0.2575685126101078
 50
198.8359130977084135
 51
223.9271933883485985
  0
ARC
  5
12AE1
  8
0
 10
3511.5228092958232082
 20
181.085246815032491
 30
0.0
 40
2.4407913185409229
 50
63.086716363718871
 51
79.7478320327149248
  0
ARC
  5
12AE2
  8
0
 10
3511.8649743936148298
 20
181.7816903227916896
 30
0.0
 40
1.6649305170941799
 50
42.0983795609511802
 51
62.7380002105901866
  0
ARC
  5
12AE3
  8
0
 10
3511.8995343143210448
 20
181.8237600614318978
 30
0.0
 40
1.6111035389388031
 50
37.4181227483099192
 51
41.8122250846875403
  0
ARC
  5
12AE4
  8
0
 10
3511.7665824314658494
 20
181.7220440205726106
 30
0.0
 40
1.778502332610312
 50
24.8986006080564799
 51
37.4181227483099192
  0
ARC
  5
12AE5
  8
0
 10
3511.0667687567320172
 20
181.397222102982397
 30
0.0
 40
2.550025797900084
 50
9.7343366455921565
 51
24.8986006080564799
  0
ARC
  5
12AE6
  8
0
 10
3509.2370922295890523
 20
181.0114581876113107
 30
0.0
 40
4.4191521695211797
 50
4.2835202383143312
 51
10.6529435992103299
  0
ARC
  5
12AE7
  8
0
 10
3504.3549110338840364
 20
180.6555998238987968
 30
0.0
 40
9.3142806542713341
 50
1.344330016270983
 51
4.2232667680933442
  0
LINE
  5
12AE8
  8
0
 10
3511.8911400111760486
 20
183.8838530238303974
 30
0.0
 11
3511.4232102597288758
 21
183.90836105122861
 31
0.0
  0
ARC
  5
12AE9
  8
0
 10
3511.3729703328040159
 20
183.6755696244204046
 30
0.0
 40
0.0650614061308201
 50
282.9298246791547058
 51
302.4119135854463138
  0
ARC
  5
12AEA
  8
0
 10
3511.3405556862599042
 20
183.8020035593060015
 30
0.0
 40
0.1955704909362365
 50
273.710846114438425
 51
283.8973160800362052
  0
ARC
  5
12AEB
  8
0
 10
3511.3238892040708379
 20
183.8941386350676055
 30
0.0
 40
0.2887881945157038
 50
269.758583182811094
 51
275.8279548090280855
  0
ARC
  5
12AEC
  8
0
 10
3510.9179633173448565
 20
168.634373059058305
 30
0.0
 40
14.9764491769746595
 50
88.4515057739330786
 51
89.4196918511992038
  0
ARC
  5
12AED
  8
0
 10
3511.3480977284639266
 20
183.8440882946509021
 30
0.0
 40
0.0392640064640815
 50
359.9378580265149026
 51
94.2343021552217408
  0
LINE
  5
12AEE
  8
0
 10
3511.3873617118351831
 20
183.8440457096228897
 30
0.0
 11
3511.3873697553171951
 21
183.6121186998165058
 31
0.0
  0
ARC
  5
12AEF
  8
0
 10
3511.4625643733129436
 20
183.8960555476623995
 30
0.0
 40
0.0472670668319902
 50
170.1603196880294888
 51
173.9698702781309976
  0
ARC
  5
12AF0
  8
0
 10
3513.1439946749310366
 20
183.8144534157675878
 30
0.0
 40
1.7306023136880251
 50
177.1327732910868917
 51
179.2719097221489051
  0
ARC
  5
12AF1
  8
0
 10
3487.6119878900822187
 20
184.3558977621432007
 30
0.0
 40
23.8072118889133009
 50
358.2302147020315033
 51
358.7497554414833871
  0
ARC
  5
12AF2
  8
0
 10
3510.3311425139331732
 20
182.7843009715003859
 30
0.0
 40
1.19146251611295
 50
67.2906042345841371
 51
90.0503336786129722
  0
ARC
  5
12AF3
  8
0
 10
3511.1307354788009434
 20
180.2654935379279948
 30
0.0
 40
3.1906038405221349
 50
56.6148499242987313
 51
91.0968942040328074
  0
ARC
  5
12AF4
  8
0
 10
3511.6047554050951476
 20
181.4528058097710073
 30
0.0
 40
1.9554062890652999
 50
18.5283700025077316
 51
49.0468190281283185
  0
ARC
  5
12AF5
  8
0
 10
3508.5107770642039213
 20
180.5780395570371013
 30
0.0
 40
5.1692781734732423
 50
4.6777499247166183
 51
16.8238305727796096
  0
ARC
  5
12AF6
  8
0
 10
3493.0477324746088925
 20
182.9362962224745104
 30
0.0
 40
18.9066426525493014
 50
1.7070910213082131
 51
1.9148009995760571
  0
ARC
  5
12AF7
  8
0
 10
3511.0257228674040562
 20
183.5373369237346992
 30
0.0
 40
0.9186080604097764
 50
1.9148009995760571
 51
4.0887754534840868
  0
ARC
  5
12AF8
  8
0
 10
3511.4461808547530381
 20
183.5673929350060973
 30
0.0
 40
0.4970771802375764
 50
4.0887754534840868
 51
6.0222680588189776
  0
ARC
  5
12AF9
  8
0
 10
3511.8597456295287884
 20
183.6110228589728877
 30
0.0
 40
0.0812173562572477
 50
6.0222680588189776
 51
11.6395196176091602
  0
ARC
  5
12AFA
  8
0
 10
3511.9256970624151108
 20
183.6246081572269873
 30
0.0
 40
0.0138812453778711
 50
11.6395196176075597
 51
20.7209476688318688
  0
ARC
  5
12AFB
  8
0
 10
3511.9359273555628533
 20
183.628478137770287
 30
0.0
 40
0.0029434372189636
 50
20.7209476687891403
 51
39.096068635272303
  0
ARC
  5
12AFC
  8
0
 10
3511.9378839611299554
 20
183.6300680050736105
 30
0.0
 40
0.0004223296485263
 50
39.0960686352331308
 51
150.7072881741850949
  0
ARC
  5
12AFD
  8
0
 10
3511.9408407012201678
 20
183.6279387894408046
 30
0.0
 40
0.0040635285199176
 50
144.9120756648856059
 51
163.7344851705859128
  0
ARC
  5
12AFE
  8
0
 10
3511.9663676885497807
 20
183.620311994593493
 30
0.0
 40
0.0307054349902544
 50
163.4140991121647062
 51
171.3737282408999079
  0
ARC
  5
12AFF
  8
0
 10
3512.1223019117442163
 20
183.5966796930227076
 30
0.0
 40
0.1884202648300635
 50
171.380845477739598
 51
175.4105593775136924
  0
ARC
  5
12B00
  8
0
 10
3512.949478727521182
 20
183.5312765705226923
 30
0.0
 40
1.0181785853064651
 50
175.4664562361843991
 51
177.826617007994713
  0
LINE
  5
12B01
  8
0
 10
3511.9437523179149139
 20
183.5699359520023961
 30
0.0
 11
3511.9037111820398422
 21
183.5697774537235034
 31
0.0
  0
ARC
  5
12B02
  8
0
 10
3511.4234402826159567
 20
183.8978220752362915
 30
0.0
 40
0.0105414859243095
 50
91.2503347957477615
 51
117.6438730963805028
  0
ARC
  5
12B03
  8
0
 10
3511.4209850260049279
 20
183.9025098017602886
 30
0.0
 40
0.0052496936962799
 50
117.6438730964088961
 51
161.9878305412873942
  0
ARC
  5
12B04
  8
0
 10
3511.8632692892851992
 20
183.8125290063460966
 30
0.0
 40
0.0806469237961931
 50
1.8396282298419691
 51
24.3692372177965808
  0
ARC
  5
12B05
  8
0
 10
3509.32386596490187
 20
183.6085860041499132
 30
0.0
 40
2.628136399791948
 50
1.248105627096715
 51
4.5072325189775926
  0
ARC
  5
12B06
  8
0
 10
3503.0125060676077737
 20
183.4178832834398065
 30
0.0
 40
8.9423109264505687
 50
0.7473781860006076
 51
1.5888750181042051
  0
ARC
  5
12B07
  8
0
 10
3512.2801067875520857
 20
183.5255349362506081
 30
0.0
 40
0.3261744822133034
 50
178.420543287871908
 51
186.5591771292359056
  0
ARC
  5
12B08
  8
0
 10
3500.9572164485789472
 20
183.8400163607871036
 30
0.0
 40
0.040130084840379
 50
14.4729479965567798
 51
97.0867040700521358
  0
ARC
  5
12B09
  8
0
 10
3500.8131762100369997
 20
183.8028375700804133
 30
0.0
 40
0.1888911442533862
 50
8.7870340298106058
 51
14.4729479965567798
  0
ARC
  5
12B0A
  8
0
 10
3498.5056157550779972
 20
183.6091634746564125
 30
0.0
 40
2.5041416743711058
 50
0.9187683331076623
 51
5.0982911244352707
  0
LINE
  5
12B0B
  8
0
 10
3501.0094354809789365
 20
183.649316998913207
 30
0.0
 11
3501.0110522128511548
 21
183.5698529918948054
 31
0.0
  0
LINE
  5
12B0C
  8
0
 10
3501.0427064564159991
 20
183.8838530238303974
 30
0.0
 11
3501.0348917041242203
 21
183.5825966022119076
 31
0.0
  0
ARC
  5
12B0D
  8
0
 10
3500.7911167381198538
 20
183.6657549129106997
 30
0.0
 40
0.2575685126101078
 50
316.0728066116515151
 51
341.1640869022916149
  0
LINE
  5
12B0E
  8
0
 10
3501.0427064564159991
 20
183.8838530238303974
 30
0.0
 11
3501.5106362078618076
 21
183.90836105122861
 31
0.0
  0
ARC
  5
12B0F
  8
0
 10
3501.5608761347880318
 20
183.6755696244204046
 30
0.0
 40
0.0650614061308201
 50
237.5880864145536862
 51
257.0701753208452942
  0
ARC
  5
12B10
  8
0
 10
3501.5932907813321435
 20
183.8020035593060015
 30
0.0
 40
0.1955704909362365
 50
256.1026839199639085
 51
266.2891538855615181
  0
ARC
  5
12B11
  8
0
 10
3501.6099572635212098
 20
183.8941386350676055
 30
0.0
 40
0.2887881945157038
 50
264.1720451909719145
 51
270.2414168171887923
  0
ARC
  5
12B12
  8
0
 10
3501.5922623519450099
 20
183.8370822266118125
 30
0.0
 40
0.0463041942847222
 50
94.4771118270744665
 51
171.3507279911777914
  0
LINE
  5
12B13
  8
0
 10
3501.5464847557568646
 20
183.8440457096228897
 30
0.0
 11
3501.5464767122739431
 21
183.6121186998165058
 31
0.0
  0
ARC
  5
12B14
  8
0
 10
3501.4712820942791041
 20
183.8960555476623995
 30
0.0
 40
0.0472670668319902
 50
6.0301297218690291
 51
9.8396803119704952
  0
ARC
  5
12B15
  8
0
 10
3499.7898517926601016
 20
183.8144534157675878
 30
0.0
 40
1.7306023136880251
 50
0.7280902778511218
 51
2.8672267089131021
  0
ARC
  5
12B16
  8
0
 10
3525.3218585775089196
 20
184.3558977621432007
 30
0.0
 40
23.8072118889133009
 50
181.2502445585164992
 51
181.7697852979667914
  0
ARC
  5
12B17
  8
0
 10
3519.8861139929831552
 20
182.9362962224745104
 30
0.0
 40
18.9066426525493014
 50
178.0851990004238985
 51
178.2929089786917984
  0
ARC
  5
12B18
  8
0
 10
3501.9081236001879915
 20
183.5373369237346992
 30
0.0
 40
0.9186080604097764
 50
175.9112245465159106
 51
178.0851990004223069
  0
ARC
  5
12B19
  8
0
 10
3501.4876656128390096
 20
183.5673929350060973
 30
0.0
 40
0.4970771802375764
 50
173.9777319411809913
 51
175.9112245465159106
  0
ARC
  5
12B1A
  8
0
 10
3501.0741008380628045
 20
183.6110228589728877
 30
0.0
 40
0.0812173562572477
 50
168.3604803823907901
 51
173.9777319411809913
  0
ARC
  5
12B1B
  8
0
 10
3501.0081494051769369
 20
183.6246081572269873
 30
0.0
 40
0.0138812453778711
 50
159.2790523311680886
 51
168.3604803823924101
  0
ARC
  5
12B1C
  8
0
 10
3500.9979191120278301
 20
183.628478137770287
 30
0.0
 40
0.0029434372189636
 50
140.903931364727697
 51
159.2790523312108064
  0
ARC
  5
12B1D
  8
0
 10
3500.9959625064630018
 20
183.6300680050736105
 30
0.0
 40
0.0004223296485263
 50
29.2927118258148909
 51
140.9039313647668905
  0
ARC
  5
12B1E
  8
0
 10
3500.9930057663709704
 20
183.6279387894408046
 30
0.0
 40
0.0040635285199176
 50
16.2655148294140588
 51
35.0879243351143728
  0
ARC
  5
12B1F
  8
0
 10
3500.9674787790418122
 20
183.620311994593493
 30
0.0
 40
0.0307054349902544
 50
8.6262717591001188
 51
16.58590088783534
  0
ARC
  5
12B20
  8
0
 10
3500.8115445558478314
 20
183.5966796930227076
 30
0.0
 40
0.1884202648300635
 50
4.5894406224863111
 51
8.6191545222603416
  0
ARC
  5
12B21
  8
0
 10
3499.9843677400708657
 20
183.5312765705226923
 30
0.0
 40
1.0181785853064651
 50
2.173382992005255
 51
4.5335437638155671
  0
LINE
  5
12B22
  8
0
 10
3500.9900941496762243
 20
183.5699359520023961
 30
0.0
 11
3501.0301352855522055
 21
183.5697774537235034
 31
0.0
  0
ARC
  5
12B23
  8
0
 10
3501.5104061849751815
 20
183.8978220752362915
 30
0.0
 40
0.0105414859243095
 50
62.3561269036194616
 51
88.7496652042522243
  0
ARC
  5
12B24
  8
0
 10
3501.5128614415862103
 20
183.9025098017602886
 30
0.0
 40
0.0052496936962799
 50
18.0121694587125489
 51
62.3561269035910968
  0
ARC
  5
12B25
  8
0
 10
3501.0705771783068485
 20
183.8125290063460966
 30
0.0
 40
0.0806469237961931
 50
155.6307627822033908
 51
178.1603717701580081
  0
ARC
  5
12B26
  8
0
 10
3503.6099805026901777
 20
183.6085860041499132
 30
0.0
 40
2.628136399791948
 50
175.4927674810224119
 51
178.7518943729033083
  0
ARC
  5
12B27
  8
0
 10
3509.9213403999838192
 20
183.4178832834398065
 30
0.0
 40
8.9423109264505687
 50
178.4111249818957958
 51
179.2526218139994114
  0
ARC
  5
12B28
  8
0
 10
3500.6537396800408715
 20
183.5255349362506081
 30
0.0
 40
0.3261744822133034
 50
353.4408228707640092
 51
1.579456712128082
  0
ENDSEC
  0
EOF
