  0
SECTION
  2
HEADER
  9
$ACADVER
  1
AC1009
  9
$INSBASE
 10
3537.0350230886119789
 20
159.8529661293860897
 30
0.0
  9
$EXTMIN
 10
3519.3438603554800466
 20
159.8409510104609126
 30
-0.0015258207003583
  9
$EXTMAX
 10
3537.1543008335661398
 20
162.5695433550442033
 30
0.0000000349246037
  9
$LIMMIN
 10
0.0
 20
0.0
  9
$LIMMAX
 10
11.6929133858000007
 20
8.2677165353999982
  9
$ORTHOMODE
 70
     0
  9
$REGENMODE
 70
     1
  9
$FILLMODE
 70
     1
  9
$QTEXTMODE
 70
     0
  9
$MIRRTEXT
 70
     0
  9
$DRAGMODE
 70
     2
  9
$LTSCALE
 40
0.6431102362
  9
$OSMODE
 70
  4095
  9
$ATTMODE
 70
     1
  9
$TEXTSIZE
 40
0.2
  9
$TRACEWID
 40
0.05
  9
$TEXTSTYLE
  7
STANDARD
  9
$CLAYER
  8
0
  9
$CELTYPE
  6
BYLAYER
  9
$CECOLOR
 62
   256
  9
$DIMSCALE
 40
1.0
  9
$DIMASZ
 40
0.1875
  9
$DIMEXO
 40
0.0625
  9
$DIMDLI
 40
0.4443307087
  9
$DIMRND
 40
0.0
  9
$DIMDLE
 40
0.0
  9
$DIMEXE
 40
0.125
  9
$DIMTP
 40
0.01
  9
$DIMTM
 40
0.01
  9
$DIMTXT
 40
2.0
  9
$DIMCEN
 40
0.1052362205
  9
$DIMTSZ
 40
0.0
  9
$DIMTOL
 70
     1
  9
$DIMLIM
 70
     0
  9
$DIMTIH
 70
     1
  9
$DIMTOH
 70
     1
  9
$DIMSE1
 70
     0
  9
$DIMSE2
 70
     0
  9
$DIMTAD
 70
     0
  9
$DIMZIN
 70
     0
  9
$DIMBLK
  1

  9
$DIMASO
 70
     1
  9
$DIMSHO
 70
     1
  9
$DIMPOST
  1
\X
  9
$DIMAPOST
  1

  9
$DIMALT
 70
     1
  9
$DIMALTD
 70
     2
  9
$DIMALTF
 40
25.3999999999999986
  9
$DIMLFAC
 40
1.0
  9
$DIMTOFL
 70
     0
  9
$DIMTVP
 40
0.0
  9
$DIMTIX
 70
     0
  9
$DIMSOXD
 70
     0
  9
$DIMSAH
 70
     0
  9
$DIMBLK1
  1

  9
$DIMBLK2
  1

  9
$DIMSTYLE
  2
STANDARD
  9
$DIMCLRD
 70
     0
  9
$DIMCLRE
 70
     0
  9
$DIMCLRT
 70
     0
  9
$DIMTFAC
 40
1.0
  9
$DIMGAP
 40
0.09
  9
$LUNITS
 70
     2
  9
$LUPREC
 70
     4
  9
$SKETCHINC
 40
0.1
  9
$FILLETRAD
 40
0.0
  9
$AUNITS
 70
     0
  9
$AUPREC
 70
     0
  9
$MENU
  1
.
  9
$ELEVATION
 40
0.0
  9
$PELEVATION
 40
0.0
  9
$THICKNESS
 40
0.0
  9
$LIMCHECK
 70
     0
  9
$BLIPMODE
 70
     0
  9
$CHAMFERA
 40
0.0
  9
$CHAMFERB
 40
0.0
  9
$SKPOLY
 70
     0
  9
$TDCREATE
 40
2458060.468368056230247
  9
$TDUPDATE
 40
2459103.4875578708015382
  9
$TDINDWG
 40
0.563409838
  9
$TDUSRTIMER
 40
0.563409838
  9
$USRTIMER
 70
     1
  9
$ANGBASE
 50
0.0
  9
$ANGDIR
 70
     0
  9
$PDMODE
 70
     0
  9
$PDSIZE
 40
0.3125
  9
$PLINEWID
 40
0.0
  9
$COORDS
 70
     1
  9
$SPLFRAME
 70
     0
  9
$SPLINETYPE
 70
     6
  9
$SPLINESEGS
 70
     8
  9
$ATTDIA
 70
     1
  9
$ATTREQ
 70
     1
  9
$HANDLING
 70
     1
  9
$HANDSEED
  5
12EAC
  9
$SURFTAB1
 70
     6
  9
$SURFTAB2
 70
     6
  9
$SURFTYPE
 70
     6
  9
$SURFU
 70
     6
  9
$SURFV
 70
     6
  9
$UCSNAME
  2

  9
$UCSORG
 10
0.0
 20
0.0
 30
0.0
  9
$UCSXDIR
 10
1.0
 20
0.0
 30
0.0
  9
$UCSYDIR
 10
0.0
 20
1.0
 30
0.0
  9
$PUCSNAME
  2

  9
$PUCSORG
 10
0.0
 20
0.0
 30
0.0
  9
$PUCSXDIR
 10
1.0
 20
0.0
 30
0.0
  9
$PUCSYDIR
 10
0.0
 20
1.0
 30
0.0
  9
$USERI1
 70
     0
  9
$USERI2
 70
     0
  9
$USERI3
 70
     0
  9
$USERI4
 70
     0
  9
$USERI5
 70
     0
  9
$USERR1
 40
0.0
  9
$USERR2
 40
0.0
  9
$USERR3
 40
0.0
  9
$USERR4
 40
0.0
  9
$USERR5
 40
0.0
  9
$WORLDVIEW
 70
     1
  9
$SHADEDGE
 70
     3
  9
$SHADEDIF
 70
    70
  9
$TILEMODE
 70
     1
  9
$MAXACTVP
 70
    64
  9
$PLIMCHECK
 70
     0
  9
$PEXTMIN
 10
1.0000000000000000E+20
 20
1.0000000000000000E+20
 30
1.0000000000000000E+20
  9
$PEXTMAX
 10
-1.0000000000000000E+20
 20
-1.0000000000000000E+20
 30
-1.0000000000000000E+20
  9
$PLIMMIN
 10
0.0
 20
0.0
  9
$PLIMMAX
 10
12.0
 20
9.0
  9
$UNITMODE
 70
     0
  9
$VISRETAIN
 70
     1
  9
$PLINEGEN
 70
     0
  9
$PSLTSCALE
 70
     1
  0
ENDSEC
  0
SECTION
  2
TABLES
  0
TABLE
  2
VPORT
 70
     1
  0
VPORT
  2
*ACTIVE
 70
     0
 10
0.0
 20
0.0
 11
1.0
 21
1.0
 12
224.5559653601476953
 22
-34.0562643931352014
 13
0.0
 23
0.0
 14
1.0
 24
1.0
 15
0.0
 25
0.0
 16
0.0
 26
0.0
 36
96.5995694866707311
 17
3303.693115234375
 27
195.2615115758877096
 37
0.0
 40
6.745573076331616
 41
2.6486111111111108
 42
50.0
 43
0.0
 44
0.0
 50
0.0
 51
0.0
 71
     0
 72
   100
 73
     1
 74
     1
 75
     0
 76
     0
 77
     0
 78
     0
  0
ENDTAB
  0
TABLE
  2
LTYPE
 70
     2
  0
LTYPE
  2
CONTINUOUS
 70
     0
  3
Solid line
 72
    65
 73
     0
 40
0.0
  0
LTYPE
  2
PHANTOM2
 70
     0
  3
___ _ _ ___ _ _ ___ _ _ ___ _ _
 72
    65
 73
     6
 40
1.25
 49
0.625
 49
-0.125
 49
0.125
 49
-0.125
 49
0.125
 49
-0.125
  0
ENDTAB
  0
TABLE
  2
LAYER
 70
     2
  0
LAYER
  2
0
 70
     0
 62
   255
  6
CONTINUOUS
  0
LAYER
  2
DEFPOINTS
 70
     0
 62
     7
  6
CONTINUOUS
  0
ENDTAB
  0
TABLE
  2
STYLE
 70
     1
  0
STYLE
  2
STANDARD
 70
     0
 40
0.0
 41
0.8
 50
0.0
 71
     0
 42
0.2
  3
txt
  4

  0
ENDTAB
  0
TABLE
  2
VIEW
 70
     0
  0
ENDTAB
  0
TABLE
  2
UCS
 70
     0
  0
ENDTAB
  0
TABLE
  2
APPID
 70
     9
  0
APPID
  2
ACAD
 70
     0
  0
APPID
  2
ACAD_MLEADERVER
 70
     0
  0
APPID
  2
ACAD_EXEMPT_FROM_CAD_STANDARDS
 70
     0
  0
APPID
  2
ACAD_NAV_VCDISPLAY
 70
     0
  0
APPID
  2
ACAECLAYERSTANDARD
 70
     0
  0
APPID
  2
ACCMTRANSPARENCY
 70
     0
  0
APPID
  2
ACAD_DSTYLE_DIMJAG
 70
     0
  0
APPID
  2
ACAD_DSTYLE_DIMTALN
 70
     0
  0
APPID
  2
ACDBATTR
 70
     0
  0
ENDTAB
  0
TABLE
  2
DIMSTYLE
 70
     1
  0
DIMSTYLE
  2
STANDARD
 70
     0
  3

  4

  5

  6

  7

 40
1.0
 41
0.1875
 42
0.0625
 43
0.38
 44
0.125
 45
0.0
 46
0.0
 47
0.01
 48
0.01
140
0.15625
141
0.09
142
0.0
143
25.3999999999999986
144
1.0
145
0.0
146
1.0
147
0.09
 71
     1
 72
     0
 73
     1
 74
     1
 75
     0
 76
     0
 77
     0
 78
     4
170
     0
171
     2
172
     0
173
     0
174
     0
175
     0
176
     0
177
     0
178
     0
  0
ENDTAB
  0
ENDSEC
  0
SECTION
  2
BLOCKS
  0
BLOCK
  8
0
  2
$MODEL_SPACE
 70
     0
 10
0.0
 20
0.0
 30
0.0
  3
$MODEL_SPACE
  1

  0
ENDBLK
  5
21
  8
0
  0
BLOCK
 67
     1
  8
0
  2
$PAPER_SPACE
 70
     0
 10
0.0
 20
0.0
 30
0.0
  3
$PAPER_SPACE
  1

  0
ENDBLK
  5
1D
 67
     1
  8
0
  0
BLOCK
  8
0
  2
_FILLED
 70
     0
 10
0.0
 20
0.0
 30
0.0
  3
_FILLED
  1

  0
SOLID
  5
1223D
  8
0
  6
BYBLOCK
 62
     0
 10
0.0
 20
0.0
 30
0.0
 11
-1.0
 21
0.1666666667
 31
0.0
 12
-1.0
 22
-0.1666666667
 32
0.0
 13
-1.0
 23
-0.1666666667
 33
0.0
  0
ENDBLK
  5
1223E
  8
0
  6
BYBLOCK
 62
     0
  0
ENDSEC
  0
SECTION
  2
ENTITIES
  0
ATTDEF
  5
11993
  8
DEFPOINTS
 10
3537.0356838431089272
 20
159.8577804609045074
 30
0.0
 40
0.001
  1
K-23107IN-UF
  3

  2
MODELNUMBER
 70
     0
1001
ACDBATTR
1070
     0
1070
     1
  0
ATTDEF
  5
11994
  8
DEFPOINTS
 10
3537.0356838431089272
 20
159.8561137942378991
 30
0.0
 40
0.001
  1
REPLAY
  3

  2
TRADENAME
 70
     0
1001
ACDBATTR
1070
     0
1070
     1
  0
ATTDEF
  5
11995
  8
DEFPOINTS
 10
3537.0356838431089272
 20
159.8544471275712056
 30
0.0
 40
0.001
  1
TOILET SEAT
  3

  2
PRODUCT
 70
     0
1001
ACDBATTR
1070
     0
1070
     1
  0
LINE
  5
12A65
  8
0
 10
3519.584243394312125
 20
161.2983865329860862
 30
0.0
 11
3533.4509222503120327
 21
161.2984148868862064
 31
0.0
  0
LINE
  5
12A66
  8
0
 10
3533.4509222503120327
 20
161.2984148868862064
 30
0.0
 11
3533.7020447607510505
 21
161.2997534733152065
 31
0.0
  0
ARC
  5
12A67
  8
0
 10
3533.6679739238970797
 20
167.6915365498070969
 30
0.0
 40
6.3918738816447238
 50
270.3054072149367926
 51
275.798526826730722
  0
ARC
  5
12A68
  8
0
 10
3534.0327730475441967
 20
164.5009363372946893
 30
0.0
 40
3.1810019743503228
 50
275.0675146873605854
 51
297.1014693770155191
  0
ARC
  5
12A69
  8
0
 10
3533.9185572715668968
 20
164.5532400485074049
 30
0.0
 40
3.2805196103046179
 50
298.4612328176247047
 51
316.4233582520797086
  0
ARC
  5
12A6A
  8
0
 10
3533.0698714115851544
 20
165.424430351301794
 30
0.0
 40
4.4961217035605392
 50
315.8356662896842977
 51
320.0145400950249837
  0
ARC
  5
12A6B
  8
0
 10
3536.5738057239741465
 20
162.4814122485410905
 30
0.0
 40
0.0823775415223209
 50
43.463104579513157
 51
87.8573124724683794
  0
ARC
  5
12A6C
  8
0
 10
3536.5793412927000645
 20
162.4765408876872925
 30
0.0
 40
0.087225877891637
 50
91.6132268196290909
 51
137.6927372493395012
  0
ARC
  5
12A6D
  8
0
 10
3536.2698545718772039
 20
162.2051096334203919
 30
0.0
 40
0.4931296042232564
 50
31.0276669756306198
 51
42.4709392308853779
  0
ARC
  5
12A6E
  8
0
 10
3536.685871538723859
 20
162.4557929308010102
 30
0.0
 40
0.0074314220359955
 50
342.3828567428586211
 51
28.1088947634241002
  0
LINE
  5
12A6F
  8
0
 10
3536.6929544282120332
 20
162.4535437731861123
 30
0.0
 11
3536.6646071160671454
 21
162.3892291381727944
 31
0.0
  0
ARC
  5
12A70
  8
0
 10
3519.584300549944146
 20
161.2195910301880133
 30
0.0
 40
0.0787955235275012
 50
90.0415604414884143
 51
179.9630379040793002
  0
LINE
  5
12A71
  8
0
 10
3519.5055050428118193
 20
161.2196418619861902
 30
0.0
 11
3519.5054754368961767
 21
161.1737490689664014
 31
0.0
  0
ARC
  5
12A72
  8
0
 10
3519.5834459960151435
 20
161.173698769350807
 30
0.0
 40
0.0779705753427574
 50
179.9630379040775949
 51
261.7432252343787127
  0
ARC
  5
12A73
  8
0
 10
3519.4188081299312216
 20
160.3163368934532116
 30
0.0
 40
0.7951448149634186
 50
55.0397414352683612
 51
78.8737329075257065
  0
ARC
  5
12A74
  8
0
 10
3519.9258267332429568
 20
161.0506875799572981
 30
0.0
 40
0.0973601384066611
 50
238.1378822567544944
 51
265.4069895579444847
  0
LINE
  5
12A75
  8
0
 10
3519.9180303937118879
 20
160.9536400985861064
 30
0.0
 11
3533.8229363503760396
 21
160.9536400985861064
 31
0.0
  0
ARC
  5
12A76
  8
0
 10
3533.6892285324151999
 20
168.6521804997323954
 30
0.0
 40
7.6997014285403029
 50
270.995009846801679
 51
273.6781230050025897
  0
ARC
  5
12A77
  8
0
 10
3533.9530578185731429
 20
164.8677523869542085
 30
0.0
 40
3.9061973958384328
 50
273.3772831915171082
 51
285.2935908757509083
  0
ARC
  5
12A78
  8
0
 10
3534.2911640261090724
 20
163.5418588909707012
 30
0.0
 40
2.5381868655370332
 50
285.8261453174006874
 51
298.3996862395740095
  0
ARC
  5
12A79
  8
0
 10
3532.8750795866899352
 20
165.8233327343315011
 30
0.0
 40
5.2210742206223877
 50
300.1617994624974131
 51
305.1493425652251972
  0
ARC
  5
12A7A
  8
0
 10
3533.9987278189569224
 20
164.1985795452690979
 30
0.0
 40
3.2457354174784609
 50
305.4429127741391881
 51
316.7064457055964226
  0
ARC
  5
12A7B
  8
0
 10
3535.0267875637900943
 20
163.2211268219211036
 30
0.0
 40
1.827198665460817
 50
316.9090387845391774
 51
326.122024233286993
  0
ARC
  5
12A7C
  8
0
 10
3538.1391455915909319
 20
162.6854113811922957
 30
0.0
 40
1.503990570742566
 50
191.3575445443042042
 51
194.4034769680536954
  0
ARC
  5
12A7D
  8
0
 10
3541.6468786941431972
 20
163.5862710673391973
 30
0.0
 40
5.1255564879757198
 50
194.4034769680536954
 51
200.9451331080983039
  0
ARC
  5
12A7E
  8
0
 10
3572.487530421649808
 20
175.3910154994393054
 30
0.0
 40
38.1482424793444608
 50
200.9451331080983039
 51
201.2314098844516934
  0
ARC
  5
12A7F
  8
0
 10
3536.4087746668319596
 20
161.3742293515821018
 30
0.0
 40
0.5576603099017116
 50
346.1942906248373788
 51
21.2314098844517005
  0
ARC
  5
12A80
  8
0
 10
3536.47593581480578
 20
162.2686926205971076
 30
0.0
 40
0.0947141097506342
 50
315.7472408954791945
 51
42.1644347304145271
  0
ARC
  5
12A81
  8
0
 10
3536.4785936140888225
 20
162.1788877697271971
 30
0.0
 40
0.1675970160939368
 50
34.2637674869934727
 51
66.2323759501797724
  0
ARC
  5
12A82
  8
0
 10
3536.4189139617660658
 20
162.137859560440404
 30
0.0
 40
0.2400187571558802
 50
18.5690575583419211
 51
34.337313495771653
  0
ARC
  5
12A83
  8
0
 10
3551.6777164553350303
 20
167.857582836147202
 30
0.0
 40
16.0557176456031492
 50
200.5779654563787915
 51
202.5877603031071033
  0
ARC
  5
12A84
  8
0
 10
3550.22593814745278
 20
167.2601222436676949
 30
0.0
 40
14.4858196915587296
 50
202.6114704495925878
 51
203.1025204736423007
  0
ARC
  5
12A85
  8
0
 10
3536.4309797132241329
 20
161.3752265331571891
 30
0.0
 40
0.5119426792250051
 50
352.340107809620406
 51
23.1159068317328789
  0
ARC
  5
12A86
  8
0
 10
3536.4309442492422022
 20
161.3750544360532899
 30
0.0
 40
0.5119549175175347
 50
321.2004514898458751
 51
352.3597253427624878
  0
ARC
  5
12A87
  8
0
 10
3536.4306907356190095
 20
161.3751448656173011
 30
0.0
 40
0.5122091621379666
 50
299.7471254516862018
 51
321.2103371736441773
  0
ARC
  5
12A88
  8
0
 10
3536.4302986705170042
 20
161.3760868297364937
 30
0.0
 40
0.5132215455234349
 50
288.733478608636176
 51
299.7329498188212256
  0
ARC
  5
12A89
  8
0
 10
3536.3623859306258055
 20
161.6643293837373108
 30
0.0
 40
0.8084991081692063
 50
279.0312464004636013
 51
286.7304507155020019
  0
ARC
  5
12A8A
  8
0
 10
3536.4307404962460168
 20
161.3753288102527961
 30
0.0
 40
0.5364337726047558
 50
266.5344799084220995
 51
291.8627290474104825
  0
ARC
  5
12A8B
  8
0
 10
3536.4304434278601548
 20
161.3760691823684965
 30
0.0
 40
0.537231519742486
 50
291.8627290474104825
 51
313.506554873902985
  0
ARC
  5
12A8C
  8
0
 10
3536.4341517214547821
 20
161.3721623515183978
 30
0.0
 40
0.5318449838725287
 50
313.506554873902985
 51
329.7644268843365012
  0
ARC
  5
12A8D
  8
0
 10
3536.418144563000169
 20
161.3814920498662957
 30
0.0
 40
0.5503725955117134
 50
329.7644268843365012
 51
345.227244606122099
  0
ARC
  5
12A8E
  8
0
 10
3533.5985075628159393
 20
170.3212783036013036
 30
0.0
 40
9.8852770959700642
 50
274.9976575162054928
 51
281.8528314205152014
  0
ARC
  5
12A8F
  8
0
 10
3532.6971845227139966
 20
173.9572340356704956
 30
0.0
 40
13.6295103595165994
 50
282.4215536439681955
 51
285.0122705218474835
  0
ARC
  5
12A90
  8
0
 10
3532.7094522189117924
 20
173.9114895591513914
 30
0.0
 40
13.5821494737351607
 50
285.0122705218474835
 51
285.7620061826032156
  0
ARC
  5
12A91
  8
0
 10
3534.121932951681174
 20
168.9856371907686139
 30
0.0
 40
8.457854907314017
 50
285.6177133878331915
 51
286.2543210633021999
  0
ARC
  5
12A92
  8
0
 10
3537.7624146425368963
 20
156.499215666396907
 30
0.0
 40
4.5484446980982582
 50
104.3323794086799978
 51
106.2543210633021999
  0
LINE
  5
12A93
  8
0
 10
3535.8637962402231096
 20
160.7006838482838873
 30
0.0
 11
3535.8263652418117999
 21
160.2730449044861132
 31
0.0
  0
LINE
  5
12A94
  8
0
 10
3535.8263652418117999
 20
160.2730449044861132
 30
0.0
 11
3537.0350230886119789
 21
160.2730449044861132
 31
0.0
  0
LINE
  5
12A95
  8
0
 10
3537.0350230886119789
 20
160.2730449044861132
 30
0.0
 11
3536.950324452473069
 21
161.2411547450207934
 31
0.0
  0
ARC
  5
12A96
  8
0
 10
3534.0662735767341474
 20
163.5620465569718931
 30
0.0
 40
2.7121775847096581
 50
297.6526669927861235
 51
313.1657739607093163
  0
ARC
  5
12A97
  8
0
 10
3533.8984601762690545
 20
163.8823265840393901
 30
0.0
 40
3.0737583268876212
 50
281.7424320330678142
 51
297.6526669927861235
  0
ARC
  5
12A98
  8
0
 10
3534.0965417522870666
 20
163.2137790854274897
 30
0.0
 40
2.3795938734685711
 50
269.8642785116367122
 51
280.3486987832988007
  0
LINE
  5
12A99
  8
0
 10
3534.0909050069121804
 20
160.8341918880861101
 30
0.0
 11
3519.5904891849618252
 21
160.8340241419861059
 31
0.0
  0
ARC
  5
12A9A
  8
0
 10
3519.589551067560933
 20
160.7551971224870897
 30
0.0
 40
0.0788326015514054
 50
89.3181572677561491
 51
178.9331685228040953
  0
LINE
  5
12A9B
  8
0
 10
3519.5107321310119914
 20
160.7566648787862107
 30
0.0
 11
3519.5096170338119919
 21
160.6927813162861867
 31
0.0
  0
ARC
  5
12A9C
  8
0
 10
3519.5879528153718638
 20
160.6914144579521917
 30
0.0
 40
0.078347705609144
 50
179.0003640004892134
 51
263.2567142574897048
  0
ARC
  5
12A9D
  8
0
 10
3519.5085094622481847
 20
160.0195264113773135
 30
0.0
 40
0.5982206896662993
 50
52.5037514528854814
 51
83.2567142574896621
  0
ARC
  5
12A9E
  8
0
 10
3519.9205784932528331
 20
160.5566180377128092
 30
0.0
 40
0.0787344797451674
 50
232.5037514528864051
 51
268.8783594007705915
  0
LINE
  5
12A9F
  8
0
 10
3519.9190372602120078
 20
160.4778986442861139
 30
0.0
 11
3520.9276933979122077
 21
160.4759594270861101
 31
0.0
  0
ARC
  5
12AA0
  8
0
 10
3520.9670157899049627
 20
154.1056588804050023
 30
0.0
 40
6.3704219095408794
 50
88.993243009714206
 51
90.3536691040149407
  0
ARC
  5
12AA1
  8
0
 10
3520.5482551483241878
 20
142.2062633366641933
 30
0.0
 40
18.2765404419276507
 50
88.1798569903100287
 51
88.3360839740201556
  0
LINE
  5
12AA2
  8
0
 10
3534.4596636173619117
 20
160.4735824556462944
 30
0.0
 11
3521.1287572850001197
 21
160.4735824556462944
 31
0.0
  0
LINE
  5
12AA3
  8
0
 10
3522.0015832467788641
 20
159.8529661293860897
 30
0.0
 11
3533.4243772390359482
 21
159.8529661293860897
 31
0.0
  0
ARC
  5
12AA4
  8
0
 10
3520.4956192982358516
 20
158.739628517669388
 30
0.0
 40
1.79116185340338
 50
66.8666056341459409
 51
75.7921143190270499
  0
ARC
  5
12AA5
  8
0
 10
3520.4097259443060466
 20
158.53857915431999
 30
0.0
 40
2.0097905677858612
 50
50.6917708968889897
 51
66.8666056341459409
  0
ARC
  5
12AA6
  8
0
 10
3520.4816504649961644
 20
158.6264280015045074
 30
0.0
 40
1.8962539806077521
 50
42.8120996556034683
 51
50.6917708968889897
  0
ARC
  5
12AA7
  8
0
 10
3522.0162753039971903
 20
160.0481082790064988
 30
0.0
 40
0.1956944432112832
 50
222.8120996556035038
 51
265.6943811912699971
  0
ARC
  5
12AA8
  8
0
 10
3533.4086363758178777
 20
160.0505425458314903
 30
0.0
 40
0.1982024598995518
 50
274.5551190258336192
 51
313.921267298815394
  0
ARC
  5
12AA9
  8
0
 10
3535.6227060757678373
 20
157.7692969507129988
 30
0.0
 40
2.9808219571959169
 50
125.2812124739348008
 51
134.1586631819000957
  0
ARC
  5
12AAA
  8
0
 10
3535.1452008348201161
 20
158.4441709077541987
 30
0.0
 40
2.1541018636786862
 50
116.4081506862009974
 51
125.2812124739348008
  0
ARC
  5
12AAB
  8
0
 10
3535.0690244904349129
 20
158.5975723610800117
 30
0.0
 40
1.982827693628324
 50
108.8923404921912947
 51
116.4081506862009974
  0
ARC
  5
12AAC
  8
0
 10
3522.0679116385322232
 20
160.3939137588683082
 30
0.0
 40
0.0805474034175348
 50
56.7378095184547391
 51
81.5291026215473522
  0
LINE
  5
12AAD
  8
0
 10
3522.1120895654130436
 20
160.4612650392861042
 30
0.0
 11
3522.2927716102121849
 21
160.3160867231862028
 31
0.0
  0
ARC
  5
12AAE
  8
0
 10
3522.3678067465889399
 20
160.4250458213780917
 30
0.0
 40
0.1322964730059795
 50
235.4465969233986016
 51
273.1295280025665875
  0
LINE
  5
12AAF
  8
0
 10
3522.3750292625118163
 20
160.292946646386099
 30
0.0
 11
3523.3364198552021662
 21
160.2929466034202903
 31
0.0
  0
ARC
  5
12AB0
  8
0
 10
3523.3418970382617772
 20
160.4164145157841119
 30
0.0
 40
0.1235893398058501
 50
267.4599567487217087
 51
307.4493601712869122
  0
LINE
  5
12AB1
  8
0
 10
3523.4170467722810827
 20
160.3182980421906905
 30
0.0
 11
3523.5755796192120215
 21
160.4602638832861885
 31
0.0
  0
ARC
  5
12AB2
  8
0
 10
3523.6134564652038534
 20
160.4144732563615889
 30
0.0
 40
0.0594258948310768
 50
95.9178479713975634
 51
129.5966903683757891
  0
ARC
  5
12AB3
  8
0
 10
3522.2039392182518895
 20
160.9302398428814911
 30
0.0
 40
0.0993525267182024
 50
231.7724322494051989
 51
255.4731203092848943
  0
ARC
  5
12AB4
  8
0
 10
3524.6076799558168204
 20
163.9818270664584077
 30
0.0
 40
3.9839572835157249
 50
229.8350208288113947
 51
231.7724322494051989
  0
ARC
  5
12AB5
  8
0
 10
3521.9903784661159989
 20
160.8808263026332952
 30
0.0
 40
0.0739329103209753
 50
49.8350208288114089
 51
80.0182815926199282
  0
ARC
  5
12AB6
  8
0
 10
3523.3268747754068499
 20
160.9269996536098972
 30
0.0
 40
0.0967854121369395
 50
286.2221487550737038
 51
310.5347048539111938
  0
ARC
  5
12AB7
  8
0
 10
3516.4103722068930438
 20
168.549064781216714
 30
0.0
 40
10.3891626502415892
 50
312.2058797870661806
 51
312.8804117052380889
  0
ARC
  5
12AB8
  8
0
 10
3523.523375682067126
 20
160.8919680903736946
 30
0.0
 40
0.0619854202207539
 50
95.7641308641068747
 51
134.5515866384000105
  0
ARC
  5
12AB9
  8
0
 10
3530.6970226229268519
 20
160.4006881461286014
 30
0.0
 40
0.0738057291607336
 50
55.1944501161917316
 51
80.9863701052934175
  0
ARC
  5
12ABA
  8
0
 10
3541.9070562418169175
 20
174.1819808615595093
 30
0.0
 40
17.6912263436710617
 50
230.8562615289424969
 51
231.6049397255139013
  0
ARC
  5
12ABB
  8
0
 10
3530.9943325375279528
 20
160.4247935464165948
 30
0.0
 40
0.1316697147285376
 50
235.3052737477688936
 51
269.665022742841586
  0
LINE
  5
12ABC
  8
0
 10
3530.9935627407121501
 20
160.2931260819862018
 30
0.0
 11
3532.0211295767121555
 21
160.2930316005362101
 31
0.0
  0
ARC
  5
12ABD
  8
0
 10
3532.0235699686159023
 20
160.4275478613027133
 30
0.0
 40
0.1345383957212355
 50
268.9606548793904039
 51
304.0193084820925264
  0
LINE
  5
12ABE
  8
0
 10
3532.0988404681929751
 20
160.3160358358674102
 30
0.0
 11
3532.280037397013075
 21
160.4615289364861042
 31
0.0
  0
ARC
  5
12ABF
  8
0
 10
3532.317032040587037
 20
160.4113698887506985
 30
0.0
 40
0.0623260276524135
 50
93.4577345557640342
 51
126.410510155634995
  0
ARC
  5
12AC0
  8
0
 10
3536.4241076470070766
 20
161.3776933667930109
 30
0.0
 40
0.5041339610086745
 50
63.5782567626988708
 51
112.2900496658607068
  0
ARC
  5
12AC1
  8
0
 10
3536.4072502903950408
 20
161.3437667755164
 30
0.0
 40
0.5420177843057146
 50
41.7911981414075271
 51
63.5782567626988708
  0
ARC
  5
12AC2
  8
0
 10
3536.4409747166209854
 20
161.3739105714786888
 30
0.0
 40
0.4967852146317037
 50
23.8325197904657102
 51
41.7911981414075271
  0
ARC
  5
12AC3
  8
0
 10
3536.3177407787011362
 20
161.3194743567773912
 30
0.0
 40
0.6315067976316989
 50
9.4551776879348406
 51
23.8325197904657102
  0
LINE
  5
12AC5
  8
0
 10
3519.5722486698118701
 20
161.0965364047862067
 30
0.0
 11
3534.284536638318059
 21
161.0965364047862067
 31
0.0
  0
LINE
  5
12AC6
  8
0
 10
3519.5787465552862159
 20
160.6136095239862129
 30
0.0
 11
3534.1433888208498502
 21
160.6136095239862129
 31
0.0
  0
ARC
  5
12AC7
  8
0
 10
3535.7199236409751393
 20
162.7799999009073986
 30
0.0
 40
0.8317349716580782
 50
338.887230408535288
 51
342.8868024280658915
  0
ARC
  5
12AC8
  8
0
 10
3534.6928278814571058
 20
163.6300406847906004
 30
0.0
 40
2.1383329608322761
 50
319.5268161521062211
 51
327.4774343658378939
  0
ARC
  5
12AC9
  8
0
 10
3534.5535519675690921
 20
163.6321476366329932
 30
0.0
 40
2.2474041590428291
 50
289.6279053923969968
 51
321.7912938426214282
  0
ARC
  5
12ACA
  8
0
 10
3534.1461243222138364
 20
164.9675822953605859
 30
0.0
 40
3.6426781588695638
 50
276.6454477296073264
 51
288.6080965569797172
  0
ARC
  5
12ACB
  8
0
 10
3534.2410603178391284
 20
163.6091872273659078
 30
0.0
 40
2.2832898966350368
 50
270.1382633340721782
 51
278.2240854559811964
  0
ARC
  5
12ACC
  8
0
 10
3533.9405206552269192
 20
166.1222266202562139
 30
0.0
 40
5.0374506586659153
 50
273.9158730167372937
 51
279.0455117031003169
  0
ARC
  5
12ACD
  8
0
 10
3534.2122927175978475
 20
164.4151027893161938
 30
0.0
 40
3.3088292923601448
 50
279.0455117031003169
 51
290.5613405545171872
  0
ARC
  5
12ACE
  8
0
 10
3534.491071511744849
 20
163.6719016030646117
 30
0.0
 40
2.5150625638361102
 50
290.5613405545171872
 51
299.4080532558617733
  0
ARC
  5
12ACF
  8
0
 10
3534.1114942327299104
 20
164.3453214165402017
 30
0.0
 40
3.2880911247092568
 50
299.4080532558617733
 51
304.2923455437259008
  0
ARC
  5
12AD0
  8
0
 10
3534.5936035769209411
 20
163.6383726888051058
 30
0.0
 40
2.4324008049074539
 50
304.2923455437259008
 51
310.3356414935176986
  0
ARC
  5
12AD1
  8
0
 10
3534.0651840984878618
 20
164.4854810967277103
 30
0.0
 40
3.8726612883653391
 50
271.1571125890999951
 51
275.9378126059871192
  0
ARC
  5
12AD2
  8
0
 10
3533.9834737887781557
 20
165.2711043094151933
 30
0.0
 40
4.6625222932431249
 50
275.9378126059871192
 51
282.5490572718517797
  0
ARC
  5
12AD3
  8
0
 10
3534.0105210189381069
 20
165.1495945814754123
 30
0.0
 40
4.5380386933460022
 50
282.5490572718517797
 51
292.2959574041552173
  0
ARC
  5
12AD4
  8
0
 10
3534.7454337903750456
 20
163.3573319038509908
 30
0.0
 40
2.6009526634477811
 50
292.2959574041552173
 51
305.3098253224550831
  0
ARC
  5
12AD5
  8
0
 10
3533.2083030949970635
 20
165.5275102351963028
 30
0.0
 40
5.2603595079367578
 50
305.3098253224550831
 51
310.6125079805349856
  0
ARC
  5
12AD6
  8
0
 10
3535.1227346069749728
 20
163.2948912464360092
 30
0.0
 40
2.3193332307628971
 50
310.6125079805349856
 51
316.7246957552065965
  0
ENDSEC
  0
EOF
